  0
SECTION
  2
HEADER
  9
$ACADVER
  1
AC1009
  9
$DWGCODEPAGE
  3
dos932
  9
$INSBASE
 10
0.0
 20
0.0
 30
0.0
  9
$EXTMIN
 10
-574.18668992373568
 20
-306.65587192244863
 30
-0.0061003601301195
  9
$EXTMAX
 10
1033.264171731731
 20
577.10266913881242
 30
0.0053438757088884
  9
$LIMMIN
 10
-2970.0
 20
-2100.0
  9
$LIMMAX
 10
2970.0
 20
2100.0
  9
$ORTHOMODE
 70
     1
  9
$REGENMODE
 70
     1
  9
$FILLMODE
 70
     1
  9
$QTEXTMODE
 70
     0
  9
$MIRRTEXT
 70
     0
  9
$LTSCALE
 40
20.0
  9
$ATTMODE
 70
     1
  9
$TEXTSIZE
 40
64.0
  9
$TRACEWID
 40
0.05
  9
$TEXTSTYLE
  7
STANDARD
  9
$CLAYER
  8
NOTE
  9
$CELTYPE
  6
CONTINUOUS
  9
$CECOLOR
 62
     7
  9
$DIMSCALE
 40
1.0
  9
$DIMASZ
 40
12.0
  9
$DIMEXO
 40
20.0
  9
$DIMDLI
 40
200.0
  9
$DIMRND
 40
0.0
  9
$DIMDLE
 40
0.0
  9
$DIMEXE
 40
20.0
  9
$DIMTP
 40
0.0
  9
$DIMTM
 40
0.0
  9
$DIMTXT
 40
64.0
  9
$DIMCEN
 40
0.09
  9
$DIMTSZ
 40
0.0
  9
$DIMTOL
 70
     0
  9
$DIMLIM
 70
     0
  9
$DIMTIH
 70
     0
  9
$DIMTOH
 70
     0
  9
$DIMSE1
 70
     0
  9
$DIMSE2
 70
     0
  9
$DIMTAD
 70
     1
  9
$DIMZIN
 70
     8
  9
$DIMBLK
  1

  9
$DIMASO
 70
     1
  9
$DIMSHO
 70
     0
  9
$DIMPOST
  1

  9
$DIMAPOST
  1

  9
$DIMALT
 70
     0
  9
$DIMALTD
 70
     2
  9
$DIMALTF
 40
25.399999999999999
  9
$DIMLFAC
 40
1.0
  9
$DIMTOFL
 70
     1
  9
$DIMTVP
 40
0.0
  9
$DIMTIX
 70
     1
  9
$DIMSOXD
 70
     0
  9
$DIMSAH
 70
     0
  9
$DIMBLK1
  1

  9
$DIMBLK2
  1

  9
$DIMSTYLE
  2
STANDARD
  9
$DIMCLRD
 70
     7
  9
$DIMCLRE
 70
     7
  9
$DIMCLRT
 70
     7
  9
$DIMTFAC
 40
1.0
  9
$DIMGAP
 40
25.0
  9
$LUNITS
 70
     2
  9
$LUPREC
 70
     4
  9
$SKETCHINC
 40
0.1
  9
$FILLETRAD
 40
3.0
  9
$AUNITS
 70
     1
  9
$AUPREC
 70
     3
  9
$MENU
  1
ACAD
  9
$ELEVATION
 40
0.0
  9
$PELEVATION
 40
0.0
  9
$THICKNESS
 40
50.0
  9
$LIMCHECK
 70
     0
  9
$CHAMFERA
 40
0.0
  9
$CHAMFERB
 40
0.0
  9
$SKPOLY
 70
     0
  9
$TDCREATE
 40
2453019.62301037
  9
$TDUPDATE
 40
2459017.512376042
  9
$TDINDWG
 40
1.7200819329
  9
$TDUSRTIMER
 40
1.7200819329
  9
$USRTIMER
 70
     1
  9
$ANGBASE
 50
0.0
  9
$ANGDIR
 70
     0
  9
$PDMODE
 70
     3
  9
$PDSIZE
 40
-2.0
  9
$PLINEWID
 40
0.0
  9
$SPLFRAME
 70
     0
  9
$SPLINETYPE
 70
     6
  9
$SPLINESEGS
 70
     8
  9
$SURFTAB1
 70
     6
  9
$SURFTAB2
 70
     6
  9
$SURFTYPE
 70
     6
  9
$SURFU
 70
     6
  9
$SURFV
 70
     6
  9
$UCSNAME
  2

  9
$UCSORG
 10
0.0
 20
0.0
 30
0.0
  9
$UCSXDIR
 10
1.0
 20
0.0
 30
0.0
  9
$UCSYDIR
 10
0.0
 20
1.0
 30
0.0
  9
$PUCSNAME
  2

  9
$PUCSORG
 10
0.0
 20
0.0
 30
0.0
  9
$PUCSXDIR
 10
1.0
 20
0.0
 30
0.0
  9
$PUCSYDIR
 10
0.0
 20
1.0
 30
0.0
  9
$USERI1
 70
     0
  9
$USERI2
 70
     0
  9
$USERI3
 70
     0
  9
$USERI4
 70
     0
  9
$USERI5
 70
     0
  9
$USERR1
 40
20.0
  9
$USERR2
 40
0.0
  9
$USERR3
 40
0.0
  9
$USERR4
 40
0.0
  9
$USERR5
 40
0.0
  9
$WORLDVIEW
 70
     1
  9
$SHADEDGE
 70
     3
  9
$SHADEDIF
 70
    70
  9
$TILEMODE
 70
     1
  9
$MAXACTVP
 70
    48
  9
$PINSBASE
 10
0.0
 20
0.0
 30
0.0
  9
$PLIMCHECK
 70
     0
  9
$PEXTMIN
 10
-100000000000000000000.0
 20
-100000000000000000000.0
 30
-100000000000000000000.0
  9
$PEXTMAX
 10
100000000000000000000.0
 20
100000000000000000000.0
 30
100000000000000000000.0
  9
$PLIMMIN
 10
0.0
 20
0.0
  9
$PLIMMAX
 10
12.0
 20
9.0
  9
$UNITMODE
 70
     0
  9
$VISRETAIN
 70
     0
  9
$PLINEGEN
 70
     0
  9
$PSLTSCALE
 70
     0
  9
$TREEDEPTH
 70
  3020
  9
$ATTDIA
 70
     0
  9
$ATTREQ
 70
     1
  9
$BLIPMODE
 70
     1
  9
$COORDS
 70
     1
  9
$DRAGMODE
 70
     2
  9
$OSMODE
 70
     0
  9
$HANDLING
 70
     0
  9
$HANDSEED
  5
EF85
  0
ENDSEC
  0
SECTION
  2
TABLES
  0
TABLE
  2
LTYPE
 70
     2
  0
LTYPE
  2
CONTINUOUS
 70
     0
  3
実線
 72
    65
 73
     0
 40
0.0
  0
LTYPE
  2
DASHDOT
 70
     0
  3
____ _ ____ _ ____ _ ____ _ ____ _ ____ _ ____
 72
    65
 73
     4
 40
5.5
 49
4.0
 49
-0.6
 49
0.3
 49
-0.6
  0
ENDTAB
  0
TABLE
  2
LAYER
 70
    12
  0
LAYER
  2
0
 70
     0
 62
     7
  6
CONTINUOUS
  0
LAYER
  2
BASIS
 70
     0
 62
     6
  6
DASHDOT
  0
LAYER
  2
OUTLINE
 70
     0
 62
     3
  6
CONTINUOUS
  0
LAYER
  2
DETAIL
 70
     0
 62
     5
  6
CONTINUOUS
  0
LAYER
  2
SIZE
 70
     0
 62
    30
  6
CONTINUOUS
  0
LAYER
  2
ARRANGE
 70
     0
 62
     1
  6
CONTINUOUS
  0
LAYER
  2
DEFPOINTS
 70
     0
 62
     7
  6
CONTINUOUS
  0
LAYER
  2
ETC
 70
     0
 62
    61
  6
CONTINUOUS
  0
LAYER
  2
FIX
 70
     0
 62
    11
  6
CONTINUOUS
  0
LAYER
  2
NOTE
 70
     0
 62
     4
  6
CONTINUOUS
  0
LAYER
  2
SERVICESPACE
 70
    64
 62
     2
  6
DASHDOT
  0
LAYER
  2
SYMBOLLINE
 70
    64
 62
    15
  6
CONTINUOUS
  0
ENDTAB
  0
TABLE
  2
STYLE
 70
     1
  0
STYLE
  2
STANDARD
 70
     0
 40
64.0
 41
0.9
 50
0.0
 71
     0
 42
64.0
  3
SIMPLEX.shx
  4
BIGFONT.shx
  0
ENDTAB
  0
TABLE
  2
APPID
 70
    17
  0
APPID
  2
ACAD
 70
     0
  0
APPID
  2
AUTOCAD_POSTSCRIPT_FIGURE
 70
     0
  0
APPID
  2
ACAD_EXEMPT_FROM_CAD_STANDARDS
 70
     0
  0
APPID
  2
ACAD_PSEXT
 70
     0
  0
APPID
  2
ACAUTHENVIRON
 70
     0
  0
APPID
  2
GENIUS_GENOENT_13
 70
     0
  0
APPID
  2
GENIUS_GENCFG_13
 70
     0
  0
APPID
  2
GENIUS_GENCFG0_13
 70
     0
  0
APPID
  2
GENIUS_GENCFG1_13
 70
     0
  0
APPID
  2
GENIUS_GENCFG2_13
 70
     0
  0
APPID
  2
GENIUS_GENCFG3_13
 70
     0
  0
APPID
  2
GENIUS_GENCFG4_13
 70
     0
  0
APPID
  2
GENIUS_GEVCFG0_13
 70
     0
  0
APPID
  2
CONTENTBLOCKICON
 70
     0
  0
APPID
  2
CONTENTBLOCKDESCRIPTION
 70
     0
  0
APPID
  2
ACAD_NAV_VCDISPLAY
 70
     0
  0
APPID
  2
ACAD_MLEADERVER
 70
     0
  0
ENDTAB
  0
TABLE
  2
DIMSTYLE
 70
     1
  0
DIMSTYLE
  2
STANDARD
 70
     0
  3

  4

  5
_ORIGIN
  6

  7

 40
1.0
 41
12.0
 42
20.0
 43
200.0
 44
20.0
 45
0.0
 46
0.0
 47
0.0
 48
0.0
140
64.0
141
0.09
142
0.0
143
25.399999999999999
144
1.0
145
0.0
146
1.0
147
25.0
 71
     0
 72
     0
 73
     0
 74
     0
 75
     0
 76
     0
 77
     1
 78
     8
170
     0
171
     2
172
     1
173
     0
174
     1
175
     0
176
     7
177
     7
178
     7
  0
ENDTAB
  0
TABLE
  2
VIEW
 70
     1
  0
VIEW
  2
ALL
 70
     0
 40
4282.6198079999986
 10
0.0
 20
41.309904000000003
 41
5940.0
 11
0.0
 21
0.0
 31
1.0
 12
0.0
 22
0.0
 32
0.0
 42
50.0
 43
0.0
 44
0.0
 50
0.0
 71
     0
  0
ENDTAB
  0
TABLE
  2
UCS
 70
     0
  0
ENDTAB
  0
TABLE
  2
VPORT
 70
     1
  0
VPORT
  2
*ACTIVE
 70
     0
 10
0.0
 20
0.0
 11
1.0
 21
1.0
 12
229.53874090399771
 22
135.2233986081819
 13
0.0
 23
0.0
 14
1.0
 24
1.0
 15
0.0
 25
0.0
 16
0.0
 26
0.0
 36
1.0
 17
0.0
 27
0.0
 37
0.0
 40
695.71140887390868
 41
2.0264317180616742
 42
50.0
 43
0.0
 44
0.0
 50
0.0
 51
0.0
 71
     0
 72
  1000
 73
     1
 74
     3
 75
     0
 76
     0
 77
     0
 78
     0
  0
ENDTAB
  0
ENDSEC
  0
SECTION
  2
BLOCKS
  0
BLOCK
  8
0
  2
_ORIGIN
 70
     0
 10
0.0
 20
0.0
 30
0.0
  3
_ORIGIN
  1
_ORIGIN
  0
CIRCLE
  8
0
  6
CONTINUOUS
 62
     7
 10
0.0
 20
0.0
 30
0.0
 40
0.5
  0
LINE
  8
0
  6
CONTINUOUS
 62
     7
 10
0.0
 20
0.0
 30
0.0
 11
-1.0
 21
0.0
 31
0.0
  0
ENDBLK
  8
0
  0
ENDSEC
  0
SECTION
  2
ENTITIES
  0
CIRCLE
  8
ARRANGE
  6
CONTINUOUS
 62
     1
 10
0.0
 20
0.0
 30
0.0
 40
40.0
  0
POINT
  8
ARRANGE
  6
CONTINUOUS
 62
     1
 10
0.0
 20
0.0
 30
0.0
  0
CIRCLE
  8
FIX
  6
CONTINUOUS
 62
    11
 10
-84.99999999994202
 20
-0.0000538547008091
 30
0.0
 40
2.5
  0
LINE
  8
BASIS
  6
DASHDOT
 62
     6
 10
-104.99999999994201
 20
-0.0000538547008091
 30
0.0
 11
-64.99999999994202
 21
-0.0000538547008091
 31
0.0
  0
LINE
  8
BASIS
  6
DASHDOT
 62
     6
 10
-85.000017168507725
 20
-26.000053854700809
 30
0.0
 11
-84.99999999994202
 21
19.999946145299191
 31
0.0
  0
CIRCLE
  8
FIX
  6
CONTINUOUS
 62
    11
 10
85.0
 20
0.0
 30
0.0
 40
2.5
  0
LINE
  8
BASIS
  6
DASHDOT
 62
     6
 10
65.0
 20
0.0
 30
0.0
 11
105.0
 21
0.0
 31
0.0
  0
LINE
  8
BASIS
  6
DASHDOT
 62
     6
 10
84.999982831434295
 20
-26.0
 30
0.0
 11
85.0
 21
20.0
 31
0.0
  0
LINE
  8
NOTE
  6
CONTINUOUS
 62
     4
 10
-89.545057852557647
 20
11.105924466780889
 30
0.0
 11
-184.30000452755041
 21
243.44261485409959
 31
0.0
  0
LINE
  8
NOTE
  6
CONTINUOUS
 62
     4
 10
-574.11476974600407
 20
243.44265745832351
 30
0.0
 11
-184.30000452755041
 21
243.44261485409959
 31
0.0
  0
TEXT
  8
NOTE
  6
CONTINUOUS
 62
     4
 10
-559.66102373803767
 20
265.04447887862318
 30
0.0
 40
64.0
  1
4-φ5×8
 50
359.9999937379431
 41
0.9
  0
LINE
  8
NOTE
  6
CONTINUOUS
 62
     4
 10
-146.50757564094181
 20
-0.000000000024329
 30
0.0
 11
-187.9803828650173
 21
-0.000000000024329
 31
0.0
  0
TEXT
  8
NOTE
  6
CONTINUOUS
 62
     4
 10
-313.05229526181222
 20
150.5188341756473
 30
0.0
 40
64.0
  1
EL
 41
0.9
 72
     2
 11
-228.02372383324081
 21
150.5188341756473
 31
0.0
  0
LINE
  8
NOTE
  6
CONTINUOUS
 62
     4
 10
-172.3626870999484
 20
6.2074538124396668
 30
0.0
 11
-172.59119630354061
 21
-0.000000000024329
 31
0.0
  0
LINE
  8
NOTE
  6
CONTINUOUS
 62
     4
 10
-172.59119630354061
 20
-0.000000000024329
 30
0.0
 11
-175.4970367076825
 21
5.4900629172523736
 31
0.0
  0
LINE
  8
NOTE
  6
CONTINUOUS
 62
     4
 10
-172.59119630354061
 20
-0.000000000024329
 30
0.0
 11
-175.2685275040902
 21
11.697516729716369
 31
0.0
  0
LINE
  8
NOTE
  6
CONTINUOUS
 62
     4
 10
-175.2685275040902
 20
11.697516729716369
 30
0.0
 11
-202.83665271708711
 21
132.58680124448409
 31
0.0
  0
LINE
  8
NOTE
  6
CONTINUOUS
 62
     4
 10
-202.83665271708711
 20
132.58680124448409
 30
0.0
 11
-324.86522414565849
 21
132.58680124448409
 31
0.0
  0
LINE
  8
NOTE
  6
CONTINUOUS
 62
     4
 10
-85.784575411107085
 20
6.1618905775825397
 30
0.0
 11
-84.999928316562432
 21
-0.0000107707857637
 31
0.0
  0
LINE
  8
NOTE
  6
CONTINUOUS
 62
     4
 10
-84.999928316562432
 20
-0.0000107707857637
 30
0.0
 11
-88.760410758012995
 21
4.9440231184126446
 31
0.0
  0
LINE
  8
NOTE
  6
CONTINUOUS
 62
     4
 10
-84.999928316562432
 20
-0.0000107707857637
 30
0.0
 11
-89.545057852557647
 21
11.105924466780889
 31
0.0
  0
LINE
  8
SIZE
  6
CONTINUOUS
 62
    30
 10
-191.7587406591997
 20
-32.0
 30
0.0
 11
-351.16835736541168
 21
-31.99999999999994
 31
0.0
  0
LINE
  8
SIZE
  6
CONTINUOUS
 62
    30
 10
-197.5
 20
-94.0
 30
0.0
 11
-351.16835736541168
 21
-93.999999999999943
 31
0.0
  0
LINE
  8
SIZE
  6
CONTINUOUS
 62
    30
 10
-331.16835736541168
 20
-106.0
 30
0.0
 11
-331.16835736541168
 21
-118.0
 31
0.0
  0
LINE
  8
SIZE
  6
CONTINUOUS
 62
    30
 10
-331.16835736541168
 20
-19.99999999999994
 30
0.0
 11
-331.16835736541162
 21
232.36512983308009
 31
0.0
  0
LINE
  8
SIZE
  6
CONTINUOUS
 62
    30
 10
-331.16835736541168
 20
-93.999999999999943
 30
0.0
 11
-331.16835736541168
 21
-31.99999999999994
 31
0.0
  0
CIRCLE
  8
SIZE
  6
CONTINUOUS
 62
    30
 10
-331.16835736541168
 20
-93.999999999999943
 30
0.0
 40
6.0
  0
LINE
  8
SIZE
  6
CONTINUOUS
 62
    30
 10
-331.16835736541168
 20
-93.999999999999943
 30
0.0
 11
-331.16835736541168
 21
-106.0
 31
0.0
  0
CIRCLE
  8
SIZE
  6
CONTINUOUS
 62
    30
 10
-331.16835736541168
 20
-31.99999999999994
 30
0.0
 40
6.0
  0
LINE
  8
SIZE
  6
CONTINUOUS
 62
    30
 10
-331.16835736541168
 20
-31.99999999999994
 30
0.0
 11
-331.16835736541168
 21
-19.99999999999994
 31
0.0
  0
TEXT
  8
SIZE
  6
CONTINUOUS
 62
    30
 10
-356.16835736541168
 20
114.10798697593729
 30
0.0
 40
64.0
  1
62
 50
90.0
 41
0.9
 72
     1
 11
-356.16835736541168
 21
160.73655840450871
 31
0.0
  0
LINE
  8
SIZE
  6
CONTINUOUS
 62
    30
 10
-196.79999999999981
 20
-107.3
 30
0.0
 11
-483.36854245679177
 21
-107.2999999999999
 31
0.0
  0
LINE
  8
SIZE
  6
CONTINUOUS
 62
    30
 10
-192.59119630349991
 20
0.0
 30
0.0
 11
-483.36854245679189
 21
0.0000000000001137
 31
0.0
  0
LINE
  8
SIZE
  6
CONTINUOUS
 62
    30
 10
-463.36854245679189
 20
-11.99999999999994
 30
0.0
 11
-463.36854245679189
 21
-95.299999999999869
 31
0.0
  0
LINE
  8
SIZE
  6
CONTINUOUS
 62
    30
 10
-463.36854245679189
 20
-107.2999999999999
 30
0.0
 11
-463.36854245679189
 21
-306.44285714285701
 31
0.0
  0
CIRCLE
  8
SIZE
  6
CONTINUOUS
 62
    30
 10
-463.36854245679189
 20
0.0000000000000568
 30
0.0
 40
6.0
  0
LINE
  8
SIZE
  6
CONTINUOUS
 62
    30
 10
-463.36854245679189
 20
0.0000000000000568
 30
0.0
 11
-463.36854245679189
 21
-11.99999999999994
 31
0.0
  0
CIRCLE
  8
SIZE
  6
CONTINUOUS
 62
    30
 10
-463.36854245679189
 20
-107.2999999999999
 30
0.0
 40
6.0
  0
LINE
  8
SIZE
  6
CONTINUOUS
 62
    30
 10
-463.36854245679189
 20
-107.2999999999999
 30
0.0
 11
-463.36854245679189
 21
-95.299999999999869
 31
0.0
  0
TEXT
  8
SIZE
  6
CONTINUOUS
 62
    30
 10
-488.36854245679177
 20
-281.44285714285701
 30
0.0
 40
64.0
  1
107
 50
90.0
 41
0.9
 72
     1
 11
-488.36854245679177
 21
-212.87142857142851
 31
0.0
  0
LINE
  8
SIZE
  6
CONTINUOUS
 62
    30
 10
-196.9999999999998
 20
-107.3
 30
0.0
 11
-351.16835736541168
 21
-107.2999999999999
 31
0.0
  0
LINE
  8
SIZE
  6
CONTINUOUS
 62
    30
 10
-197.5
 20
-94.0
 30
0.0
 11
-351.16835736541168
 21
-93.999999999999943
 31
0.0
  0
LINE
  8
SIZE
  6
CONTINUOUS
 62
    30
 10
-331.16835736541168
 20
-81.999999999999943
 30
0.0
 11
-331.16835736541168
 21
-69.999999999999943
 31
0.0
  0
LINE
  8
SIZE
  6
CONTINUOUS
 62
    30
 10
-331.16835736541168
 20
-119.2999999999999
 30
0.0
 11
-331.16835736541168
 21
-263.58571428571418
 31
0.0
  0
LINE
  8
SIZE
  6
CONTINUOUS
 62
    30
 10
-331.16835736541168
 20
-93.999999999999943
 30
0.0
 11
-331.16835736541168
 21
-107.2999999999999
 31
0.0
  0
CIRCLE
  8
SIZE
  6
CONTINUOUS
 62
    30
 10
-331.16835736541168
 20
-93.999999999999943
 30
0.0
 40
6.0
  0
LINE
  8
SIZE
  6
CONTINUOUS
 62
    30
 10
-331.16835736541168
 20
-93.999999999999943
 30
0.0
 11
-331.16835736541168
 21
-81.999999999999943
 31
0.0
  0
CIRCLE
  8
SIZE
  6
CONTINUOUS
 62
    30
 10
-331.16835736541168
 20
-107.2999999999999
 30
0.0
 40
6.0
  0
LINE
  8
SIZE
  6
CONTINUOUS
 62
    30
 10
-331.16835736541168
 20
-107.2999999999999
 30
0.0
 11
-331.16835736541168
 21
-119.2999999999999
 31
0.0
  0
TEXT
  8
SIZE
  6
CONTINUOUS
 62
    30
 10
-356.16835736541168
 20
-238.5857142857142
 30
0.0
 40
64.0
  1
13
 50
90.0
 41
0.9
 72
     1
 11
-356.16835736541168
 21
-197.44285714285709
 31
0.0
  0
LINE
  8
SIZE
  6
CONTINUOUS
 62
    30
 10
177.5
 20
-126.8
 30
0.0
 11
177.5
 21
-290.57412919545999
 31
0.0
  0
LINE
  8
SIZE
  6
CONTINUOUS
 62
    30
 10
-177.5
 20
-126.8
 30
0.0
 11
-177.5
 21
-290.57412919545999
 31
0.0
  0
LINE
  8
SIZE
  6
CONTINUOUS
 62
    30
 10
165.5
 20
-270.57412919545999
 30
0.0
 11
-165.5
 21
-270.57412919545999
 31
0.0
  0
CIRCLE
  8
SIZE
  6
CONTINUOUS
 62
    30
 10
177.5
 20
-270.57412919545999
 30
0.0
 40
6.0
  0
LINE
  8
SIZE
  6
CONTINUOUS
 62
    30
 10
177.5
 20
-270.57412919545999
 30
0.0
 11
165.5
 21
-270.57412919545999
 31
0.0
  0
CIRCLE
  8
SIZE
  6
CONTINUOUS
 62
    30
 10
-177.5
 20
-270.57412919545999
 30
0.0
 40
6.0
  0
LINE
  8
SIZE
  6
CONTINUOUS
 62
    30
 10
-177.5
 20
-270.57412919545999
 30
0.0
 11
-165.5
 21
-270.57412919545999
 31
0.0
  0
TEXT
  8
SIZE
  6
CONTINUOUS
 62
    30
 10
-110.5371428571429
 20
-245.57412919545999
 30
0.0
 40
64.0
  1
□355
 41
0.9
 72
     1
 11
0.0
 21
-245.57412919545999
 31
0.0
  0
LINE
  8
SIZE
  6
CONTINUOUS
 62
    30
 10
-164.79999999999981
 20
90.0
 30
0.0
 11
-483.36854245679189
 21
90.000000000000114
 31
0.0
  0
LINE
  8
SIZE
  6
CONTINUOUS
 62
    30
 10
-192.59119630349991
 20
0.0
 30
0.0
 11
-483.36854245679189
 21
0.0000000000001137
 31
0.0
  0
LINE
  8
SIZE
  6
CONTINUOUS
 62
    30
 10
-463.36854245679189
 20
78.000000000000057
 30
0.0
 11
-463.36854245679189
 21
12.00000000000006
 31
0.0
  0
CIRCLE
  8
SIZE
  6
CONTINUOUS
 62
    30
 10
-463.36854245679189
 20
90.000000000000057
 30
0.0
 40
6.0
  0
LINE
  8
SIZE
  6
CONTINUOUS
 62
    30
 10
-463.36854245679189
 20
90.000000000000057
 30
0.0
 11
-463.36854245679189
 21
78.000000000000057
 31
0.0
  0
CIRCLE
  8
SIZE
  6
CONTINUOUS
 62
    30
 10
-463.36854245679189
 20
0.0000000000000568
 30
0.0
 40
6.0
  0
LINE
  8
SIZE
  6
CONTINUOUS
 62
    30
 10
-463.36854245679189
 20
0.0000000000000568
 30
0.0
 11
-463.36854245679189
 21
12.00000000000006
 31
0.0
  0
TEXT
  8
SIZE
  6
CONTINUOUS
 62
    30
 10
-488.368542456792
 20
-1.6285714285714259
 30
0.0
 40
64.0
  1
90
 50
90.0
 41
0.9
 72
     1
 11
-488.368542456792
 21
45.0
 31
0.0
  0
LINE
  8
BASIS
  6
DASHDOT
 62
     6
 10
0.0000000000001137
 20
182.29264430829289
 30
0.0
 11
0.0
 21
-130.8127071590111
 31
0.0
  0
LINE
  8
DETAIL
  6
CONTINUOUS
 62
     5
 10
144.54984477406009
 20
90.0
 30
0.0
 11
145.0
 21
90.0
 31
0.0
  0
LINE
  8
DETAIL
  6
CONTINUOUS
 62
     5
 10
144.54548492366351
 20
90.0
 30
0.0
 11
-144.9999999999998
 21
90.0
 31
0.0
  0
LINE
  8
DETAIL
  6
CONTINUOUS
 62
     5
 10
-144.9999999999998
 20
62.0965129825247
 30
0.0
 11
-144.9999999999998
 21
90.0
 31
0.0
  0
LINE
  8
DETAIL
  6
CONTINUOUS
 62
     5
 10
145.0
 20
-0.0310451879959146
 30
0.0
 11
145.0
 21
90.0
 31
0.0
  0
LINE
  8
DETAIL
  6
CONTINUOUS
 62
     5
 10
-144.9999999999998
 20
90.0
 30
0.0
 11
-144.9999999999998
 21
-0.0310451879959146
 31
0.0
  0
LINE
  8
DETAIL
  6
CONTINUOUS
 62
     5
 10
-126.99999999994699
 20
0.0
 30
0.0
 11
-126.1800992561998
 21
-8.1990074380000806
 31
0.0
  0
LINE
  8
DETAIL
  6
CONTINUOUS
 62
     5
 10
-117.8199029787997
 20
-8.1990297888000896
 30
0.0
 11
-117.0
 21
0.0
 31
0.0
  0
LINE
  8
DETAIL
  6
CONTINUOUS
 62
     5
 10
-124.1900248756999
 20
-10.0
 30
0.0
 11
-119.8099751242999
 21
-10.0
 31
0.0
  0
ARC
  8
DETAIL
  6
CONTINUOUS
 62
     5
 10
-119.8099751241998
 20
-8.0
 30
0.0
 40
2.0000000000001559
 50
269.9994627512018
 51
354.28876336710192
  0
ARC
  8
DETAIL
  6
CONTINUOUS
 62
     5
 10
-124.1900248756999
 20
-8.0
 30
0.0
 40
1.999999999999992
 50
185.7100488347962
 51
269.99936119499853
  0
LINE
  8
DETAIL
  6
CONTINUOUS
 62
     5
 10
177.5
 20
-106.8
 30
0.0
 11
177.5
 21
-94.0
 31
0.0
  0
LINE
  8
DETAIL
  6
CONTINUOUS
 62
     5
 10
172.7585883543002
 20
-31.217452406500058
 30
0.0
 11
173.2911201511001
 21
-0.7087262032998183
 31
0.0
  0
LINE
  8
DETAIL
  6
CONTINUOUS
 62
     5
 10
160.4177859744
 20
-94.0
 30
0.0
 11
161.4914247839001
 21
-32.491273796799987
 31
0.0
  0
LINE
  8
DETAIL
  6
CONTINUOUS
 62
     5
 10
142.58221402550001
 20
-94.0
 30
0.0
 11
141.50857521600031
 21
-32.491273796799987
 31
0.0
  0
LINE
  8
DETAIL
  6
CONTINUOUS
 62
     5
 10
126.9549751859001
 20
-0.4502481404999799
 30
0.0
 11
126.18009925619999
 21
-8.1990074380000806
 31
0.0
  0
LINE
  8
DETAIL
  6
CONTINUOUS
 62
     5
 10
177.0
 20
-107.3
 30
0.0
 11
-176.9999999999998
 21
-107.3
 31
0.0
  0
LINE
  8
DETAIL
  6
CONTINUOUS
 62
     5
 10
117.8199029788002
 20
-8.1990297888000896
 30
0.0
 11
117.0000000000002
 21
0.0
 31
0.0
  0
LINE
  8
DETAIL
  6
CONTINUOUS
 62
     5
 10
177.5
 20
-94.0
 30
0.0
 11
-177.5
 21
-94.0
 31
0.0
  0
LINE
  8
DETAIL
  6
CONTINUOUS
 62
     5
 10
-30.755555555599809
 20
-32.0
 30
0.0
 11
-24.398389971699999
 21
-33.787952820499868
 31
0.0
  0
LINE
  8
DETAIL
  6
CONTINUOUS
 62
     5
 10
30.755555555500109
 20
-32.0
 30
0.0
 11
28.75917396050011
 21
-32.561482323600103
 31
0.0
  0
LINE
  8
DETAIL
  6
CONTINUOUS
 62
     5
 10
30.36705862098631
 20
-32.109264762655577
 30
0.0
 11
24.398389971700109
 21
-33.787952820499868
 31
0.0
  0
LINE
  8
DETAIL
  6
CONTINUOUS
 62
     5
 10
23.58615324090044
 20
-33.900000000000091
 30
0.0
 11
-23.58615324099992
 21
-33.900000000000091
 31
0.0
  0
LINE
  8
DETAIL
  6
CONTINUOUS
 62
     5
 10
24.398389971700109
 20
-33.787952820499868
 30
0.0
 11
-24.398389971699999
 21
-33.787952820499868
 31
0.0
  0
LINE
  8
DETAIL
  6
CONTINUOUS
 62
     5
 10
171.75874065910011
 20
-32.199999999999989
 30
0.0
 11
-171.7587406591997
 21
-32.0
 31
0.0
  0
LINE
  8
DETAIL
  6
CONTINUOUS
 62
     5
 10
124.1900248757001
 20
-10.0
 30
0.0
 11
119.8099751243001
 21
-10.0
 31
0.0
  0
LINE
  8
DETAIL
  6
CONTINUOUS
 62
     5
 10
-172.59119630349991
 20
0.0
 30
0.0
 11
117.2000000000003
 21
0.0
 31
0.0
  0
LINE
  8
DETAIL
  6
CONTINUOUS
 62
     5
 10
127.4524937810002
 20
0.0
 30
0.0
 11
172.7911963035003
 21
-0.1999999999999886
 31
0.0
  0
LINE
  8
DETAIL
  6
CONTINUOUS
 62
     5
 10
127.4524937810002
 20
0.0
 30
0.0
 11
117.0000000000002
 21
0.0
 31
0.0
  0
LINE
  8
DETAIL
  6
CONTINUOUS
 62
     5
 10
-142.5822140255998
 20
-94.0
 30
0.0
 11
-141.5085752160999
 21
-32.491273796799987
 31
0.0
  0
LINE
  8
DETAIL
  6
CONTINUOUS
 62
     5
 10
-160.41778597449979
 20
-94.0
 30
0.0
 11
-161.49142478399989
 21
-32.491273796799987
 31
0.0
  0
LINE
  8
DETAIL
  6
CONTINUOUS
 62
     5
 10
-172.5585883543998
 20
-31.01745240650007
 30
0.0
 11
-173.09112015109969
 21
-0.5087262032998297
 31
0.0
  0
LINE
  8
DETAIL
  6
CONTINUOUS
 62
     5
 10
-177.5
 20
-106.8
 30
0.0
 11
-177.5
 21
-94.0
 31
0.0
  0
ARC
  8
DETAIL
  6
CONTINUOUS
 62
     5
 10
177.0
 20
-106.8
 30
0.0
 40
0.5
 50
270.0
 51
0.0
  0
ARC
  8
DETAIL
  6
CONTINUOUS
 62
     5
 10
171.75874065910011
 20
-31.199999999999989
 30
0.0
 40
1.0
 50
270.0
 51
358.99999999999818
  0
ARC
  8
DETAIL
  6
CONTINUOUS
 62
     5
 10
161.99134162900009
 20
-32.5
 30
0.0
 40
0.4999989997999479
 50
89.999197574300013
 51
178.99998599548761
  0
ARC
  8
DETAIL
  6
CONTINUOUS
 62
     5
 10
141.00865837090029
 20
-32.5
 30
0.0
 40
0.499998999800016
 50
1.000014004512392
 51
90.0
  0
ARC
  8
DETAIL
  6
CONTINUOUS
 62
     5
 10
23.58615324090044
 20
-30.900000000000091
 30
0.0
 40
3.0
 50
270.0
 51
285.70863782899818
  0
ARC
  8
DETAIL
  6
CONTINUOUS
 62
     5
 10
-23.58615324099992
 20
-30.900000000000091
 30
0.0
 40
2.9999999999998961
 50
254.29136217100179
 51
270.0
  0
ARC
  8
DETAIL
  6
CONTINUOUS
 62
     5
 10
-171.7587406591997
 20
-31.0
 30
0.0
 40
1.000000000000012
 50
181.00000000000179
 51
270.0
  0
ARC
  8
DETAIL
  6
CONTINUOUS
 62
     5
 10
-176.9999999999998
 20
-106.8
 30
0.0
 40
0.5
 50
180.0
 51
270.0
  0
ARC
  8
DETAIL
  6
CONTINUOUS
 62
     5
 10
-141.00865837099991
 20
-32.5
 30
0.0
 40
0.4999989997999479
 50
89.999197574300013
 51
178.99998599548761
  0
ARC
  8
DETAIL
  6
CONTINUOUS
 62
     5
 10
-161.99134162909971
 20
-32.5
 30
0.0
 40
0.499998999800016
 50
1.000014004512392
 51
90.0
  0
ARC
  8
DETAIL
  6
CONTINUOUS
 62
     5
 10
119.80997512419999
 20
-8.0
 30
0.0
 40
2.0
 50
185.71123663289811
 51
270.0005372487982
  0
ARC
  8
DETAIL
  6
CONTINUOUS
 62
     5
 10
124.1900248757001
 20
-8.0
 30
0.0
 40
2.0000000000001599
 50
270.00063880500147
 51
354.28995116520377
  0
ARC
  8
DETAIL
  6
CONTINUOUS
 62
     5
 10
127.4524937810002
 20
-0.5
 30
0.0
 40
0.5
 50
90.0
 51
174.2894068625026
  0
ARC
  8
DETAIL
  6
CONTINUOUS
 62
     5
 10
172.7911963035003
 20
-0.6999999999999886
 30
0.0
 40
0.500000000000008
 50
358.99999999999818
 51
90.0
  0
ARC
  8
DETAIL
  6
CONTINUOUS
 62
     5
 10
-172.59119136549981
 20
-0.5
 30
0.0
 40
0.5000000000000561
 50
90.000565857797397
 51
180.9999901246816
  0
LINE
  8
OUTLINE
  6
CONTINUOUS
 62
     3
 10
144.54984477406009
 20
90.0
 30
0.0
 11
145.0
 21
90.0
 31
0.0
  0
LINE
  8
OUTLINE
  6
CONTINUOUS
 62
     3
 10
144.54548492366351
 20
90.0
 30
0.0
 11
-144.9999999999998
 21
90.0
 31
0.0
  0
LINE
  8
OUTLINE
  6
CONTINUOUS
 62
     3
 10
-144.9999999999998
 20
62.0965129825247
 30
0.0
 11
-144.9999999999998
 21
90.0
 31
0.0
  0
LINE
  8
OUTLINE
  6
CONTINUOUS
 62
     3
 10
145.0
 20
0.0
 30
0.0
 11
145.0
 21
90.0
 31
0.0
  0
LINE
  8
OUTLINE
  6
CONTINUOUS
 62
     3
 10
-144.9999999999998
 20
90.0
 30
0.0
 11
-144.9999999999998
 21
-0.0310451879959146
 31
0.0
  0
LINE
  8
OUTLINE
  6
CONTINUOUS
 62
     3
 10
177.5
 20
-106.8
 30
0.0
 11
177.5
 21
-94.0
 31
0.0
  0
LINE
  8
OUTLINE
  6
CONTINUOUS
 62
     3
 10
172.7585883543002
 20
-31.217452406500058
 30
0.0
 11
173.2911201511001
 21
-0.7087262032998183
 31
0.0
  0
LINE
  8
OUTLINE
  6
CONTINUOUS
 62
     3
 10
160.4177859744
 20
-94.0
 30
0.0
 11
161.4914247839001
 21
-32.491273796799987
 31
0.0
  0
LINE
  8
OUTLINE
  6
CONTINUOUS
 62
     3
 10
177.0
 20
-107.3
 30
0.0
 11
-176.9999999999998
 21
-107.3
 31
0.0
  0
LINE
  8
OUTLINE
  6
CONTINUOUS
 62
     3
 10
177.5
 20
-94.0
 30
0.0
 11
160.4177859744
 21
-94.0
 31
0.0
  0
LINE
  8
OUTLINE
  6
CONTINUOUS
 62
     3
 10
-160.41778597449979
 20
-94.0
 30
0.0
 11
-177.5
 21
-94.0
 31
0.0
  0
LINE
  8
OUTLINE
  6
CONTINUOUS
 62
     3
 10
171.75874065910011
 20
-32.199999999999989
 30
0.0
 11
161.5958497641063
 21
-32.194083042961317
 31
0.0
  0
LINE
  8
OUTLINE
  6
CONTINUOUS
 62
     3
 10
-161.9158644789787
 20
-32.005730640631441
 30
0.0
 11
-171.7587406591997
 21
-32.0
 31
0.0
  0
LINE
  8
OUTLINE
  6
CONTINUOUS
 62
     3
 10
-172.59119630349991
 20
0.0
 30
0.0
 11
-144.9999999999998
 21
0.0
 31
0.0
  0
LINE
  8
OUTLINE
  6
CONTINUOUS
 62
     3
 10
145.0
 20
0.0
 30
0.0
 11
172.7911963035003
 21
0.0
 31
0.0
  0
LINE
  8
OUTLINE
  6
CONTINUOUS
 62
     3
 10
-160.41778597449979
 20
-94.0
 30
0.0
 11
-161.49142478399989
 21
-32.491273796799987
 31
0.0
  0
LINE
  8
OUTLINE
  6
CONTINUOUS
 62
     3
 10
-172.5585883543998
 20
-31.01745240650007
 30
0.0
 11
-173.09112015109969
 21
-0.5087262032998297
 31
0.0
  0
LINE
  8
OUTLINE
  6
CONTINUOUS
 62
     3
 10
-177.5
 20
-106.8
 30
0.0
 11
-177.5
 21
-94.0
 31
0.0
  0
ARC
  8
OUTLINE
  6
CONTINUOUS
 62
     3
 10
177.0
 20
-106.8
 30
0.0
 40
0.5
 50
270.0
 51
0.0
  0
ARC
  8
OUTLINE
  6
CONTINUOUS
 62
     3
 10
171.75874065910011
 20
-31.199999999999989
 30
0.0
 40
1.0
 50
270.0
 51
358.99999999999818
  0
ARC
  8
OUTLINE
  6
CONTINUOUS
 62
     3
 10
161.99134162900009
 20
-32.5
 30
0.0
 40
0.4999989997999479
 50
89.999197574293504
 51
178.99998599548761
  0
ARC
  8
OUTLINE
  6
CONTINUOUS
 62
     3
 10
-171.7587406591997
 20
-31.0
 30
0.0
 40
1.000000000000012
 50
181.00000000000179
 51
270.0
  0
ARC
  8
OUTLINE
  6
CONTINUOUS
 62
     3
 10
-176.9999999999998
 20
-106.8
 30
0.0
 40
0.5
 50
180.0
 51
270.0
  0
ARC
  8
OUTLINE
  6
CONTINUOUS
 62
     3
 10
-161.99134162909971
 20
-32.5
 30
0.0
 40
0.499998999800016
 50
1.000014004512392
 51
90.0
  0
ARC
  8
OUTLINE
  6
CONTINUOUS
 62
     3
 10
172.7911963035003
 20
-0.6999999999999886
 30
0.0
 40
0.500000000000008
 50
358.99999999999818
 51
90.0
  0
ARC
  8
OUTLINE
  6
CONTINUOUS
 62
     3
 10
-172.59119136549981
 20
-0.5
 30
0.0
 40
0.5000000000000561
 50
90.000565857790889
 51
180.9999901246816
  0
LINE
  8
SIZE
  6
CONTINUOUS
 62
    30
 10
173.2911201511001
 20
19.291273796700182
 30
0.0
 11
173.2911201511001
 21
486.87620842520482
 31
0.0
  0
LINE
  8
SIZE
  6
CONTINUOUS
 62
    30
 10
-173.09112015109969
 20
19.291273796700182
 30
0.0
 11
-173.09112015109969
 21
486.87620842520482
 31
0.0
  0
LINE
  8
SIZE
  6
CONTINUOUS
 62
    30
 10
161.2911201511001
 20
466.87620842520482
 30
0.0
 11
-161.09112015109969
 21
466.87620842520482
 31
0.0
  0
CIRCLE
  8
SIZE
  6
CONTINUOUS
 62
    30
 10
173.2911201511001
 20
466.87620842520482
 30
0.0
 40
6.0
  0
LINE
  8
SIZE
  6
CONTINUOUS
 62
    30
 10
173.2911201511001
 20
466.87620842520482
 30
0.0
 11
161.2911201511001
 21
466.87620842520482
 31
0.0
  0
CIRCLE
  8
SIZE
  6
CONTINUOUS
 62
    30
 10
-173.09112015109969
 20
466.87620842520482
 30
0.0
 40
6.0
  0
LINE
  8
SIZE
  6
CONTINUOUS
 62
    30
 10
-173.09112015109969
 20
466.87620842520482
 30
0.0
 11
-161.09112015109969
 21
466.87620842520482
 31
0.0
  0
TEXT
  8
SIZE
  6
CONTINUOUS
 62
    30
 10
-109.06571428571399
 20
491.87620842520482
 30
0.0
 40
64.0
  1
□346
 41
0.9
 72
     1
 11
0.1000000000002501
 21
491.87620842520482
 31
0.0
  0
LINE
  8
SIZE
  6
CONTINUOUS
 62
    30
 10
145.0
 20
178.0
 30
0.0
 11
145.0
 21
365.76276021148311
 31
0.0
  0
LINE
  8
SIZE
  6
CONTINUOUS
 62
    30
 10
-144.9999999999998
 20
178.0
 30
0.0
 11
-144.9999999999998
 21
365.76276021148311
 31
0.0
  0
LINE
  8
SIZE
  6
CONTINUOUS
 62
    30
 10
133.0
 20
345.76276021148311
 30
0.0
 11
-132.9999999999998
 21
345.76276021148311
 31
0.0
  0
CIRCLE
  8
SIZE
  6
CONTINUOUS
 62
    30
 10
145.0
 20
345.76276021148311
 30
0.0
 40
6.0
  0
LINE
  8
SIZE
  6
CONTINUOUS
 62
    30
 10
145.0
 20
345.76276021148311
 30
0.0
 11
133.0
 21
345.76276021148311
 31
0.0
  0
CIRCLE
  8
SIZE
  6
CONTINUOUS
 62
    30
 10
-144.9999999999998
 20
345.76276021148311
 30
0.0
 40
6.0
  0
LINE
  8
SIZE
  6
CONTINUOUS
 62
    30
 10
-144.9999999999998
 20
345.76276021148311
 30
0.0
 11
-132.9999999999998
 21
345.76276021148311
 31
0.0
  0
TEXT
  8
SIZE
  6
CONTINUOUS
 62
    30
 10
-110.5371428571428
 20
370.76276021148311
 30
0.0
 40
64.0
  1
□290
 41
0.9
 72
     1
 11
0.0000000000001137
 21
370.76276021148311
 31
0.0
  0
LINE
  8
SIZE
  6
CONTINUOUS
 62
    30
 10
-84.99999999994202
 20
39.999946145299191
 30
0.0
 11
-84.999999999941963
 21
249.35086554194871
 31
0.0
  0
LINE
  8
SIZE
  6
CONTINUOUS
 62
    30
 10
85.0
 20
40.0
 30
0.0
 11
85.0
 21
249.35086554194871
 31
0.0
  0
LINE
  8
SIZE
  6
CONTINUOUS
 62
    30
 10
-96.999999999941963
 20
229.35086554194871
 30
0.0
 11
-108.99999999994201
 21
229.35086554194871
 31
0.0
  0
LINE
  8
SIZE
  6
CONTINUOUS
 62
    30
 10
97.0
 20
229.35086554194871
 30
0.0
 11
109.0
 21
229.35086554194871
 31
0.0
  0
LINE
  8
SIZE
  6
CONTINUOUS
 62
    30
 10
-84.999999999941963
 20
229.35086554194871
 30
0.0
 11
85.0
 21
229.35086554194871
 31
0.0
  0
CIRCLE
  8
SIZE
  6
CONTINUOUS
 62
    30
 10
-84.999999999941963
 20
229.35086554194871
 30
0.0
 40
6.0
  0
LINE
  8
SIZE
  6
CONTINUOUS
 62
    30
 10
-84.999999999941963
 20
229.35086554194871
 30
0.0
 11
-96.999999999941963
 21
229.35086554194871
 31
0.0
  0
CIRCLE
  8
SIZE
  6
CONTINUOUS
 62
    30
 10
85.0
 20
229.35086554194871
 30
0.0
 40
6.0
  0
LINE
  8
SIZE
  6
CONTINUOUS
 62
    30
 10
85.0
 20
229.35086554194871
 30
0.0
 11
97.0
 21
229.35086554194871
 31
0.0
  0
TEXT
  8
SIZE
  6
CONTINUOUS
 62
    30
 10
-68.571428571399579
 20
254.35086554194871
 30
0.0
 40
64.0
  1
170
 41
0.9
 72
     1
 11
0.0000000000289901
 21
254.35086554194871
 31
0.0
  0
LINE
  8
DETAIL
  6
CONTINUOUS
 62
     5
 10
-145.45451507633649
 20
90.0
 30
0.0
 11
-145.45451507633649
 21
158.0
 31
0.0
  0
LINE
  8
DETAIL
  6
CONTINUOUS
 62
     5
 10
-145.45451507633649
 20
158.0
 30
0.0
 11
144.54548492366351
 21
158.0
 31
0.0
  0
LINE
  8
DETAIL
  6
CONTINUOUS
 62
     5
 10
144.54548492366351
 20
158.0
 30
0.0
 11
144.54548492366351
 21
90.0
 31
0.0
  0
LINE
  8
SIZE
  6
CONTINUOUS
 62
    30
 10
165.45451507633661
 20
158.00000000000011
 30
0.0
 11
361.80333391689061
 21
158.00000000000011
 31
0.0
  0
LINE
  8
SIZE
  6
CONTINUOUS
 62
    30
 10
165.45451507633661
 20
90.000000000000043
 30
0.0
 11
361.80333391689061
 21
90.000000000000071
 31
0.0
  0
LINE
  8
SIZE
  6
CONTINUOUS
 62
    30
 10
341.80333391689061
 20
170.00000000000011
 30
0.0
 11
341.80333391689061
 21
182.00000000000011
 31
0.0
  0
LINE
  8
SIZE
  6
CONTINUOUS
 62
    30
 10
341.80333391689061
 20
78.000000000000057
 30
0.0
 11
341.80333391689061
 21
-77.25714285714281
 31
0.0
  0
LINE
  8
SIZE
  6
CONTINUOUS
 62
    30
 10
341.80333391689061
 20
158.00000000000011
 30
0.0
 11
341.80333391689061
 21
90.000000000000057
 31
0.0
  0
CIRCLE
  8
SIZE
  6
CONTINUOUS
 62
    30
 10
341.80333391689061
 20
158.00000000000011
 30
0.0
 40
6.0
  0
LINE
  8
SIZE
  6
CONTINUOUS
 62
    30
 10
341.80333391689061
 20
158.00000000000011
 30
0.0
 11
341.80333391689061
 21
170.00000000000011
 31
0.0
  0
CIRCLE
  8
SIZE
  6
CONTINUOUS
 62
    30
 10
341.80333391689061
 20
90.000000000000057
 30
0.0
 40
6.0
  0
LINE
  8
SIZE
  6
CONTINUOUS
 62
    30
 10
341.80333391689061
 20
90.000000000000057
 30
0.0
 11
341.80333391689061
 21
78.000000000000057
 31
0.0
  0
TEXT
  8
SIZE
  6
CONTINUOUS
 62
    30
 10
316.80333391689061
 20
-59.196571428571474
 30
0.0
 40
64.0
  1
68
 50
90.0
 41
0.9
 51
0.0
  7
STANDARD
 71
     0
 72
     1
 11
316.80333391689061
 21
-5.6285714285714601
 31
0.0
210
0.0
220
0.0
230
1.0
  0
POINT
  8
DEFPOINTS
  6
CONTINUOUS
 62
    30
 10
145.45451507633661
 20
158.00000000000011
 30
0.0
  0
POINT
  8
DEFPOINTS
  6
CONTINUOUS
 62
    30
 10
145.45451507633661
 20
90.000000000000028
 30
0.0
  0
POINT
  8
DEFPOINTS
  6
CONTINUOUS
 62
    30
 10
341.80333391689061
 20
90.000000000000057
 30
0.0
  0
TEXT
  8
ETC
  6
CONTINUOUS
 62
    61
 10
352.98961608304631
 20
512.9449070883586
 30
0.0
 40
64.0
  1
EX-25EX8-C_6
 41
0.9
  0
TEXT
  8
ETC
  6
CONTINUOUS
 62
    61
 10
348.80362208304592
 20
394.98959707352742
 30
0.0
 40
64.0
  1
換気扇
 41
0.9
  0
TEXT
  8
ETC
  6
CONTINUOUS
 62
    61
 10
399.50502033160183
 20
286.84082418730208
 30
0.0
 40
40.0
  1
EX-25EX8-C
 50
0.0
 41
0.9
 51
0.0
  7
STANDARD
 71
     0
 11
0.0
 21
0.0
 31
0.0
210
0.0
220
0.0
230
1.0
  0
TEXT
  8
ETC
  6
CONTINUOUS
 62
    61
 10
399.50502033160183
 20
220.84082418730208
 30
0.0
 40
40.0
  1
EX-25FX8-C
 50
0.0
 41
0.9
 51
0.0
  7
STANDARD
 71
     0
 11
0.0
 21
0.0
 31
0.0
210
0.0
220
0.0
230
1.0
  0
ENDSEC
  0
EOF
