  0
SECTION
  2
HEADER
  9
$ACADVER
  1
AC1009
  9
$DWGCODEPAGE
  3
dos932
  9
$INSBASE
 10
0.0
 20
0.0
 30
0.0
  9
$EXTMIN
 10
-444.6581815380664
 20
-319.23137367375318
 30
0.0
  9
$EXTMAX
 10
1229.708167568057
 20
592.72962322260946
 30
58.445946000000013
  9
$LIMMIN
 10
-2970.0
 20
-2100.0
  9
$LIMMAX
 10
2970.0
 20
2100.0
  9
$ORTHOMODE
 70
     1
  9
$REGENMODE
 70
     1
  9
$FILLMODE
 70
     1
  9
$QTEXTMODE
 70
     0
  9
$MIRRTEXT
 70
     0
  9
$LTSCALE
 40
20.0
  9
$ATTMODE
 70
     1
  9
$TEXTSIZE
 40
64.0
  9
$TRACEWID
 40
0.05
  9
$TEXTSTYLE
  7
STANDARD
  9
$CLAYER
  8
NOTE
  9
$CELTYPE
  6
CONTINUOUS
  9
$CECOLOR
 62
     7
  9
$DIMSCALE
 40
1.0
  9
$DIMASZ
 40
12.0
  9
$DIMEXO
 40
20.0
  9
$DIMDLI
 40
200.0
  9
$DIMRND
 40
0.0
  9
$DIMDLE
 40
0.0
  9
$DIMEXE
 40
20.0
  9
$DIMTP
 40
0.0
  9
$DIMTM
 40
0.0
  9
$DIMTXT
 40
64.0
  9
$DIMCEN
 40
0.09
  9
$DIMTSZ
 40
0.0
  9
$DIMTOL
 70
     0
  9
$DIMLIM
 70
     0
  9
$DIMTIH
 70
     0
  9
$DIMTOH
 70
     0
  9
$DIMSE1
 70
     0
  9
$DIMSE2
 70
     0
  9
$DIMTAD
 70
     1
  9
$DIMZIN
 70
     8
  9
$DIMBLK
  1

  9
$DIMASO
 70
     1
  9
$DIMSHO
 70
     0
  9
$DIMPOST
  1

  9
$DIMAPOST
  1

  9
$DIMALT
 70
     0
  9
$DIMALTD
 70
     2
  9
$DIMALTF
 40
25.399999999999999
  9
$DIMLFAC
 40
1.0
  9
$DIMTOFL
 70
     1
  9
$DIMTVP
 40
0.0
  9
$DIMTIX
 70
     1
  9
$DIMSOXD
 70
     0
  9
$DIMSAH
 70
     0
  9
$DIMBLK1
  1

  9
$DIMBLK2
  1

  9
$DIMSTYLE
  2
STANDARD
  9
$DIMCLRD
 70
     7
  9
$DIMCLRE
 70
     7
  9
$DIMCLRT
 70
     7
  9
$DIMTFAC
 40
1.0
  9
$DIMGAP
 40
25.0
  9
$LUNITS
 70
     2
  9
$LUPREC
 70
     4
  9
$SKETCHINC
 40
0.1
  9
$FILLETRAD
 40
3.0
  9
$AUNITS
 70
     1
  9
$AUPREC
 70
     3
  9
$MENU
  1
ACAD
  9
$ELEVATION
 40
0.0
  9
$PELEVATION
 40
0.0
  9
$THICKNESS
 40
50.0
  9
$LIMCHECK
 70
     0
  9
$CHAMFERA
 40
0.0
  9
$CHAMFERB
 40
0.0
  9
$SKPOLY
 70
     0
  9
$TDCREATE
 40
2453019.62301037
  9
$TDUPDATE
 40
2459017.511760185
  9
$TDINDWG
 40
1.711909919
  9
$TDUSRTIMER
 40
1.711909919
  9
$USRTIMER
 70
     1
  9
$ANGBASE
 50
0.0
  9
$ANGDIR
 70
     0
  9
$PDMODE
 70
     3
  9
$PDSIZE
 40
-2.0
  9
$PLINEWID
 40
0.0
  9
$SPLFRAME
 70
     0
  9
$SPLINETYPE
 70
     6
  9
$SPLINESEGS
 70
     8
  9
$SURFTAB1
 70
     6
  9
$SURFTAB2
 70
     6
  9
$SURFTYPE
 70
     6
  9
$SURFU
 70
     6
  9
$SURFV
 70
     6
  9
$UCSNAME
  2

  9
$UCSORG
 10
0.0
 20
0.0
 30
0.0
  9
$UCSXDIR
 10
1.0
 20
0.0
 30
0.0
  9
$UCSYDIR
 10
0.0
 20
1.0
 30
0.0
  9
$PUCSNAME
  2

  9
$PUCSORG
 10
0.0
 20
0.0
 30
0.0
  9
$PUCSXDIR
 10
1.0
 20
0.0
 30
0.0
  9
$PUCSYDIR
 10
0.0
 20
1.0
 30
0.0
  9
$USERI1
 70
     0
  9
$USERI2
 70
     0
  9
$USERI3
 70
     0
  9
$USERI4
 70
     0
  9
$USERI5
 70
     0
  9
$USERR1
 40
20.0
  9
$USERR2
 40
0.0
  9
$USERR3
 40
0.0
  9
$USERR4
 40
0.0
  9
$USERR5
 40
0.0
  9
$WORLDVIEW
 70
     1
  9
$SHADEDGE
 70
     3
  9
$SHADEDIF
 70
    70
  9
$TILEMODE
 70
     1
  9
$MAXACTVP
 70
    48
  9
$PINSBASE
 10
0.0
 20
0.0
 30
0.0
  9
$PLIMCHECK
 70
     0
  9
$PEXTMIN
 10
-100000000000000000000.0
 20
-100000000000000000000.0
 30
-100000000000000000000.0
  9
$PEXTMAX
 10
100000000000000000000.0
 20
100000000000000000000.0
 30
100000000000000000000.0
  9
$PLIMMIN
 10
0.0
 20
0.0
  9
$PLIMMAX
 10
12.0
 20
9.0
  9
$UNITMODE
 70
     0
  9
$VISRETAIN
 70
     0
  9
$PLINEGEN
 70
     0
  9
$PSLTSCALE
 70
     0
  9
$TREEDEPTH
 70
  3020
  9
$ATTDIA
 70
     0
  9
$ATTREQ
 70
     1
  9
$BLIPMODE
 70
     1
  9
$COORDS
 70
     1
  9
$DRAGMODE
 70
     2
  9
$OSMODE
 70
     0
  9
$HANDLING
 70
     0
  9
$HANDSEED
  5
F213
  0
ENDSEC
  0
SECTION
  2
TABLES
  0
TABLE
  2
LTYPE
 70
     2
  0
LTYPE
  2
CONTINUOUS
 70
     0
  3
実線
 72
    65
 73
     0
 40
0.0
  0
LTYPE
  2
DASHDOT
 70
     0
  3
____ _ ____ _ ____ _ ____ _ ____ _ ____ _ ____
 72
    65
 73
     4
 40
5.5
 49
4.0
 49
-0.6
 49
0.3
 49
-0.6
  0
ENDTAB
  0
TABLE
  2
LAYER
 70
    12
  0
LAYER
  2
0
 70
     0
 62
     7
  6
CONTINUOUS
  0
LAYER
  2
BASIS
 70
     0
 62
     6
  6
DASHDOT
  0
LAYER
  2
OUTLINE
 70
     0
 62
     3
  6
CONTINUOUS
  0
LAYER
  2
DETAIL
 70
     0
 62
     5
  6
CONTINUOUS
  0
LAYER
  2
SIZE
 70
     0
 62
    30
  6
CONTINUOUS
  0
LAYER
  2
ARRANGE
 70
     0
 62
     1
  6
CONTINUOUS
  0
LAYER
  2
ETC
 70
     0
 62
    61
  6
CONTINUOUS
  0
LAYER
  2
FIX
 70
     0
 62
    11
  6
CONTINUOUS
  0
LAYER
  2
NOTE
 70
     0
 62
     4
  6
CONTINUOUS
  0
LAYER
  2
DEFPOINTS
 70
    64
 62
     7
  6
CONTINUOUS
  0
LAYER
  2
SERVICESPACE
 70
    64
 62
     2
  6
DASHDOT
  0
LAYER
  2
SYMBOLLINE
 70
    64
 62
    15
  6
CONTINUOUS
  0
ENDTAB
  0
TABLE
  2
STYLE
 70
     1
  0
STYLE
  2
STANDARD
 70
     0
 40
64.0
 41
0.9
 50
0.0
 71
     0
 42
64.0
  3
SIMPLEX.shx
  4
BIGFONT.shx
  0
ENDTAB
  0
TABLE
  2
APPID
 70
    17
  0
APPID
  2
ACAD
 70
     0
  0
APPID
  2
AUTOCAD_POSTSCRIPT_FIGURE
 70
     0
  0
APPID
  2
ACAD_EXEMPT_FROM_CAD_STANDARDS
 70
     0
  0
APPID
  2
ACAD_PSEXT
 70
     0
  0
APPID
  2
ACAUTHENVIRON
 70
     0
  0
APPID
  2
GENIUS_GENOENT_13
 70
     0
  0
APPID
  2
GENIUS_GENCFG_13
 70
     0
  0
APPID
  2
GENIUS_GENCFG0_13
 70
     0
  0
APPID
  2
GENIUS_GENCFG1_13
 70
     0
  0
APPID
  2
GENIUS_GENCFG2_13
 70
     0
  0
APPID
  2
GENIUS_GENCFG3_13
 70
     0
  0
APPID
  2
GENIUS_GENCFG4_13
 70
     0
  0
APPID
  2
GENIUS_GEVCFG0_13
 70
     0
  0
APPID
  2
CONTENTBLOCKICON
 70
     0
  0
APPID
  2
CONTENTBLOCKDESCRIPTION
 70
     0
  0
APPID
  2
ACAD_NAV_VCDISPLAY
 70
     0
  0
APPID
  2
ACAD_MLEADERVER
 70
     0
  0
ENDTAB
  0
TABLE
  2
DIMSTYLE
 70
     1
  0
DIMSTYLE
  2
STANDARD
 70
     0
  3

  4

  5
_ORIGIN
  6

  7

 40
1.0
 41
12.0
 42
20.0
 43
200.0
 44
20.0
 45
0.0
 46
0.0
 47
0.0
 48
0.0
140
64.0
141
0.09
142
0.0
143
25.399999999999999
144
1.0
145
0.0
146
1.0
147
25.0
 71
     0
 72
     0
 73
     0
 74
     0
 75
     0
 76
     0
 77
     1
 78
     8
170
     0
171
     2
172
     1
173
     0
174
     1
175
     0
176
     7
177
     7
178
     7
  0
ENDTAB
  0
TABLE
  2
VIEW
 70
     1
  0
VIEW
  2
ALL
 70
     0
 40
4282.6198079999986
 10
0.0
 20
41.309904000000003
 41
5940.0
 11
0.0
 21
0.0
 31
1.0
 12
0.0
 22
0.0
 32
0.0
 42
50.0
 43
0.0
 44
0.0
 50
0.0
 71
     0
  0
ENDTAB
  0
TABLE
  2
UCS
 70
     0
  0
ENDTAB
  0
TABLE
  2
VPORT
 70
     1
  0
VPORT
  2
*ACTIVE
 70
     0
 10
0.0
 20
0.0
 11
1.0
 21
1.0
 12
392.4591207323337
 22
150.12332516767381
 13
0.0
 23
0.0
 14
1.0
 24
1.0
 15
0.0
 25
0.0
 16
0.0
 26
0.0
 36
1.0
 17
0.0
 27
0.0
 37
0.0
 40
642.41388427214315
 41
2.1592039800995031
 42
50.0
 43
0.0
 44
0.0
 50
0.0
 51
0.0
 71
     0
 72
  1000
 73
     1
 74
     3
 75
     0
 76
     0
 77
     0
 78
     0
  0
ENDTAB
  0
ENDSEC
  0
SECTION
  2
BLOCKS
  0
BLOCK
  8
0
  2
_ORIGIN
 70
     0
 10
0.0
 20
0.0
 30
0.0
  3
_ORIGIN
  1
_ORIGIN
  0
CIRCLE
  8
0
  6
CONTINUOUS
 62
     7
 10
0.0
 20
0.0
 30
0.0
 40
0.5
  0
LINE
  8
0
  6
CONTINUOUS
 62
     7
 10
0.0
 20
0.0
 30
0.0
 11
-1.0
 21
0.0
 31
0.0
  0
ENDBLK
  8
0
  0
ENDSEC
  0
SECTION
  2
ENTITIES
  0
CIRCLE
  8
ARRANGE
  6
CONTINUOUS
 62
     1
 10
0.0
 20
0.0
 30
0.0
 40
46.756756800000012
  0
POINT
  8
ARRANGE
  6
CONTINUOUS
 62
     1
 10
0.0
 20
0.0
 30
0.0
  0
LINE
  8
NOTE
  6
CONTINUOUS
 62
     4
 10
167.1847306886948
 20
-120.088516530896
 30
0.0
 11
204.13476090625201
 21
-120.088516530896
 31
0.0
  0
LINE
  8
NOTE
  6
CONTINUOUS
 62
     4
 10
223.70696558915611
 20
17.3434901562091
 30
0.0
 11
178.22790657135869
 21
-107.0721237074227
 31
0.0
  0
LINE
  8
NOTE
  6
CONTINUOUS
 62
     4
 10
363.75114252273079
 20
17.3434901562091
 30
0.0
 11
223.70696558915611
 21
17.3434901562091
 31
0.0
  0
TEXT
  8
NOTE
  6
CONTINUOUS
 62
     4
 10
244.47487334485001
 20
42.230061517063227
 30
0.0
 40
64.0
  1
EL
 41
0.9
  0
LINE
  8
NOTE
  6
CONTINUOUS
 62
     4
 10
177.35782459420429
 20
-114.2807288806212
 30
0.0
 11
173.00000016000001
 21
-120.088516530896
 31
0.0
  0
LINE
  8
NOTE
  6
CONTINUOUS
 62
     4
 10
173.00000016000001
 20
-120.088516530896
 30
0.0
 11
173.87008213715461
 21
-112.87991135769759
 31
0.0
  0
LINE
  8
NOTE
  6
CONTINUOUS
 62
     4
 10
173.00000016000001
 20
-120.088516530896
 30
0.0
 11
178.22790657135869
 21
-107.0721237074228
 31
0.0
  0
LINE
  8
BASIS
  6
DASHDOT
 62
     6
 10
0.0
 20
231.75397695989429
 30
0.0
 11
0.0
 21
-274.77553242073452
 31
0.0
  0
LINE
  8
BASIS
  6
DASHDOT
 62
     6
 10
266.26147146246967
 20
0.0
 30
0.0
 11
-269.65371858722852
 21
0.0
 31
0.0
  0
LINE
  8
NOTE
  6
CONTINUOUS
 62
     4
 10
173.00000016000001
 20
-140.27027039999999
 30
0.0
 11
173.00000016000001
 21
-93.51351360000001
 31
0.0
  0
LINE
  8
DETAIL
  6
CONTINUOUS
 62
     5
 10
173.00000016000001
 20
173.00000016000001
 30
0.0
 11
173.00000016000001
 21
-173.00000016000001
 31
0.0
  0
LINE
  8
DETAIL
  6
CONTINUOUS
 62
     5
 10
-173.00000016000001
 20
173.00000016000001
 30
0.0
 11
-173.00000016000001
 21
-173.00000016000001
 31
0.0
  0
LINE
  8
DETAIL
  6
CONTINUOUS
 62
     5
 10
33.999999794958512
 20
-180.01351367999999
 30
0.0
 11
-33.999999794958512
 21
-180.01351367999999
 31
0.0
  0
LINE
  8
DETAIL
  6
CONTINUOUS
 62
     5
 10
33.999999794958512
 20
-180.01351367999999
 30
0.0
 11
33.999999794958512
 21
-173.00000016000001
 31
0.0
  0
LINE
  8
DETAIL
  6
CONTINUOUS
 62
     5
 10
-33.999999794958512
 20
-180.01351367999999
 30
0.0
 11
-33.999999794958512
 21
-173.00000016000001
 31
0.0
  0
LINE
  8
DETAIL
  6
CONTINUOUS
 62
     5
 10
173.00000016000001
 20
-173.00000016000001
 30
0.0
 11
-173.00000016000001
 21
-173.00000016000001
 31
0.0
  0
LINE
  8
DETAIL
  6
CONTINUOUS
 62
     5
 10
173.00000016000001
 20
173.00000016000001
 30
0.0
 11
-173.00000016000001
 21
173.00000016000001
 31
0.0
  0
LINE
  8
OUTLINE
  6
CONTINUOUS
 62
     3
 10
173.00000016000001
 20
173.00000016000001
 30
0.0
 11
173.00000016000001
 21
-173.00000016000001
 31
0.0
  0
LINE
  8
OUTLINE
  6
CONTINUOUS
 62
     3
 10
-173.00000016000001
 20
173.00000016000001
 30
0.0
 11
-173.00000016000001
 21
-173.00000016000001
 31
0.0
  0
LINE
  8
OUTLINE
  6
CONTINUOUS
 62
     3
 10
173.00000016000001
 20
-173.00000016000001
 30
0.0
 11
33.999999794958512
 21
-173.00000016000001
 31
0.0
  0
LINE
  8
OUTLINE
  6
CONTINUOUS
 62
     3
 10
-33.999999794958512
 20
-173.00000016000001
 30
0.0
 11
-173.00000016000001
 21
-173.00000016000001
 31
0.0
  0
LINE
  8
OUTLINE
  6
CONTINUOUS
 62
     3
 10
173.00000016000001
 20
173.00000016000001
 30
0.0
 11
-173.00000016000001
 21
173.00000016000001
 31
0.0
  0
LINE
  8
DETAIL
  6
CONTINUOUS
 62
     5
 10
140.27027039999999
 20
144.77027039999999
 30
0.0
 11
140.27027039999999
 21
-144.77027039999999
 31
0.0
  0
LINE
  8
DETAIL
  6
CONTINUOUS
 62
     5
 10
-140.27027039999999
 20
144.77027039999999
 30
0.0
 11
-140.27027039999999
 21
-144.77027039999999
 31
0.0
  0
CIRCLE
  8
FIX
  6
CONTINUOUS
 62
    11
 10
85.135135199999922
 20
-157.38175689999991
 30
0.0
 40
2.9222972999999999
  0
CIRCLE
  8
FIX
  6
CONTINUOUS
 62
    11
 10
-85.135135199999979
 20
-157.38175689999991
 30
0.0
 40
2.9222972999999999
  0
LINE
  8
DETAIL
  6
CONTINUOUS
 62
     5
 10
140.27027039999999
 20
-144.77027039999999
 30
0.0
 11
-140.27027039999999
 21
-144.77027039999999
 31
0.0
  0
LINE
  8
DETAIL
  6
CONTINUOUS
 62
     5
 10
140.27027039999999
 20
-54.471621672000033
 30
0.0
 11
-140.27027039999999
 21
-54.471621672000033
 31
0.0
  0
LINE
  8
BASIS
  6
DASHDOT
 62
     6
 10
-85.135135199999979
 20
-180.7601353
 30
0.0
 11
-85.135135199999979
 21
-138.5033785
 31
0.0
  0
LINE
  8
BASIS
  6
DASHDOT
 62
     6
 10
-108.5135136
 20
-157.38175689999991
 30
0.0
 11
-61.756756800000012
 21
-157.38175689999991
 31
0.0
  0
CIRCLE
  8
DETAIL
  6
CONTINUOUS
 62
     5
 10
-85.135135199999979
 20
-157.38175689999991
 30
0.0
 40
2.9222972999999999
  0
LINE
  8
BASIS
  6
DASHDOT
 62
     6
 10
85.135135199999922
 20
-180.7601353
 30
0.0
 11
85.135135199999922
 21
-138.5033785
 31
0.0
  0
LINE
  8
BASIS
  6
DASHDOT
 62
     6
 10
108.5135136
 20
-157.38175689999991
 30
0.0
 11
61.756756800000012
 21
-157.38175689999991
 31
0.0
  0
CIRCLE
  8
DETAIL
  6
CONTINUOUS
 62
     5
 10
85.135135199999922
 20
-157.38175689999991
 30
0.0
 40
2.9222972999999999
  0
CIRCLE
  8
FIX
  6
CONTINUOUS
 62
    11
 10
85.135135199999922
 20
157.38175689999991
 30
0.0
 40
2.9222972999999999
  0
CIRCLE
  8
FIX
  6
CONTINUOUS
 62
    11
 10
-85.135135199999979
 20
157.38175689999991
 30
0.0
 40
2.9222972999999999
  0
LINE
  8
DETAIL
  6
CONTINUOUS
 62
     5
 10
140.27027039999999
 20
144.77027039999999
 30
0.0
 11
-140.27027039999999
 21
144.77027039999999
 31
0.0
  0
LINE
  8
DETAIL
  6
CONTINUOUS
 62
     5
 10
140.27027039999999
 20
121.391892
 30
0.0
 11
-140.27027039999999
 21
121.391892
 31
0.0
  0
LINE
  8
DETAIL
  6
CONTINUOUS
 62
     5
 10
140.27027039999999
 20
31.210135164000011
 30
0.0
 11
-140.27027039999999
 21
31.210135164000011
 31
0.0
  0
CIRCLE
  8
DETAIL
  6
CONTINUOUS
 62
     5
 10
-85.135135199999979
 20
157.38175689999991
 30
0.0
 40
2.9222972999999999
  0
LINE
  8
BASIS
  6
DASHDOT
 62
     6
 10
-85.135135199999979
 20
180.7601353
 30
0.0
 11
-85.135135199999979
 21
138.5033785
 31
0.0
  0
LINE
  8
BASIS
  6
DASHDOT
 62
     6
 10
-108.5135136
 20
157.38175689999991
 30
0.0
 11
-61.756756800000012
 21
157.38175689999991
 31
0.0
  0
CIRCLE
  8
DETAIL
  6
CONTINUOUS
 62
     5
 10
85.135135199999922
 20
157.38175689999991
 30
0.0
 40
2.9222972999999999
  0
LINE
  8
BASIS
  6
DASHDOT
 62
     6
 10
85.135135199999922
 20
180.7601353
 30
0.0
 11
85.135135199999922
 21
138.5033785
 31
0.0
  0
LINE
  8
BASIS
  6
DASHDOT
 62
     6
 10
108.5135136
 20
157.38175689999991
 30
0.0
 11
61.756756800000012
 21
157.38175689999991
 31
0.0
  0
LINE
  8
NOTE
  6
CONTINUOUS
 62
     4
 10
631.70341410359606
 20
252.69741003059929
 30
0.0
 11
252.68772953352189
 21
252.69741003059929
 31
0.0
  0
TEXT
  8
NOTE
  6
CONTINUOUS
 62
     4
 10
271.48428249721132
 20
280.68567384702487
 30
0.0
 40
64.0
  1
4-φ5×8
 41
0.9
  0
LINE
  8
NOTE
  6
CONTINUOUS
 62
     4
 10
252.68772953352189
 20
252.69741003059929
 30
0.0
 11
97.211668125225174
 21
164.51722161612301
 31
0.0
  0
LINE
  8
NOTE
  6
CONTINUOUS
 62
     4
 10
90.217428109561297
 20
162.56744270729359
 30
0.0
 11
85.135135844776073
 21
157.38175697391779
 31
0.0
  0
LINE
  8
NOTE
  6
CONTINUOUS
 62
     4
 10
85.135135844776073
 20
157.38175697391779
 30
0.0
 11
92.129375860440177
 21
159.33153588274729
 31
0.0
  0
LINE
  8
NOTE
  6
CONTINUOUS
 62
     4
 10
85.135135844776073
 20
157.38175697391779
 30
0.0
 11
97.211668125225287
 21
164.51722161612301
 31
0.0
  0
LINE
  8
DETAIL
  6
CONTINUOUS
 62
     5
 10
217.90297187039849
 20
-218.60097932333721
 30
0.0
 11
217.90297187039849
 21
-202.45051980654151
 31
0.0
  0
LINE
  8
DETAIL
  6
CONTINUOUS
 62
     5
 10
215.1019083412211
 20
-218.60097932333721
 30
0.0
 11
215.1019083412211
 21
-201.6023888000658
 31
0.0
  0
LINE
  8
DETAIL
  6
CONTINUOUS
 62
     5
 10
208.09924951827861
 20
-248.4789903012263
 30
0.0
 11
218.36981579192769
 21
-248.4789903012263
 31
0.0
  0
ARC
  8
DETAIL
  6
CONTINUOUS
 62
     5
 10
221.17087932110479
 20
-248.59205761826871
 30
0.0
 40
1.8673756861181681
 50
273.57633437500471
 51
0.0
  0
CIRCLE
  8
DETAIL
  6
CONTINUOUS
 62
     5
 10
197.17510175448751
 20
-244.27739500746071
 30
0.0
 40
1.820691293965101
  0
CIRCLE
  8
DETAIL
  6
CONTINUOUS
 62
     5
 10
197.17510175448751
 20
-244.27739500746071
 30
0.0
 40
1.447216156741495
  0
LINE
  8
DETAIL
  6
CONTINUOUS
 62
     5
 10
193.0607004319742
 20
-247.2185117130966
 30
0.0
 11
208.09924951827861
 21
-247.2185117130966
 31
0.0
  0
LINE
  8
DETAIL
  6
CONTINUOUS
 62
     5
 10
208.09924951827861
 20
-251.28005383040329
 30
0.0
 11
221.28736301601279
 21
-250.45579673679509
 31
0.0
  0
LINE
  8
DETAIL
  6
CONTINUOUS
 62
     5
 10
215.1019083412211
 20
-218.60097932333721
 30
0.0
 11
215.1019083412211
 21
-218.49534184962781
 31
0.0
  0
LINE
  8
DETAIL
  6
CONTINUOUS
 62
     5
 10
217.90297187039849
 20
-218.60097932333721
 30
0.0
 11
217.90297187039849
 21
-218.49534184962781
 31
0.0
  0
LINE
  8
DETAIL
  6
CONTINUOUS
 62
     5
 10
218.36981579192769
 20
-248.4789903012263
 30
0.0
 11
218.36981579192769
 21
-240.07579971369481
 31
0.0
  0
LINE
  8
DETAIL
  6
CONTINUOUS
 62
     5
 10
208.09924951827861
 20
-240.07579971369481
 30
0.0
 11
218.36981579192769
 21
-240.07579971369481
 31
0.0
  0
LINE
  8
DETAIL
  6
CONTINUOUS
 62
     5
 10
215.56875226275059
 20
-227.4710138323978
 30
0.0
 11
215.56875226275059
 21
-226.07048206780931
 31
0.0
  0
LINE
  8
DETAIL
  6
CONTINUOUS
 62
     5
 10
215.56875226275059
 20
-221.86888677404369
 30
0.0
 11
215.56875226275059
 21
-220.46835500945519
 31
0.0
  0
LINE
  8
DETAIL
  6
CONTINUOUS
 62
     5
 10
217.4361279488688
 20
-224.66995030322079
 30
0.0
 11
217.4361279488688
 21
-223.26941853863221
 31
0.0
  0
LINE
  8
DETAIL
  6
CONTINUOUS
 62
     5
 10
215.56875226275059
 20
-233.0731408907522
 30
0.0
 11
215.56875226275059
 21
-231.67260912616371
 31
0.0
  0
LINE
  8
DETAIL
  6
CONTINUOUS
 62
     5
 10
217.4361279488688
 20
-230.2720773615749
 30
0.0
 11
217.4361279488688
 21
-228.87154559698641
 31
0.0
  0
LINE
  8
DETAIL
  6
CONTINUOUS
 62
     5
 10
211.99876933340741
 20
-233.0731408907522
 30
0.0
 11
216.5024401058098
 21
-233.0731408907522
 31
0.0
  0
LINE
  8
DETAIL
  6
CONTINUOUS
 62
     5
 10
212.16353777630019
 20
-231.67260912616371
 30
0.0
 11
216.5024401058098
 21
-231.67260912616371
 31
0.0
  0
LINE
  8
DETAIL
  6
CONTINUOUS
 62
     5
 10
216.5024401058098
 20
-230.2720773615749
 30
0.0
 11
220.6765739924266
 21
-230.2720773615749
 31
0.0
  0
LINE
  8
DETAIL
  6
CONTINUOUS
 62
     5
 10
216.5024401058098
 20
-228.87154559698641
 30
0.0
 11
220.51180554953399
 21
-228.87154559698641
 31
0.0
  0
LINE
  8
DETAIL
  6
CONTINUOUS
 62
     5
 10
212.6578431049783
 20
-227.4710138323978
 30
0.0
 11
216.5024401058098
 21
-227.4710138323978
 31
0.0
  0
LINE
  8
DETAIL
  6
CONTINUOUS
 62
     5
 10
212.82261154787111
 20
-226.07048206780931
 30
0.0
 11
216.5024401058098
 21
-226.07048206780931
 31
0.0
  0
LINE
  8
DETAIL
  6
CONTINUOUS
 62
     5
 10
216.5024401058098
 20
-224.66995030322079
 30
0.0
 11
220.0175002208556
 21
-224.66995030322079
 31
0.0
  0
LINE
  8
DETAIL
  6
CONTINUOUS
 62
     5
 10
216.5024401058098
 20
-223.26941853863221
 30
0.0
 11
219.85273177796259
 21
-223.26941853863221
 31
0.0
  0
LINE
  8
DETAIL
  6
CONTINUOUS
 62
     5
 10
213.3169168765493
 20
-221.86888677404369
 30
0.0
 11
216.5024401058098
 21
-221.86888677404369
 31
0.0
  0
LINE
  8
DETAIL
  6
CONTINUOUS
 62
     5
 10
213.48168531944211
 20
-220.46835500945519
 30
0.0
 11
216.5024401058098
 21
-220.46835500945519
 31
0.0
  0
ARC
  8
DETAIL
  6
CONTINUOUS
 62
     5
 10
214.11651733526901
 20
-219.06782324486639
 30
0.0
 40
0.4668439215296878
 50
90.0
 51
173.29016319225391
  0
ARC
  8
DETAIL
  6
CONTINUOUS
 62
     5
 10
218.88836287635061
 20
-219.06782324486639
 30
0.0
 40
0.4668439215294778
 50
6.7098368077526533
 51
90.0
  0
ARC
  8
DETAIL
  6
CONTINUOUS
 62
     5
 10
210.90031304745571
 20
-236.51429298036251
 30
0.0
 40
0.9336878430589513
 50
266.42366562499529
 51
0.0
  0
ARC
  8
DETAIL
  6
CONTINUOUS
 62
     5
 10
222.10456716416371
 20
-237.3218643752985
 30
0.0
 40
0.9336878430589884
 50
180.0
 51
250.52877936552761
  0
LINE
  8
DETAIL
  6
CONTINUOUS
 62
     5
 10
211.83400089051469
 20
-234.47367265534069
 30
0.0
 11
213.65287101247739
 21
-219.01327661865571
 31
0.0
  0
LINE
  8
DETAIL
  6
CONTINUOUS
 62
     5
 10
221.17087932110479
 20
-234.47367265534101
 30
0.0
 11
219.3520091991418
 21
-219.01327661865571
 31
0.0
  0
LINE
  8
DETAIL
  6
CONTINUOUS
 62
     5
 10
214.11651733526901
 20
-218.60097932333721
 30
0.0
 11
218.88836287635061
 21
-218.60097932333721
 31
0.0
  0
LINE
  8
DETAIL
  6
CONTINUOUS
 62
     5
 10
211.83400089051469
 20
-236.51429298036251
 30
0.0
 11
211.83400089051469
 21
-234.47367265534069
 31
0.0
  0
LINE
  8
DETAIL
  6
CONTINUOUS
 62
     5
 10
221.17087932110479
 20
-237.3218643752985
 30
0.0
 11
221.17087932110479
 21
-234.47367265534101
 31
0.0
  0
ARC
  8
DETAIL
  6
CONTINUOUS
 62
     5
 10
221.17087932110479
 20
-239.96273239665251
 30
0.0
 40
1.8673756861180419
 50
0.0
 51
86.423665624995337
  0
LINE
  8
DETAIL
  6
CONTINUOUS
 62
     5
 10
193.0607004319742
 20
-247.2185117130966
 30
0.0
 11
193.0607004319742
 21
-241.33627830182479
 31
0.0
  0
ARC
  8
DETAIL
  6
CONTINUOUS
 62
     5
 10
197.8286832446291
 20
-244.27739500746071
 30
0.0
 40
5.6021270583541902
 50
148.33175674645989
 51
211.66824325354011
  0
LINE
  8
DETAIL
  6
CONTINUOUS
 62
     5
 10
193.0607004319742
 20
-241.33627830182479
 30
0.0
 11
208.09924951827861
 21
-241.33627830182479
 31
0.0
  0
LINE
  8
DETAIL
  6
CONTINUOUS
 62
     5
 10
221.28736301601279
 20
-238.0989932781261
 30
0.0
 11
208.09924951827861
 21
-237.27473618451771
 31
0.0
  0
LINE
  8
DETAIL
  6
CONTINUOUS
 62
     5
 10
223.03825500722289
 20
-248.59205761826871
 30
0.0
 11
223.03825500722289
 21
-239.96273239665251
 31
0.0
  0
LINE
  8
DETAIL
  6
CONTINUOUS
 62
     5
 10
208.09924951827861
 20
-251.28005383040329
 30
0.0
 11
208.09924951827861
 21
-237.27473618451771
 31
0.0
  0
LINE
  8
DETAIL
  6
CONTINUOUS
 62
     5
 10
212.56373233092941
 20
-202.1060570495458
 30
0.0
 11
214.15364920120089
 21
-201.70491780235221
 31
0.0
  0
LINE
  8
DETAIL
  6
CONTINUOUS
 62
     5
 10
214.15364920120089
 20
-201.70491780235221
 30
0.0
 11
215.60887698117301
 21
-201.63757325720661
 31
0.0
  0
LINE
  8
DETAIL
  6
CONTINUOUS
 62
     5
 10
215.60887698117301
 20
-201.63757325720661
 30
0.0
 11
215.60887698117301
 21
-201.63757325720661
 31
0.0
  0
LINE
  8
DETAIL
  6
CONTINUOUS
 62
     5
 10
215.60887698117301
 20
-201.63757325720661
 30
0.0
 11
216.84157495977999
 21
-202.06506471772809
 31
0.0
  0
LINE
  8
DETAIL
  6
CONTINUOUS
 62
     5
 10
216.84157495977999
 20
-202.06506471772809
 30
0.0
 11
217.9512959428946
 21
-202.4574198938202
 31
0.0
  0
LINE
  8
DETAIL
  6
CONTINUOUS
 62
     5
 10
217.9512959428946
 20
-202.4574198938202
 30
0.0
 11
217.9512959428946
 21
-202.4574198938202
 31
0.0
  0
LINE
  8
DETAIL
  6
CONTINUOUS
 62
     5
 10
217.9512959428946
 20
-202.4574198938202
 30
0.0
 11
219.05808890230591
 21
-202.29052254279139
 31
0.0
  0
LINE
  8
DETAIL
  6
CONTINUOUS
 62
     5
 10
219.05808890230591
 20
-202.29052254279139
 30
0.0
 11
220.17659395652501
 21
-201.75469420528461
 31
0.0
  0
LINE
  8
DETAIL
  6
CONTINUOUS
 62
     5
 10
212.56373233092941
 20
-199.30499352036841
 30
0.0
 11
214.15364920120089
 21
-198.9038542731752
 31
0.0
  0
LINE
  8
DETAIL
  6
CONTINUOUS
 62
     5
 10
214.15364920120089
 20
-198.9038542731752
 30
0.0
 11
215.60887698117301
 21
-198.8365097280296
 31
0.0
  0
LINE
  8
DETAIL
  6
CONTINUOUS
 62
     5
 10
215.60887698117301
 20
-198.8365097280296
 30
0.0
 11
215.60887698117301
 21
-198.8365097280296
 31
0.0
  0
LINE
  8
DETAIL
  6
CONTINUOUS
 62
     5
 10
215.60887698117301
 20
-198.8365097280296
 30
0.0
 11
216.84157495977999
 21
-199.26400118855099
 31
0.0
  0
LINE
  8
DETAIL
  6
CONTINUOUS
 62
     5
 10
216.84157495977999
 20
-199.26400118855099
 30
0.0
 11
217.9512959428946
 21
-199.6563563646431
 31
0.0
  0
LINE
  8
DETAIL
  6
CONTINUOUS
 62
     5
 10
217.9512959428946
 20
-199.6563563646431
 30
0.0
 11
217.9512959428946
 21
-199.6563563646431
 31
0.0
  0
LINE
  8
DETAIL
  6
CONTINUOUS
 62
     5
 10
217.9512959428946
 20
-199.6563563646431
 30
0.0
 11
219.05808890230591
 21
-199.48945901361409
 31
0.0
  0
LINE
  8
DETAIL
  6
CONTINUOUS
 62
     5
 10
219.05808890230591
 20
-199.48945901361409
 30
0.0
 11
220.17659395652501
 21
-198.95363067610779
 31
0.0
  0
LINE
  8
DETAIL
  6
CONTINUOUS
 62
     5
 10
212.56373233092941
 20
-199.30499352036841
 30
0.0
 11
214.15364920120089
 21
-198.9038542731752
 31
0.0
  0
LINE
  8
DETAIL
  6
CONTINUOUS
 62
     5
 10
214.15364920120089
 20
-198.9038542731752
 30
0.0
 11
215.60887698117301
 21
-198.8365097280296
 31
0.0
  0
LINE
  8
DETAIL
  6
CONTINUOUS
 62
     5
 10
215.60887698117301
 20
-198.8365097280296
 30
0.0
 11
215.60887698117301
 21
-198.8365097280296
 31
0.0
  0
LINE
  8
DETAIL
  6
CONTINUOUS
 62
     5
 10
215.60887698117301
 20
-198.8365097280296
 30
0.0
 11
216.84157495977999
 21
-199.26400118855099
 31
0.0
  0
LINE
  8
DETAIL
  6
CONTINUOUS
 62
     5
 10
216.84157495977999
 20
-199.26400118855099
 30
0.0
 11
217.9512959428946
 21
-199.6563563646431
 31
0.0
  0
LINE
  8
DETAIL
  6
CONTINUOUS
 62
     5
 10
217.9512959428946
 20
-199.6563563646431
 30
0.0
 11
217.9512959428946
 21
-199.6563563646431
 31
0.0
  0
LINE
  8
DETAIL
  6
CONTINUOUS
 62
     5
 10
217.9512959428946
 20
-199.6563563646431
 30
0.0
 11
219.05808890230591
 21
-199.48945901361409
 31
0.0
  0
LINE
  8
DETAIL
  6
CONTINUOUS
 62
     5
 10
219.05808890230591
 20
-199.48945901361409
 30
0.0
 11
220.17659395652501
 21
-198.95363067610779
 31
0.0
  0
LINE
  8
DETAIL
  6
CONTINUOUS
 62
     5
 10
212.56373233092941
 20
-202.1060570495458
 30
0.0
 11
214.15364920120089
 21
-201.70491780235221
 31
0.0
  0
LINE
  8
DETAIL
  6
CONTINUOUS
 62
     5
 10
214.15364920120089
 20
-201.70491780235221
 30
0.0
 11
215.60887698117301
 21
-201.63757325720661
 31
0.0
  0
LINE
  8
DETAIL
  6
CONTINUOUS
 62
     5
 10
215.60887698117301
 20
-201.63757325720661
 30
0.0
 11
215.60887698117301
 21
-201.63757325720661
 31
0.0
  0
LINE
  8
DETAIL
  6
CONTINUOUS
 62
     5
 10
215.60887698117301
 20
-201.63757325720661
 30
0.0
 11
216.84157495977999
 21
-202.06506471772809
 31
0.0
  0
LINE
  8
DETAIL
  6
CONTINUOUS
 62
     5
 10
216.84157495977999
 20
-202.06506471772809
 30
0.0
 11
217.9512959428946
 21
-202.4574198938202
 31
0.0
  0
LINE
  8
DETAIL
  6
CONTINUOUS
 62
     5
 10
217.9512959428946
 20
-202.4574198938202
 30
0.0
 11
217.9512959428946
 21
-202.4574198938202
 31
0.0
  0
LINE
  8
DETAIL
  6
CONTINUOUS
 62
     5
 10
217.9512959428946
 20
-202.4574198938202
 30
0.0
 11
219.05808890230591
 21
-202.29052254279139
 31
0.0
  0
LINE
  8
DETAIL
  6
CONTINUOUS
 62
     5
 10
219.05808890230591
 20
-202.29052254279139
 30
0.0
 11
220.17659395652501
 21
-201.75469420528461
 31
0.0
  0
LINE
  8
DETAIL
  6
CONTINUOUS
 62
     5
 10
208.09924951827861
 20
-251.28005383040329
 30
0.0
 11
208.09924951827861
 21
-237.27473618451771
 31
0.0
  0
LINE
  8
DETAIL
  6
CONTINUOUS
 62
     5
 10
223.03825500722289
 20
-248.59205761826871
 30
0.0
 11
223.03825500722289
 21
-239.96273239665251
 31
0.0
  0
LINE
  8
DETAIL
  6
CONTINUOUS
 62
     5
 10
221.28736301601279
 20
-238.0989932781261
 30
0.0
 11
208.09924951827861
 21
-237.27473618451771
 31
0.0
  0
LINE
  8
DETAIL
  6
CONTINUOUS
 62
     5
 10
193.0607004319742
 20
-241.33627830182479
 30
0.0
 11
208.09924951827861
 21
-241.33627830182479
 31
0.0
  0
ARC
  8
DETAIL
  6
CONTINUOUS
 62
     5
 10
197.8286832446291
 20
-244.27739500746071
 30
0.0
 40
5.6021270583541902
 50
148.33175674645989
 51
211.66824325354011
  0
LINE
  8
DETAIL
  6
CONTINUOUS
 62
     5
 10
193.0607004319742
 20
-247.2185117130966
 30
0.0
 11
193.0607004319742
 21
-241.33627830182479
 31
0.0
  0
ARC
  8
DETAIL
  6
CONTINUOUS
 62
     5
 10
221.17087932110479
 20
-239.96273239665251
 30
0.0
 40
1.8673756861180419
 50
0.0
 51
86.423665624995337
  0
LINE
  8
DETAIL
  6
CONTINUOUS
 62
     5
 10
221.17087932110479
 20
-237.3218643752985
 30
0.0
 11
221.17087932110479
 21
-234.47367265534101
 31
0.0
  0
LINE
  8
DETAIL
  6
CONTINUOUS
 62
     5
 10
211.83400089051469
 20
-236.51429298036251
 30
0.0
 11
211.83400089051469
 21
-234.47367265534069
 31
0.0
  0
LINE
  8
DETAIL
  6
CONTINUOUS
 62
     5
 10
214.11651733526901
 20
-218.60097932333721
 30
0.0
 11
218.88836287635061
 21
-218.60097932333721
 31
0.0
  0
LINE
  8
DETAIL
  6
CONTINUOUS
 62
     5
 10
221.17087932110479
 20
-234.47367265534101
 30
0.0
 11
219.3520091991418
 21
-219.01327661865571
 31
0.0
  0
LINE
  8
DETAIL
  6
CONTINUOUS
 62
     5
 10
211.83400089051469
 20
-234.47367265534069
 30
0.0
 11
213.65287101247739
 21
-219.01327661865571
 31
0.0
  0
ARC
  8
DETAIL
  6
CONTINUOUS
 62
     5
 10
222.10456716416371
 20
-237.3218643752985
 30
0.0
 40
0.9336878430589884
 50
180.0
 51
250.52877936552761
  0
ARC
  8
DETAIL
  6
CONTINUOUS
 62
     5
 10
210.90031304745571
 20
-236.51429298036251
 30
0.0
 40
0.9336878430589513
 50
266.42366562499529
 51
0.0
  0
ARC
  8
DETAIL
  6
CONTINUOUS
 62
     5
 10
218.88836287635061
 20
-219.06782324486639
 30
0.0
 40
0.4668439215294778
 50
6.7098368077526533
 51
90.0
  0
ARC
  8
DETAIL
  6
CONTINUOUS
 62
     5
 10
214.11651733526901
 20
-219.06782324486639
 30
0.0
 40
0.4668439215296878
 50
90.0
 51
173.29016319225391
  0
LINE
  8
DETAIL
  6
CONTINUOUS
 62
     5
 10
213.48168531944211
 20
-220.46835500945519
 30
0.0
 11
216.5024401058098
 21
-220.46835500945519
 31
0.0
  0
LINE
  8
DETAIL
  6
CONTINUOUS
 62
     5
 10
213.3169168765493
 20
-221.86888677404369
 30
0.0
 11
216.5024401058098
 21
-221.86888677404369
 31
0.0
  0
LINE
  8
DETAIL
  6
CONTINUOUS
 62
     5
 10
216.5024401058098
 20
-223.26941853863221
 30
0.0
 11
219.85273177796259
 21
-223.26941853863221
 31
0.0
  0
LINE
  8
DETAIL
  6
CONTINUOUS
 62
     5
 10
216.5024401058098
 20
-224.66995030322079
 30
0.0
 11
220.0175002208556
 21
-224.66995030322079
 31
0.0
  0
LINE
  8
DETAIL
  6
CONTINUOUS
 62
     5
 10
212.82261154787111
 20
-226.07048206780931
 30
0.0
 11
216.5024401058098
 21
-226.07048206780931
 31
0.0
  0
LINE
  8
DETAIL
  6
CONTINUOUS
 62
     5
 10
212.6578431049783
 20
-227.4710138323978
 30
0.0
 11
216.5024401058098
 21
-227.4710138323978
 31
0.0
  0
LINE
  8
DETAIL
  6
CONTINUOUS
 62
     5
 10
216.5024401058098
 20
-228.87154559698641
 30
0.0
 11
220.51180554953399
 21
-228.87154559698641
 31
0.0
  0
LINE
  8
DETAIL
  6
CONTINUOUS
 62
     5
 10
216.5024401058098
 20
-230.2720773615749
 30
0.0
 11
220.6765739924266
 21
-230.2720773615749
 31
0.0
  0
LINE
  8
DETAIL
  6
CONTINUOUS
 62
     5
 10
212.16353777630019
 20
-231.67260912616371
 30
0.0
 11
216.5024401058098
 21
-231.67260912616371
 31
0.0
  0
LINE
  8
DETAIL
  6
CONTINUOUS
 62
     5
 10
211.99876933340741
 20
-233.0731408907522
 30
0.0
 11
216.5024401058098
 21
-233.0731408907522
 31
0.0
  0
LINE
  8
DETAIL
  6
CONTINUOUS
 62
     5
 10
217.4361279488688
 20
-230.2720773615749
 30
0.0
 11
217.4361279488688
 21
-228.87154559698641
 31
0.0
  0
LINE
  8
DETAIL
  6
CONTINUOUS
 62
     5
 10
215.56875226275059
 20
-233.0731408907522
 30
0.0
 11
215.56875226275059
 21
-231.67260912616371
 31
0.0
  0
LINE
  8
DETAIL
  6
CONTINUOUS
 62
     5
 10
217.4361279488688
 20
-224.66995030322079
 30
0.0
 11
217.4361279488688
 21
-223.26941853863221
 31
0.0
  0
LINE
  8
DETAIL
  6
CONTINUOUS
 62
     5
 10
215.56875226275059
 20
-221.86888677404369
 30
0.0
 11
215.56875226275059
 21
-220.46835500945519
 31
0.0
  0
LINE
  8
DETAIL
  6
CONTINUOUS
 62
     5
 10
215.56875226275059
 20
-227.4710138323978
 30
0.0
 11
215.56875226275059
 21
-226.07048206780931
 31
0.0
  0
LINE
  8
DETAIL
  6
CONTINUOUS
 62
     5
 10
208.09924951827861
 20
-240.07579971369481
 30
0.0
 11
218.36981579192769
 21
-240.07579971369481
 31
0.0
  0
LINE
  8
DETAIL
  6
CONTINUOUS
 62
     5
 10
218.36981579192769
 20
-248.4789903012263
 30
0.0
 11
218.36981579192769
 21
-240.07579971369481
 31
0.0
  0
LINE
  8
DETAIL
  6
CONTINUOUS
 62
     5
 10
217.90297187039849
 20
-218.60097932333721
 30
0.0
 11
217.90297187039849
 21
-218.49534184962781
 31
0.0
  0
LINE
  8
DETAIL
  6
CONTINUOUS
 62
     5
 10
215.1019083412211
 20
-218.60097932333721
 30
0.0
 11
215.1019083412211
 21
-218.49534184962781
 31
0.0
  0
LINE
  8
DETAIL
  6
CONTINUOUS
 62
     5
 10
208.09924951827861
 20
-251.28005383040329
 30
0.0
 11
221.28736301601279
 21
-250.45579673679509
 31
0.0
  0
LINE
  8
DETAIL
  6
CONTINUOUS
 62
     5
 10
193.0607004319742
 20
-247.2185117130966
 30
0.0
 11
208.09924951827861
 21
-247.2185117130966
 31
0.0
  0
CIRCLE
  8
DETAIL
  6
CONTINUOUS
 62
     5
 10
197.17510175448751
 20
-244.27739500746071
 30
0.0
 40
1.447216156741495
  0
CIRCLE
  8
DETAIL
  6
CONTINUOUS
 62
     5
 10
197.17510175448751
 20
-244.27739500746071
 30
0.0
 40
1.820691293965101
  0
ARC
  8
DETAIL
  6
CONTINUOUS
 62
     5
 10
221.17087932110479
 20
-248.59205761826871
 30
0.0
 40
1.8673756861181681
 50
273.57633437500471
 51
0.0
  0
LINE
  8
DETAIL
  6
CONTINUOUS
 62
     5
 10
208.09924951827861
 20
-248.4789903012263
 30
0.0
 11
218.36981579192769
 21
-248.4789903012263
 31
0.0
  0
LINE
  8
DETAIL
  6
CONTINUOUS
 62
     5
 10
215.1019083412211
 20
-218.60097932333721
 30
0.0
 11
215.1019083412211
 21
-201.6023888000658
 31
0.0
  0
LINE
  8
DETAIL
  6
CONTINUOUS
 62
     5
 10
217.90297187039849
 20
-218.60097932333721
 30
0.0
 11
217.90297187039849
 21
-202.45051980654151
 31
0.0
  0
LINE
  8
DETAIL
  6
CONTINUOUS
 62
     5
 10
188.23308558443611
 20
-122.4227361385438
 30
0.0
 11
173.00008564167501
 21
-122.4227361385438
 31
0.0
  0
LINE
  8
DETAIL
  6
CONTINUOUS
 62
     5
 10
188.23308558443611
 20
-117.7542969232484
 30
0.0
 11
173.00008564167501
 21
-117.7542969232484
 31
0.0
  0
LINE
  8
DETAIL
  6
CONTINUOUS
 62
     5
 10
188.23308558443611
 20
-117.7542969232484
 30
0.0
 11
173.00008564167501
 21
-117.7542969232484
 31
0.0
  0
LINE
  8
DETAIL
  6
CONTINUOUS
 62
     5
 10
188.23308558443611
 20
-122.4227361385438
 30
0.0
 11
173.00008564167501
 21
-122.4227361385438
 31
0.0
  0
LINE
  8
DETAIL
  6
CONTINUOUS
 62
     5
 10
188.23308558443611
 20
-117.7542969232484
 30
0.0
 11
188.23308558443611
 21
-122.4227361385438
 31
0.0
  0
LINE
  8
DETAIL
  6
CONTINUOUS
 62
     5
 10
206.04513626354861
 20
-118.96809111922521
 30
0.0
 11
188.23308558443611
 21
-118.96809111922521
 31
0.0
  0
LINE
  8
DETAIL
  6
CONTINUOUS
 62
     5
 10
206.0451366197224
 20
-121.2089419425668
 30
0.0
 11
188.23308558443611
 21
-121.2089419425668
 31
0.0
  0
LINE
  8
DETAIL
  6
CONTINUOUS
 62
     5
 10
215.38201505031279
 20
-198.8104336243521
 30
0.0
 11
215.38201505031279
 21
-130.54582037315731
 31
0.0
  0
LINE
  8
DETAIL
  6
CONTINUOUS
 62
     5
 10
217.62286551748019
 20
-199.5842368669438
 30
0.0
 11
217.62286551748019
 21
-130.54582037315731
 31
0.0
  0
ARC
  8
DETAIL
  6
CONTINUOUS
 62
     5
 10
206.0451366197224
 20
-130.54582037315731
 30
0.0
 40
9.3368784305903443
 50
0.0
 51
90.0
  0
ARC
  8
DETAIL
  6
CONTINUOUS
 62
     5
 10
206.04513626354861
 20
-130.54582037315731
 30
0.0
 40
11.57772925393202
 50
0.0
 51
90.0
  0
ARC
  8
DETAIL
  6
CONTINUOUS
 62
     5
 10
206.04513626354861
 20
-130.54582037315731
 30
0.0
 40
11.57772925393202
 50
0.0
 51
90.0
  0
ARC
  8
DETAIL
  6
CONTINUOUS
 62
     5
 10
206.0451366197224
 20
-130.54582037315731
 30
0.0
 40
9.3368784305903443
 50
0.0
 51
90.0
  0
LINE
  8
DETAIL
  6
CONTINUOUS
 62
     5
 10
217.62286551748019
 20
-199.5842368669438
 30
0.0
 11
217.62286551748019
 21
-130.54582037315731
 31
0.0
  0
LINE
  8
DETAIL
  6
CONTINUOUS
 62
     5
 10
215.38201505031279
 20
-198.8104336243521
 30
0.0
 11
215.38201505031279
 21
-130.54582037315731
 31
0.0
  0
LINE
  8
DETAIL
  6
CONTINUOUS
 62
     5
 10
206.0451366197224
 20
-121.2089419425668
 30
0.0
 11
188.23308558443611
 21
-121.2089419425668
 31
0.0
  0
LINE
  8
DETAIL
  6
CONTINUOUS
 62
     5
 10
206.04513626354861
 20
-118.96809111922521
 30
0.0
 11
188.23308558443611
 21
-118.96809111922521
 31
0.0
  0
LINE
  8
DETAIL
  6
CONTINUOUS
 62
     5
 10
188.23308558443611
 20
-117.7542969232484
 30
0.0
 11
188.23308558443611
 21
-122.4227361385438
 31
0.0
  0
LINE
  8
SIZE
  6
CONTINUOUS
 62
    30
 10
-173.00000016000001
 20
193.00000016000001
 30
0.0
 11
-173.00000016000001
 21
518.68908530411591
 31
0.0
  0
LINE
  8
SIZE
  6
CONTINUOUS
 62
    30
 10
173.00000016000001
 20
193.00000016000001
 30
0.0
 11
173.00000016000001
 21
518.68908530411591
 31
0.0
  0
LINE
  8
SIZE
  6
CONTINUOUS
 62
    30
 10
-161.00000016000001
 20
498.68908530411591
 30
0.0
 11
161.00000016000001
 21
498.68908530411591
 31
0.0
  0
CIRCLE
  8
SIZE
  6
CONTINUOUS
 62
    30
 10
-173.00000016000001
 20
498.68908530411591
 30
0.0
 40
6.0
  0
LINE
  8
SIZE
  6
CONTINUOUS
 62
    30
 10
-173.00000016000001
 20
498.68908530411591
 30
0.0
 11
-161.00000016000001
 21
498.68908530411591
 31
0.0
  0
CIRCLE
  8
SIZE
  6
CONTINUOUS
 62
    30
 10
173.00000016000001
 20
498.68908530411591
 30
0.0
 40
6.0
  0
LINE
  8
SIZE
  6
CONTINUOUS
 62
    30
 10
173.00000016000001
 20
498.68908530411591
 30
0.0
 11
161.00000016000001
 21
498.68908530411591
 31
0.0
  0
TEXT
  8
SIZE
  6
CONTINUOUS
 62
    30
 10
-109.1657142857142
 20
523.68908530411591
 30
0.0
 40
64.0
  1
□346
 41
0.9
 72
     1
 11
0.0
 21
523.68908530411591
 31
0.0
  0
LINE
  8
SIZE
  6
CONTINUOUS
 62
    30
 10
-85.135135199999979
 20
200.7601353
 30
0.0
 11
-85.135135199999979
 21
343.12459078346319
 31
0.0
  0
LINE
  8
SIZE
  6
CONTINUOUS
 62
    30
 10
85.135135199999922
 20
198.2601353
 30
0.0
 11
85.135135200000036
 21
343.12459078346319
 31
0.0
  0
LINE
  8
SIZE
  6
CONTINUOUS
 62
    30
 10
-97.135135199999979
 20
323.12459078346319
 30
0.0
 11
-109.13513519999999
 21
323.12459078346319
 31
0.0
  0
LINE
  8
SIZE
  6
CONTINUOUS
 62
    30
 10
97.135135200000036
 20
323.12459078346319
 30
0.0
 11
109.13513519999999
 21
323.12459078346319
 31
0.0
  0
LINE
  8
SIZE
  6
CONTINUOUS
 62
    30
 10
-85.135135199999979
 20
323.12459078346319
 30
0.0
 11
85.135135200000036
 21
323.12459078346319
 31
0.0
  0
CIRCLE
  8
SIZE
  6
CONTINUOUS
 62
    30
 10
-85.135135199999979
 20
323.12459078346319
 30
0.0
 40
6.0
  0
LINE
  8
SIZE
  6
CONTINUOUS
 62
    30
 10
-85.135135199999979
 20
323.12459078346319
 30
0.0
 11
-97.135135199999979
 21
323.12459078346319
 31
0.0
  0
CIRCLE
  8
SIZE
  6
CONTINUOUS
 62
    30
 10
85.135135200000036
 20
323.12459078346319
 30
0.0
 40
6.0
  0
LINE
  8
SIZE
  6
CONTINUOUS
 62
    30
 10
85.135135200000036
 20
323.12459078346319
 30
0.0
 11
97.135135200000036
 21
323.12459078346319
 31
0.0
  0
TEXT
  8
SIZE
  6
CONTINUOUS
 62
    30
 10
-68.571428571428569
 20
348.12459078346319
 30
0.0
 40
64.0
  1
170
 41
0.9
 72
     1
 11
0.0
 21
348.12459078346319
 31
0.0
  0
LINE
  8
SIZE
  6
CONTINUOUS
 62
    30
 10
-128.51351360000001
 20
157.38175689999991
 30
0.0
 11
-375.65818153806629
 21
157.3817569
 31
0.0
  0
LINE
  8
SIZE
  6
CONTINUOUS
 62
    30
 10
-128.51351360000001
 20
-157.38175689999991
 30
0.0
 11
-375.65818153806651
 21
-157.3817568999998
 31
0.0
  0
LINE
  8
SIZE
  6
CONTINUOUS
 62
    30
 10
-355.65818153806617
 20
145.3817569
 30
0.0
 11
-355.65818153806651
 21
-145.3817568999998
 31
0.0
  0
CIRCLE
  8
SIZE
  6
CONTINUOUS
 62
    30
 10
-355.65818153806617
 20
157.3817569
 30
0.0
 40
6.0
  0
LINE
  8
SIZE
  6
CONTINUOUS
 62
    30
 10
-355.65818153806617
 20
157.3817569
 30
0.0
 11
-355.65818153806617
 21
145.3817569
 31
0.0
  0
CIRCLE
  8
SIZE
  6
CONTINUOUS
 62
    30
 10
-355.65818153806651
 20
-157.3817568999998
 30
0.0
 40
6.0
  0
LINE
  8
SIZE
  6
CONTINUOUS
 62
    30
 10
-355.65818153806651
 20
-157.3817568999998
 30
0.0
 11
-355.65818153806651
 21
-145.3817568999998
 31
0.0
  0
TEXT
  8
SIZE
  6
CONTINUOUS
 62
    30
 10
-380.6581815380664
 20
-68.571428571428569
 30
0.0
 40
64.0
  1
315
 50
90.0
 41
0.9
 72
     1
 11
-380.6581815380664
 21
0.0
 31
0.0
  0
LINE
  8
SIZE
  6
CONTINUOUS
 62
    30
 10
160.27027039999999
 20
144.77027039999999
 30
0.0
 11
648.63688272536729
 21
144.7702703999999
 31
0.0
  0
LINE
  8
SIZE
  6
CONTINUOUS
 62
    30
 10
160.27027039999999
 20
-144.77027039999999
 30
0.0
 11
648.63688272536729
 21
-144.77027040000019
 31
0.0
  0
LINE
  8
SIZE
  6
CONTINUOUS
 62
    30
 10
628.63688272536729
 20
132.7702703999999
 30
0.0
 11
628.63688272536729
 21
-132.77027040000019
 31
0.0
  0
CIRCLE
  8
SIZE
  6
CONTINUOUS
 62
    30
 10
628.63688272536729
 20
144.7702703999999
 30
0.0
 40
6.0
  0
LINE
  8
SIZE
  6
CONTINUOUS
 62
    30
 10
628.63688272536729
 20
144.7702703999999
 30
0.0
 11
628.63688272536729
 21
132.7702703999999
 31
0.0
  0
CIRCLE
  8
SIZE
  6
CONTINUOUS
 62
    30
 10
628.63688272536729
 20
-144.77027040000019
 30
0.0
 40
6.0
  0
LINE
  8
SIZE
  6
CONTINUOUS
 62
    30
 10
628.63688272536729
 20
-144.77027040000019
 30
0.0
 11
628.63688272536729
 21
-132.77027040000019
 31
0.0
  0
TEXT
  8
SIZE
  6
CONTINUOUS
 62
    30
 10
603.63688272536729
 20
-110.5371428571429
 30
0.0
 40
64.0
  1
□290
 50
90.0
 41
0.9
 72
     1
 11
603.63688272536729
 21
-0.0000000000000568
 31
0.0
  0
LINE
  8
SIZE
  6
CONTINUOUS
 62
    30
 10
286.26147146246967
 20
0.0
 30
0.0
 11
387.31652363150891
 21
-0.0000000000000568
 31
0.0
  0
LINE
  8
SIZE
  6
CONTINUOUS
 62
    30
 10
224.13476090625201
 20
-120.088516530896
 30
0.0
 11
387.31652363150891
 21
-120.088516530896
 31
0.0
  0
LINE
  8
SIZE
  6
CONTINUOUS
 62
    30
 10
367.31652363150891
 20
-12.0
 30
0.0
 11
367.31652363150891
 21
-108.088516530896
 31
0.0
  0
LINE
  8
SIZE
  6
CONTINUOUS
 62
    30
 10
367.31652363150891
 20
-120.088516530896
 30
0.0
 11
367.31652363150891
 21
-319.23137367375318
 31
0.0
  0
CIRCLE
  8
SIZE
  6
CONTINUOUS
 62
    30
 10
367.31652363150891
 20
-0.0000000000000568
 30
0.0
 40
6.0
  0
LINE
  8
SIZE
  6
CONTINUOUS
 62
    30
 10
367.31652363150891
 20
-0.0000000000000568
 30
0.0
 11
367.31652363150891
 21
-12.0
 31
0.0
  0
CIRCLE
  8
SIZE
  6
CONTINUOUS
 62
    30
 10
367.31652363150891
 20
-120.088516530896
 30
0.0
 40
6.0
  0
LINE
  8
SIZE
  6
CONTINUOUS
 62
    30
 10
367.31652363150891
 20
-120.088516530896
 30
0.0
 11
367.31652363150891
 21
-108.088516530896
 31
0.0
  0
TEXT
  8
SIZE
  6
CONTINUOUS
 62
    30
 10
342.31652363150903
 20
-294.23137367375313
 30
0.0
 40
64.0
  1
120
 50
90.0
 41
0.9
 72
     1
 11
342.31652363150903
 21
-225.65994510232451
 31
0.0
  0
LINE
  8
NOTE
  6
CONTINUOUS
 62
     4
 10
-100.168919
 20
143.03488292509971
 30
0.0
 11
-100.168919
 21
153.45185250644499
 31
0.0
  0
LINE
  8
DETAIL
  6
CONTINUOUS
 62
     5
 10
-102.5031417591974
 20
152.28884933227519
 30
0.0
 11
-100.168919
 21
152.28884933227519
 31
0.0
  0
LINE
  8
DETAIL
  6
CONTINUOUS
 62
     5
 10
-103.6702531387957
 20
148.62173795267651
 30
0.0
 11
-100.168919
 21
148.62173795267651
 31
0.0
  0
LINE
  8
DETAIL
  6
CONTINUOUS
 62
     5
 10
-103.6702531387957
 20
144.77027039999999
 30
0.0
 11
-103.6702531387957
 21
148.62173795267651
 31
0.0
  0
LINE
  8
DETAIL
  6
CONTINUOUS
 62
     5
 10
-102.5031417591974
 20
144.77027039999999
 30
0.0
 11
-102.5031417591974
 21
152.28884933227519
 31
0.0
  0
LINE
  8
DETAIL
  6
CONTINUOUS
 62
     5
 10
-102.50318128254401
 20
152.28880736977089
 30
0.0
 11
-103.6701679745677
 21
148.62182067774759
 31
0.0
  0
LINE
  8
DETAIL
  6
CONTINUOUS
 62
     5
 10
-97.8346962408026
 20
152.28884933227519
 30
0.0
 11
-100.168919
 21
152.28884933227519
 31
0.0
  0
LINE
  8
DETAIL
  6
CONTINUOUS
 62
     5
 10
-96.667584861203977
 20
148.62173795267651
 30
0.0
 11
-100.168919
 21
148.62173795267651
 31
0.0
  0
LINE
  8
DETAIL
  6
CONTINUOUS
 62
     5
 10
-96.667584861203977
 20
144.77027039999999
 30
0.0
 11
-96.667584861203977
 21
148.62173795267651
 31
0.0
  0
LINE
  8
DETAIL
  6
CONTINUOUS
 62
     5
 10
-97.8346962408026
 20
144.77027039999999
 30
0.0
 11
-97.8346962408026
 21
152.28884933227519
 31
0.0
  0
LINE
  8
DETAIL
  6
CONTINUOUS
 62
     5
 10
-97.834655252235962
 20
152.28863107257601
 30
0.0
 11
-96.667668560212178
 21
148.621644380552
 31
0.0
  0
LINE
  8
NOTE
  6
CONTINUOUS
 62
     4
 10
100.168919
 20
143.03488292509971
 30
0.0
 11
100.168919
 21
153.45185250644499
 31
0.0
  0
LINE
  8
DETAIL
  6
CONTINUOUS
 62
     5
 10
102.5031417591974
 20
152.28884933227519
 30
0.0
 11
100.168919
 21
152.28884933227519
 31
0.0
  0
LINE
  8
DETAIL
  6
CONTINUOUS
 62
     5
 10
103.6702531387957
 20
148.62173795267651
 30
0.0
 11
100.168919
 21
148.62173795267651
 31
0.0
  0
LINE
  8
DETAIL
  6
CONTINUOUS
 62
     5
 10
103.6702531387957
 20
144.77027039999999
 30
0.0
 11
103.6702531387957
 21
148.62173795267651
 31
0.0
  0
LINE
  8
DETAIL
  6
CONTINUOUS
 62
     5
 10
102.5031417591974
 20
144.77027039999999
 30
0.0
 11
102.5031417591974
 21
152.28884933227519
 31
0.0
  0
LINE
  8
DETAIL
  6
CONTINUOUS
 62
     5
 10
102.50318128254411
 20
152.28880736977089
 30
0.0
 11
103.6701679745677
 21
148.62182067774759
 31
0.0
  0
LINE
  8
DETAIL
  6
CONTINUOUS
 62
     5
 10
97.834696240802714
 20
152.28884933227519
 30
0.0
 11
100.168919
 21
152.28884933227519
 31
0.0
  0
LINE
  8
DETAIL
  6
CONTINUOUS
 62
     5
 10
96.667584861203977
 20
148.62173795267651
 30
0.0
 11
100.168919
 21
148.62173795267651
 31
0.0
  0
LINE
  8
DETAIL
  6
CONTINUOUS
 62
     5
 10
96.667584861203977
 20
144.77027039999999
 30
0.0
 11
96.667584861203977
 21
148.62173795267651
 31
0.0
  0
LINE
  8
DETAIL
  6
CONTINUOUS
 62
     5
 10
97.834696240802714
 20
144.77027039999999
 30
0.0
 11
97.834696240802714
 21
152.28884933227519
 31
0.0
  0
LINE
  8
DETAIL
  6
CONTINUOUS
 62
     5
 10
97.834655252235962
 20
152.28863107257601
 30
0.0
 11
96.667668560212178
 21
148.621644380552
 31
0.0
  0
LINE
  8
OUTLINE
  6
CONTINUOUS
 62
     3
 10
33.999999794958512
 20
-180.01351367999999
 30
0.0
 11
-33.999999794958512
 21
-180.01351367999999
 31
0.0
  0
LINE
  8
OUTLINE
  6
CONTINUOUS
 62
     3
 10
33.999999794958512
 20
-180.01351367999999
 30
0.0
 11
33.999999794958512
 21
-173.00000016000001
 31
0.0
  0
LINE
  8
OUTLINE
  6
CONTINUOUS
 62
     3
 10
-33.999999794958512
 20
-180.01351367999999
 30
0.0
 11
-33.999999794958512
 21
-173.00000016000001
 31
0.0
  0
TEXT
  8
ETC
  6
CONTINUOUS
 62
    61
 10
675.6510247109145
 20
528.72962322260923
 30
0.0
 40
64.0
  1
EX-25EX8_3
 41
0.9
  0
TEXT
  8
ETC
  6
CONTINUOUS
 62
    61
 10
671.46503071091411
 20
410.77431320777811
 30
0.0
 40
64.0
  1
換気扇
 41
0.9
  0
TEXT
  8
ETC
  6
CONTINUOUS
 62
    61
 10
722.16642895947007
 20
302.62554032155282
 30
0.0
 40
40.0
  1
EX-25EX8
 50
0.0
 41
0.9
 51
0.0
  7
STANDARD
 71
     0
 11
0.0
 21
0.0
 31
0.0
210
0.0
220
0.0
230
1.0
  0
TEXT
  8
ETC
  6
CONTINUOUS
 62
    61
 10
722.16642895947007
 20
236.62554032155282
 30
0.0
 40
40.0
  1
EX-25LX8
 50
0.0
 41
0.9
 51
0.0
  7
STANDARD
 71
     0
 11
0.0
 21
0.0
 31
0.0
210
0.0
220
0.0
230
1.0
  0
ENDSEC
  0
EOF
