  0
SECTION
  2
HEADER
  9
$ACADVER
  1
AC1009
  9
$DWGCODEPAGE
  3
dos932
  9
$INSBASE
 10
0.0
 20
0.0
 30
0.0
  9
$EXTMIN
 10
-642.164595
 20
-389.648426
 30
-0.003052
  9
$EXTMAX
 10
905.012524
 20
514.297493
 30
50.003052
  9
$LIMMIN
 10
-2970.0
 20
-2100.0
  9
$LIMMAX
 10
2970.0
 20
2100.0
  9
$ORTHOMODE
 70
     1
  9
$REGENMODE
 70
     1
  9
$FILLMODE
 70
     1
  9
$QTEXTMODE
 70
     0
  9
$MIRRTEXT
 70
     0
  9
$DRAGMODE
 70
     2
  9
$LTSCALE
 40
20.0
  9
$OSMODE
 70
    33
  9
$ATTMODE
 70
     1
  9
$TEXTSIZE
 40
64.0
  9
$TRACEWID
 40
0.05
  9
$TEXTSTYLE
  7
STANDARD
  9
$CLAYER
  8
SIZE
  9
$CELTYPE
  6
CONTINUOUS
  9
$CECOLOR
 62
    30
  9
$DIMSCALE
 40
1.0
  9
$DIMASZ
 40
12.0
  9
$DIMEXO
 40
20.0
  9
$DIMDLI
 40
200.0
  9
$DIMRND
 40
0.0
  9
$DIMDLE
 40
0.0
  9
$DIMEXE
 40
20.0
  9
$DIMTP
 40
0.0
  9
$DIMTM
 40
0.0
  9
$DIMTXT
 40
64.0
  9
$DIMCEN
 40
0.09
  9
$DIMTSZ
 40
0.0
  9
$DIMTOL
 70
     0
  9
$DIMLIM
 70
     0
  9
$DIMTIH
 70
     0
  9
$DIMTOH
 70
     0
  9
$DIMSE1
 70
     0
  9
$DIMSE2
 70
     0
  9
$DIMTAD
 70
     1
  9
$DIMZIN
 70
     8
  9
$DIMBLK
  1
DOT1
  9
$DIMASO
 70
     1
  9
$DIMSHO
 70
     0
  9
$DIMPOST
  1

  9
$DIMAPOST
  1

  9
$DIMALT
 70
     0
  9
$DIMALTD
 70
     2
  9
$DIMALTF
 40
25.4
  9
$DIMLFAC
 40
1.0
  9
$DIMTOFL
 70
     1
  9
$DIMTVP
 40
0.0
  9
$DIMTIX
 70
     1
  9
$DIMSOXD
 70
     0
  9
$DIMSAH
 70
     1
  9
$DIMBLK1
  1
_ORIGIN
  9
$DIMBLK2
  1
_ORIGIN
  9
$DIMSTYLE
  2
STANDARD
  9
$DIMCLRD
 70
     7
  9
$DIMCLRE
 70
     7
  9
$DIMCLRT
 70
     7
  9
$DIMTFAC
 40
1.0
  9
$DIMGAP
 40
25.0
  9
$LUNITS
 70
     2
  9
$LUPREC
 70
     4
  9
$SKETCHINC
 40
0.1
  9
$FILLETRAD
 40
5.0
  9
$AUNITS
 70
     1
  9
$AUPREC
 70
     3
  9
$MENU
  1
ACAD
  9
$ELEVATION
 40
0.0
  9
$PELEVATION
 40
0.0
  9
$THICKNESS
 40
50.0
  9
$LIMCHECK
 70
     0
  9
$BLIPMODE
 70
     0
  9
$CHAMFERA
 40
0.0
  9
$CHAMFERB
 40
0.0
  9
$SKPOLY
 70
     0
  9
$TDCREATE
 40
2451453.493850809
  9
$TDUPDATE
 40
2453482.423268622
  9
$TDINDWG
 40
0.7921354051
  9
$TDUSRTIMER
 40
0.7921354051
  9
$USRTIMER
 70
     1
  9
$ANGBASE
 50
0.0
  9
$ANGDIR
 70
     0
  9
$PDMODE
 70
     3
  9
$PDSIZE
 40
-2.0
  9
$PLINEWID
 40
0.0
  9
$COORDS
 70
     2
  9
$SPLFRAME
 70
     0
  9
$SPLINETYPE
 70
     6
  9
$SPLINESEGS
 70
     8
  9
$ATTDIA
 70
     0
  9
$ATTREQ
 70
     1
  9
$HANDLING
 70
     0
  9
$HANDSEED
  5
4BF7
  9
$SURFTAB1
 70
     6
  9
$SURFTAB2
 70
     6
  9
$SURFTYPE
 70
     6
  9
$SURFU
 70
     6
  9
$SURFV
 70
     6
  9
$UCSNAME
  2

  9
$UCSORG
 10
0.0
 20
0.0
 30
0.0
  9
$UCSXDIR
 10
1.0
 20
0.0
 30
0.0
  9
$UCSYDIR
 10
0.0
 20
1.0
 30
0.0
  9
$PUCSNAME
  2

  9
$PUCSORG
 10
0.0
 20
0.0
 30
0.0
  9
$PUCSXDIR
 10
1.0
 20
0.0
 30
0.0
  9
$PUCSYDIR
 10
0.0
 20
1.0
 30
0.0
  9
$USERI1
 70
     0
  9
$USERI2
 70
     0
  9
$USERI3
 70
     0
  9
$USERI4
 70
     0
  9
$USERI5
 70
     0
  9
$USERR1
 40
20.0
  9
$USERR2
 40
0.0
  9
$USERR3
 40
0.0
  9
$USERR4
 40
0.0
  9
$USERR5
 40
0.0
  9
$WORLDVIEW
 70
     1
  9
$SHADEDGE
 70
     3
  9
$SHADEDIF
 70
    70
  9
$TILEMODE
 70
     1
  9
$MAXACTVP
 70
    48
  9
$PINSBASE
 10
0.0
 20
0.0
 30
0.0
  9
$PLIMCHECK
 70
     0
  9
$PEXTMIN
 10
-100000000000000000000.0
 20
-100000000000000000000.0
 30
-100000000000000000000.0
  9
$PEXTMAX
 10
100000000000000000000.0
 20
100000000000000000000.0
 30
100000000000000000000.0
  9
$PLIMMIN
 10
0.0
 20
0.0
  9
$PLIMMAX
 10
12.0
 20
9.0
  9
$UNITMODE
 70
     0
  9
$VISRETAIN
 70
     0
  9
$PLINEGEN
 70
     0
  9
$PSLTSCALE
 70
     0
  9
$TREEDEPTH
 70
  3020
  0
ENDSEC
  0
SECTION
  2
TABLES
  0
TABLE
  2
LTYPE
 70
     2
  0
LTYPE
  2
CONTINUOUS
 70
     0
  3
実線
 72
    65
 73
     0
 40
0.0
  0
LTYPE
  2
DASHDOT
 70
     0
  3
____ _ ____ _ ____ _ ____ _ ____ _ ____ _ ____
 72
    65
 73
     4
 40
5.5
 49
4.0
 49
-0.6
 49
0.3
 49
-0.6
  0
ENDTAB
  0
TABLE
  2
LAYER
 70
    12
  0
LAYER
  2
0
 70
     0
 62
     7
  6
CONTINUOUS
  0
LAYER
  2
BASIS
 70
     0
 62
     6
  6
DASHDOT
  0
LAYER
  2
OUTLINE
 70
     0
 62
     3
  6
CONTINUOUS
  0
LAYER
  2
DETAIL
 70
     0
 62
     5
  6
CONTINUOUS
  0
LAYER
  2
SIZE
 70
     0
 62
    30
  6
CONTINUOUS
  0
LAYER
  2
ARRANGE
 70
     0
 62
     1
  6
CONTINUOUS
  0
LAYER
  2
DEFPOINTS
 70
     0
 62
     7
  6
CONTINUOUS
  0
LAYER
  2
ETC
 70
     0
 62
    61
  6
CONTINUOUS
  0
LAYER
  2
FIX
 70
     0
 62
    11
  6
CONTINUOUS
  0
LAYER
  2
NOTE
 70
     0
 62
     4
  6
CONTINUOUS
  0
LAYER
  2
SERVICESPACE
 70
    64
 62
     2
  6
DASHDOT
  0
LAYER
  2
SYMBOLLINE
 70
    64
 62
    15
  6
CONTINUOUS
  0
ENDTAB
  0
TABLE
  2
STYLE
 70
     1
  0
STYLE
  2
STANDARD
 70
     0
 40
64.0
 41
0.9
 50
0.0
 71
     0
 42
64.0
  3
SIMPLEX.shx
  4
BIGFONT.shx
  0
ENDTAB
  0
TABLE
  2
APPID
 70
     2
  0
APPID
  2
ACAD
 70
     0
  0
APPID
  2
AUTOCAD_POSTSCRIPT_FIGURE
 70
     0
  0
ENDTAB
  0
TABLE
  2
DIMSTYLE
 70
     1
  0
DIMSTYLE
  2
STANDARD
 70
     0
  3

  4

  5

  6

  7

 40
1.0
 41
0.18
 42
0.0625
 43
0.38
 44
0.18
 45
0.0
 46
0.0
 47
0.0
 48
0.0
140
0.18
141
0.09
142
0.0
143
25.4
144
1.0
145
0.0
146
1.0
147
0.09
 71
     0
 72
     0
 73
     1
 74
     1
 75
     0
 76
     0
 77
     0
 78
     0
170
     0
171
     2
172
     0
173
     0
174
     0
175
     0
176
     7
177
     7
178
     7
  0
ENDTAB
  0
TABLE
  2
VIEW
 70
     1
  0
VIEW
  2
ALL
 70
     0
 40
4282.619808
 10
0.0
 20
41.309904
 41
5940.0
 11
0.0
 21
0.0
 31
1.0
 12
0.0
 22
0.0
 32
0.0
 42
50.0
 43
0.0
 44
0.0
 50
0.0
 71
     0
  0
ENDTAB
  0
TABLE
  2
UCS
 70
     0
  0
ENDTAB
  0
TABLE
  2
VPORT
 70
     1
  0
VPORT
  2
*ACTIVE
 70
     0
 10
0.0
 20
0.0
 11
1.0
 21
1.0
 12
131.423964
 22
62.324534
 13
0.0
 23
0.0
 14
1.0
 24
1.0
 15
0.0
 25
0.0
 16
0.0
 26
0.0
 36
1.0
 17
0.0
 27
0.0
 37
0.0
 40
989.842205
 41
1.571046
 42
50.0
 43
0.0
 44
0.0
 50
0.0
 51
0.0
 71
     0
 72
   100
 73
     1
 74
     0
 75
     0
 76
     0
 77
     0
 78
     0
  0
ENDTAB
  0
ENDSEC
  0
SECTION
  2
BLOCKS
  0
BLOCK
  8
0
  2
DOT1
 70
     0
 10
0.0
 20
0.0
 30
0.0
  3
DOT1
  1

  0
CIRCLE
  8
SIZE
  6
CONTINUOUS
 62
     7
 10
0.0
 20
0.0
 30
0.0
 40
3.0
  0
ENDBLK
  8
0
  0
BLOCK
  8
0
  2
_ORIGIN
 70
     0
 10
0.0
 20
0.0
 30
0.0
  3
_ORIGIN
  1

  0
CIRCLE
  8
0
  6
CONTINUOUS
 62
     7
 10
0.0
 20
0.0
 30
0.0
 40
0.5
  0
LINE
  8
0
  6
CONTINUOUS
 62
     7
 10
0.0
 20
0.0
 30
0.0
 11
-1.0
 21
0.0
 31
0.0
  0
ENDBLK
  8
0
  0
ENDSEC
  0
SECTION
  2
ENTITIES
  0
TEXT
  8
ETC
  6
CONTINUOUS
 62
    61
 10
443.47684
 20
467.292007
 30
0.0
 40
40.0
  1
EX-25LMP5-F_3
 41
0.9
  0
TEXT
  8
ETC
  6
CONTINUOUS
 62
    61
 10
435.403362
 20
404.0806
 30
0.0
 40
40.0
  1
換気扇
 41
0.9
  0
LINE
  8
DETAIL
  6
CONTINUOUS
 62
     5
 10
-135.0
 20
175.0
 30
0.0
 11
35.203379
 21
175.0
 31
0.0
  0
LINE
  8
DETAIL
  6
CONTINUOUS
 62
     5
 10
-152.0
 20
175.0
 30
0.0
 11
-145.0
 21
175.0
 31
0.0
  0
ARC
  8
DETAIL
  6
CONTINUOUS
 62
     5
 10
-152.0
 20
152.0
 30
0.0
 40
23.0
 50
90.0
 51
115.841888
  0
LINE
  8
DETAIL
  6
CONTINUOUS
 62
     5
 10
-175.0
 20
-156.179437
 30
0.0
 11
-175.0
 21
152.0
 31
0.0
  0
LINE
  8
DETAIL
  6
CONTINUOUS
 62
     5
 10
-165.0
 20
-191.0
 30
0.0
 11
-37.548071
 21
-191.0
 31
0.0
  0
LINE
  8
DETAIL
  6
CONTINUOUS
 62
     5
 10
175.000008
 20
-181.0
 30
0.0
 11
175.000008
 21
-156.0
 31
0.0
  0
ARC
  8
DETAIL
  6
CONTINUOUS
 62
     5
 10
165.000008
 20
-181.0
 30
0.0
 40
10.0
 50
270.0
 51
0.0
  0
ARC
  8
DETAIL
  6
CONTINUOUS
 62
     5
 10
-165.0
 20
-181.0
 30
0.0
 40
10.0
 50
180.0
 51
270.0
  0
LINE
  8
DETAIL
  6
CONTINUOUS
 62
     5
 10
-175.0
 20
-181.0
 30
0.0
 11
-175.0
 21
-156.0
 31
0.0
  0
LINE
  8
DETAIL
  6
CONTINUOUS
 62
     5
 10
-23.27761
 20
-186.0
 30
0.0
 11
23.277618
 21
-186.0
 31
0.0
  0
LINE
  8
DETAIL
  6
CONTINUOUS
 62
     5
 10
28.063063
 20
-187.219367
 30
0.0
 11
32.762633
 21
-189.780633
 31
0.0
  0
LINE
  8
DETAIL
  6
CONTINUOUS
 62
     5
 10
-28.063055
 20
-187.219367
 30
0.0
 11
-32.762626
 21
-189.780633
 31
0.0
  0
LINE
  8
DETAIL
  6
CONTINUOUS
 62
     5
 10
62.548082
 20
-191.0
 30
0.0
 11
165.000008
 21
-191.0
 31
0.0
  0
ARC
  8
DETAIL
  6
CONTINUOUS
 62
     5
 10
-37.548071
 20
-181.0
 30
0.0
 40
10.0
 50
270.0
 51
298.590384
  0
ARC
  8
DETAIL
  6
CONTINUOUS
 62
     5
 10
37.548078
 20
-181.0
 30
0.0
 40
10.0
 50
241.409616
 51
270.0
  0
ARC
  8
DETAIL
  6
CONTINUOUS
 62
     5
 10
23.277618
 20
-196.0
 30
0.0
 40
10.0
 50
61.409616
 51
90.0
  0
ARC
  8
DETAIL
  6
CONTINUOUS
 62
     5
 10
-23.27761
 20
-196.0
 30
0.0
 40
10.0
 50
90.0
 51
118.590384
  0
ARC
  8
DETAIL
  6
CONTINUOUS
 62
     5
 10
-165.0
 20
162.700008
 30
0.0
 40
10.0
 50
90.0
 51
180.0
  0
LINE
  8
DETAIL
  6
CONTINUOUS
 62
     5
 10
-175.0
 20
162.700008
 30
0.0
 11
-175.0
 21
147.700008
 31
0.0
  0
LINE
  8
DETAIL
  6
CONTINUOUS
 62
     5
 10
-165.0
 20
172.700008
 30
0.0
 11
36.440219
 21
172.700008
 31
0.0
  0
LINE
  8
BASIS
  6
DASHDOT
 62
     6
 10
0.0
 20
206.925162
 30
0.0
 11
0.0
 21
-247.690381
 31
0.0
  0
LINE
  8
BASIS
  6
DASHDOT
 62
     6
 10
229.129683
 20
0.0
 30
0.0
 11
-223.264658
 21
0.0
 31
0.0
  0
LINE
  8
DETAIL
  6
CONTINUOUS
 62
     5
 10
6.0
 20
-186.0
 30
0.0
 11
6.0
 21
-187.885111
 31
0.0
  0
LINE
  8
DETAIL
  6
CONTINUOUS
 62
     5
 10
-6.0
 20
-186.0
 30
0.0
 11
-6.0
 21
-187.885111
 31
0.0
  0
LINE
  8
DETAIL
  6
CONTINUOUS
 62
     5
 10
-6.0
 20
-188.2
 30
0.0
 11
6.0
 21
-188.2
 31
0.0
  0
ARC
  8
DETAIL
  6
CONTINUOUS
 62
     5
 10
0.0
 20
-176.042857
 30
0.0
 40
13.557143
 50
245.088025
 51
294.911975
  0
ARC
  8
DETAIL
  6
CONTINUOUS
 62
     5
 10
5.5
 20
-187.885111
 30
0.0
 40
0.5
 50
294.911975
 51
0.0
  0
ARC
  8
DETAIL
  6
CONTINUOUS
 62
     5
 10
-5.5
 20
-187.885111
 30
0.0
 40
0.5
 50
180.0
 51
245.088025
  0
LINE
  8
NOTE
  6
CONTINUOUS
 62
     4
 10
175.0
 20
-142.0
 30
0.0
 11
175.0
 21
-102.0
 31
0.0
  0
LINE
  8
NOTE
  6
CONTINUOUS
 62
     4
 10
195.0
 20
-122.0
 30
0.0
 11
155.0
 21
-122.0
 31
0.0
  0
LINE
  8
DETAIL
  6
CONTINUOUS
 62
     5
 10
-135.0
 20
175.0
 30
0.0
 11
-145.0
 21
175.0
 31
0.0
  0
LINE
  8
DETAIL
  6
CONTINUOUS
 62
     5
 10
135.0
 20
175.0
 30
0.0
 11
145.0
 21
175.0
 31
0.0
  0
LINE
  8
DETAIL
  6
CONTINUOUS
 62
     5
 10
175.0
 20
162.700008
 30
0.0
 11
175.0
 21
147.700008
 31
0.0
  0
ARC
  8
DETAIL
  6
CONTINUOUS
 62
     5
 10
165.0
 20
162.700008
 30
0.0
 40
10.0
 50
0.0
 51
90.0
  0
ARC
  8
DETAIL
  6
CONTINUOUS
 62
     5
 10
152.0
 20
152.0
 30
0.0
 40
23.0
 50
64.158112
 51
90.0
  0
LINE
  8
DETAIL
  6
CONTINUOUS
 62
     5
 10
152.0
 20
175.0
 30
0.0
 11
145.0
 21
175.0
 31
0.0
  0
LINE
  8
DETAIL
  6
CONTINUOUS
 62
     5
 10
175.0
 20
-156.179437
 30
0.0
 11
175.0
 21
152.0
 31
0.0
  0
LINE
  8
DETAIL
  6
CONTINUOUS
 62
     5
 10
165.0
 20
172.700008
 30
0.0
 11
-36.440219
 21
172.700008
 31
0.0
  0
LINE
  8
DETAIL
  6
CONTINUOUS
 62
     5
 10
135.0
 20
175.0
 30
0.0
 11
-35.203379
 21
175.0
 31
0.0
  0
CIRCLE
  8
FIX
  6
CONTINUOUS
 62
     9
 10
-85.0
 20
157.526095
 30
0.0
 40
2.5
  0
LINE
  8
NOTE
  6
CONTINUOUS
 62
     4
 10
-85.0
 20
137.5
 30
0.0
 11
-85.0
 21
177.5
 31
0.0
  0
LINE
  8
NOTE
  6
CONTINUOUS
 62
     4
 10
-105.0
 20
157.5
 30
0.0
 11
-65.0
 21
157.5
 31
0.0
  0
CIRCLE
  8
FIX
  6
CONTINUOUS
 62
     9
 10
85.0
 20
157.5
 30
0.0
 40
2.5
  0
LINE
  8
NOTE
  6
CONTINUOUS
 62
     4
 10
85.0
 20
137.5
 30
0.0
 11
85.0
 21
177.5
 31
0.0
  0
LINE
  8
NOTE
  6
CONTINUOUS
 62
     4
 10
65.0
 20
157.5
 30
0.0
 11
105.0
 21
157.5
 31
0.0
  0
CIRCLE
  8
FIX
  6
CONTINUOUS
 62
     9
 10
85.0
 20
-157.5
 30
0.0
 40
2.5
  0
LINE
  8
NOTE
  6
CONTINUOUS
 62
     4
 10
85.0
 20
-137.5
 30
0.0
 11
85.0
 21
-177.5
 31
0.0
  0
LINE
  8
NOTE
  6
CONTINUOUS
 62
     4
 10
65.0
 20
-157.5
 30
0.0
 11
105.0
 21
-157.5
 31
0.0
  0
CIRCLE
  8
FIX
  6
CONTINUOUS
 62
     9
 10
-85.0
 20
-157.5
 30
0.0
 40
2.5
  0
LINE
  8
NOTE
  6
CONTINUOUS
 62
     4
 10
-85.0
 20
-137.5
 30
0.0
 11
-85.0
 21
-177.5
 31
0.0
  0
LINE
  8
NOTE
  6
CONTINUOUS
 62
     4
 10
-105.0
 20
-157.5
 30
0.0
 11
-65.0
 21
-157.5
 31
0.0
  0
POINT
  8
ARRANGE
  6
CONTINUOUS
 62
     1
 10
0.0
 20
0.0
 30
0.0
  0
CIRCLE
  8
ARRANGE
  6
CONTINUOUS
 62
     1
 10
0.0
 20
0.0
 30
0.0
 40
40.0
  0
LINE
  8
DETAIL
  6
CONTINUOUS
 62
     5
 10
37.548078
 20
-191.0
 30
0.0
 11
62.548082
 21
-191.0
 31
0.0
  0
LINE
  8
SIZE
  6
CONTINUOUS
 62
    30
 10
175.0
 20
182.700008
 30
0.0
 11
175.0
 21
445.264457
 31
0.0
  0
LINE
  8
SIZE
  6
CONTINUOUS
 62
    30
 10
-175.0
 20
182.700008
 30
0.0
 11
-175.0
 21
445.264457
 31
0.0
  0
LINE
  8
SIZE
  6
CONTINUOUS
 62
    30
 10
163.0
 20
425.264457
 30
0.0
 11
-163.0
 21
425.264457
 31
0.0
  0
CIRCLE
  8
SIZE
  6
CONTINUOUS
 62
    30
 10
175.0
 20
425.264457
 30
0.0
 40
6.0
  0
LINE
  8
SIZE
  6
CONTINUOUS
 62
    30
 10
175.0
 20
425.264457
 30
0.0
 11
163.0
 21
425.264457
 31
0.0
  0
CIRCLE
  8
SIZE
  6
CONTINUOUS
 62
    30
 10
-175.0
 20
425.264457
 30
0.0
 40
6.0
  0
LINE
  8
SIZE
  6
CONTINUOUS
 62
    30
 10
-175.0
 20
425.264457
 30
0.0
 11
-163.0
 21
425.264457
 31
0.0
  0
TEXT
  8
SIZE
  6
CONTINUOUS
 62
    30
 10
-80.928
 20
450.264457
 30
0.0
 40
64.0
  1
350
 50
0.0
 41
0.9
 51
0.0
  7
STANDARD
 71
     0
 72
     1
 11
0.0
 21
450.264457
 31
0.0
210
0.0
220
0.0
230
1.0
  0
POINT
  8
DEFPOINTS
  6
CONTINUOUS
 62
    30
 10
175.0
 20
162.700008
 30
0.0
  0
POINT
  8
DEFPOINTS
  6
CONTINUOUS
 62
    30
 10
-175.0
 20
162.700008
 30
0.0
  0
POINT
  8
DEFPOINTS
  6
CONTINUOUS
 62
    30
 10
-175.0
 20
425.264457
 30
0.0
  0
LINE
  8
SIZE
  6
CONTINUOUS
 62
    30
 10
85.0
 20
197.526095
 30
0.0
 11
85.0
 21
319.241224
 31
0.0
  0
LINE
  8
SIZE
  6
CONTINUOUS
 62
    30
 10
-85.0
 20
197.526095
 30
0.0
 11
-85.0
 21
319.241224
 31
0.0
  0
LINE
  8
SIZE
  6
CONTINUOUS
 62
    30
 10
97.0
 20
299.241224
 30
0.0
 11
109.0
 21
299.241224
 31
0.0
  0
LINE
  8
SIZE
  6
CONTINUOUS
 62
    30
 10
-97.0
 20
299.241224
 30
0.0
 11
-109.0
 21
299.241224
 31
0.0
  0
LINE
  8
SIZE
  6
CONTINUOUS
 62
    30
 10
85.0
 20
299.241224
 30
0.0
 11
-85.0
 21
299.241224
 31
0.0
  0
CIRCLE
  8
SIZE
  6
CONTINUOUS
 62
    30
 10
85.0
 20
299.241224
 30
0.0
 40
6.0
  0
LINE
  8
SIZE
  6
CONTINUOUS
 62
    30
 10
85.0
 20
299.241224
 30
0.0
 11
97.0
 21
299.241224
 31
0.0
  0
CIRCLE
  8
SIZE
  6
CONTINUOUS
 62
    30
 10
-85.0
 20
299.241224
 30
0.0
 40
6.0
  0
LINE
  8
SIZE
  6
CONTINUOUS
 62
    30
 10
-85.0
 20
299.241224
 30
0.0
 11
-97.0
 21
299.241224
 31
0.0
  0
TEXT
  8
SIZE
  6
CONTINUOUS
 62
    30
 10
-75.168
 20
324.241224
 30
0.0
 40
64.0
  1
170
 50
0.0
 41
0.9
 51
0.0
  7
STANDARD
 71
     0
 72
     1
 11
0.0
 21
324.241224
 31
0.0
210
0.0
220
0.0
230
1.0
  0
POINT
  8
DEFPOINTS
  6
CONTINUOUS
 62
    30
 10
85.0
 20
177.526095
 30
0.0
  0
POINT
  8
DEFPOINTS
  6
CONTINUOUS
 62
    30
 10
-85.0
 20
177.526095
 30
0.0
  0
POINT
  8
DEFPOINTS
  6
CONTINUOUS
 62
    30
 10
-85.0
 20
299.241224
 30
0.0
  0
LINE
  8
OUTLINE
  6
CONTINUOUS
 62
     3
 10
37.548078
 20
-191.0
 30
0.0
 11
62.548082
 21
-191.0
 31
0.0
  0
LINE
  8
OUTLINE
  6
CONTINUOUS
 62
     3
 10
135.0
 20
175.0
 30
0.0
 11
-35.203379
 21
175.0
 31
0.0
  0
LINE
  8
OUTLINE
  6
CONTINUOUS
 62
     3
 10
165.0
 20
172.700008
 30
0.0
 11
162.025451
 21
172.700008
 31
0.0
  0
LINE
  8
OUTLINE
  6
CONTINUOUS
 62
     3
 10
175.0
 20
-156.179437
 30
0.0
 11
175.0
 21
152.0
 31
0.0
  0
LINE
  8
OUTLINE
  6
CONTINUOUS
 62
     3
 10
152.0
 20
175.0
 30
0.0
 11
145.0
 21
175.0
 31
0.0
  0
ARC
  8
OUTLINE
  6
CONTINUOUS
 62
     3
 10
152.0
 20
152.0
 30
0.0
 40
23.0
 50
64.158112
 51
90.0
  0
ARC
  8
OUTLINE
  6
CONTINUOUS
 62
     3
 10
165.0
 20
162.700008
 30
0.0
 40
10.0
 50
0.0
 51
90.0
  0
LINE
  8
OUTLINE
  6
CONTINUOUS
 62
     3
 10
175.0
 20
162.700008
 30
0.0
 11
175.0
 21
147.700008
 31
0.0
  0
LINE
  8
OUTLINE
  6
CONTINUOUS
 62
     3
 10
135.0
 20
175.0
 30
0.0
 11
145.0
 21
175.0
 31
0.0
  0
LINE
  8
OUTLINE
  6
CONTINUOUS
 62
     3
 10
-135.0
 20
175.0
 30
0.0
 11
-145.0
 21
175.0
 31
0.0
  0
LINE
  8
OUTLINE
  6
CONTINUOUS
 62
     3
 10
-165.0
 20
172.700008
 30
0.0
 11
-162.025451
 21
172.700008
 31
0.0
  0
LINE
  8
OUTLINE
  6
CONTINUOUS
 62
     3
 10
-175.0
 20
162.700008
 30
0.0
 11
-175.0
 21
147.700008
 31
0.0
  0
ARC
  8
OUTLINE
  6
CONTINUOUS
 62
     3
 10
-165.0
 20
162.700008
 30
0.0
 40
10.0
 50
90.0
 51
180.0
  0
ARC
  8
OUTLINE
  6
CONTINUOUS
 62
     3
 10
-23.27761
 20
-196.0
 30
0.0
 40
10.0
 50
90.0
 51
118.590384
  0
ARC
  8
OUTLINE
  6
CONTINUOUS
 62
     3
 10
23.277618
 20
-196.0
 30
0.0
 40
10.0
 50
61.409616
 51
90.0
  0
ARC
  8
OUTLINE
  6
CONTINUOUS
 62
     3
 10
37.548078
 20
-181.0
 30
0.0
 40
10.0
 50
241.409616
 51
270.0
  0
ARC
  8
OUTLINE
  6
CONTINUOUS
 62
     3
 10
-37.548071
 20
-181.0
 30
0.0
 40
10.0
 50
270.0
 51
298.590384
  0
LINE
  8
OUTLINE
  6
CONTINUOUS
 62
     3
 10
62.548082
 20
-191.0
 30
0.0
 11
165.000008
 21
-191.0
 31
0.0
  0
LINE
  8
OUTLINE
  6
CONTINUOUS
 62
     3
 10
-28.063055
 20
-187.219367
 30
0.0
 11
-32.762626
 21
-189.780633
 31
0.0
  0
LINE
  8
OUTLINE
  6
CONTINUOUS
 62
     3
 10
28.063063
 20
-187.219367
 30
0.0
 11
32.762633
 21
-189.780633
 31
0.0
  0
LINE
  8
OUTLINE
  6
CONTINUOUS
 62
     3
 10
-23.27761
 20
-186.0
 30
0.0
 11
23.277618
 21
-186.0
 31
0.0
  0
LINE
  8
OUTLINE
  6
CONTINUOUS
 62
     3
 10
-175.0
 20
-181.0
 30
0.0
 11
-175.0
 21
-156.0
 31
0.0
  0
ARC
  8
OUTLINE
  6
CONTINUOUS
 62
     3
 10
-165.0
 20
-181.0
 30
0.0
 40
10.0
 50
180.0
 51
270.0
  0
ARC
  8
OUTLINE
  6
CONTINUOUS
 62
     3
 10
165.000008
 20
-181.0
 30
0.0
 40
10.0
 50
270.0
 51
0.0
  0
LINE
  8
OUTLINE
  6
CONTINUOUS
 62
     3
 10
175.000008
 20
-181.0
 30
0.0
 11
175.000008
 21
-156.0
 31
0.0
  0
LINE
  8
OUTLINE
  6
CONTINUOUS
 62
     3
 10
-165.0
 20
-191.0
 30
0.0
 11
-37.548071
 21
-191.0
 31
0.0
  0
LINE
  8
OUTLINE
  6
CONTINUOUS
 62
     3
 10
-175.0
 20
-156.179437
 30
0.0
 11
-175.0
 21
152.0
 31
0.0
  0
ARC
  8
OUTLINE
  6
CONTINUOUS
 62
     3
 10
-152.0
 20
152.0
 30
0.0
 40
23.0
 50
90.0
 51
115.841888
  0
LINE
  8
OUTLINE
  6
CONTINUOUS
 62
     3
 10
-152.0
 20
175.0
 30
0.0
 11
-145.0
 21
175.0
 31
0.0
  0
LINE
  8
OUTLINE
  6
CONTINUOUS
 62
     3
 10
-135.0
 20
175.0
 30
0.0
 11
35.203379
 21
175.0
 31
0.0
  0
CIRCLE
  8
DETAIL
  6
CONTINUOUS
 62
     5
 10
-85.0
 20
157.5
 30
0.0
 40
2.5
  0
CIRCLE
  8
DETAIL
  6
CONTINUOUS
 62
     5
 10
85.0
 20
157.5
 30
0.0
 40
2.5
  0
CIRCLE
  8
DETAIL
  6
CONTINUOUS
 62
     5
 10
-85.0
 20
-157.5
 30
0.0
 40
2.5
  0
CIRCLE
  8
DETAIL
  6
CONTINUOUS
 62
     5
 10
85.0
 20
-157.5
 30
0.0
 40
2.5
  0
LINE
  8
DETAIL
  6
CONTINUOUS
 62
     5
 10
-175.0
 20
-156.1794
 30
0.0
 11
175.0
 21
-156.1794
 31
0.0
  0
LINE
  8
SIZE
  6
CONTINUOUS
 62
    30
 10
165.0
 20
145.0
 30
0.0
 11
623.10914
 21
145.0
 31
0.0
  0
LINE
  8
SIZE
  6
CONTINUOUS
 62
    30
 10
165.0
 20
-145.0
 30
0.0
 11
623.10914
 21
-145.0
 31
0.0
  0
LINE
  8
SIZE
  6
CONTINUOUS
 62
    30
 10
603.10914
 20
133.0
 30
0.0
 11
603.10914
 21
-133.0
 31
0.0
  0
TEXT
  8
SIZE
  6
CONTINUOUS
 62
    30
 10
578.10914
 20
-115.488
 30
0.0
 40
64.0
  1
□290
 50
90.0
 41
0.9
 51
0.0
  7
STANDARD
 71
     0
 72
     1
 11
578.10914
 21
0.0
 31
0.0
210
0.0
220
0.0
230
1.0
  0
CIRCLE
  8
SIZE
  6
CONTINUOUS
 62
    30
 10
603.10914
 20
145.0
 30
0.0
 40
6.0
  0
LINE
  8
SIZE
  6
CONTINUOUS
 62
    30
 10
603.10914
 20
145.0
 30
0.0
 11
603.10914
 21
133.0
 31
0.0
  0
CIRCLE
  8
SIZE
  6
CONTINUOUS
 62
    30
 10
603.10914
 20
-145.0
 30
0.0
 40
6.0
  0
LINE
  8
SIZE
  6
CONTINUOUS
 62
    30
 10
603.10914
 20
-145.0
 30
0.0
 11
603.10914
 21
-133.0
 31
0.0
  0
POINT
  8
DEFPOINTS
  6
CONTINUOUS
 62
    30
 10
145.0
 20
145.0
 30
0.0
  0
POINT
  8
DEFPOINTS
  6
CONTINUOUS
 62
    30
 10
145.0
 20
-145.0
 30
0.0
  0
POINT
  8
DEFPOINTS
  6
CONTINUOUS
 62
    30
 10
603.10914
 20
-145.0
 30
0.0
  0
LINE
  8
SIZE
  6
CONTINUOUS
 62
    30
 10
215.0
 20
-122.0
 30
0.0
 11
512.611809
 21
-122.0
 31
0.0
  0
LINE
  8
SIZE
  6
CONTINUOUS
 62
    30
 10
249.129683
 20
0.0
 30
0.0
 11
512.611809
 21
0.0
 31
0.0
  0
LINE
  8
SIZE
  6
CONTINUOUS
 62
    30
 10
492.611809
 20
-110.0
 30
0.0
 11
492.611809
 21
-12.0
 31
0.0
  0
LINE
  8
SIZE
  6
CONTINUOUS
 62
    30
 10
492.611809
 20
-389.563913
 30
0.0
 11
492.611809
 21
-122.0
 31
0.0
  0
TEXT
  8
SIZE
  6
CONTINUOUS
 62
    30
 10
467.611809
 20
-370.584484
 30
0.0
 40
64.0
  1
122
 50
90.0
 41
0.9
 51
0.0
  7
STANDARD
 71
     0
 72
     1
 11
467.611809
 21
-295.992484
 31
0.0
210
0.0
220
0.0
230
1.0
  0
CIRCLE
  8
SIZE
  6
CONTINUOUS
 62
    30
 10
492.611809
 20
-122.0
 30
0.0
 40
6.0
  0
LINE
  8
SIZE
  6
CONTINUOUS
 62
    30
 10
492.611809
 20
-122.0
 30
0.0
 11
492.611809
 21
-110.0
 31
0.0
  0
CIRCLE
  8
SIZE
  6
CONTINUOUS
 62
    30
 10
492.611809
 20
0.0
 30
0.0
 40
6.0
  0
LINE
  8
SIZE
  6
CONTINUOUS
 62
    30
 10
492.611809
 20
0.0
 30
0.0
 11
492.611809
 21
-12.0
 31
0.0
  0
POINT
  8
DEFPOINTS
  6
CONTINUOUS
 62
    30
 10
195.0
 20
-122.0
 30
0.0
  0
POINT
  8
DEFPOINTS
  6
CONTINUOUS
 62
    30
 10
229.129683
 20
0.0
 30
0.0
  0
POINT
  8
DEFPOINTS
  6
CONTINUOUS
 62
    30
 10
492.611809
 20
0.0
 30
0.0
  0
LINE
  8
DETAIL
  6
CONTINUOUS
 62
     5
 10
145.0
 20
145.0
 30
0.0
 11
-145.0
 21
145.0
 31
0.0
  0
LINE
  8
DETAIL
  6
CONTINUOUS
 62
     5
 10
145.0
 20
125.0
 30
0.0
 11
-145.0
 21
125.0
 31
0.0
  0
LINE
  8
DETAIL
  6
CONTINUOUS
 62
     5
 10
145.0
 20
35.0
 30
0.0
 11
-145.0
 21
35.0
 31
0.0
  0
LINE
  8
DETAIL
  6
CONTINUOUS
 62
     5
 10
145.0
 20
-145.0
 30
0.0
 11
-145.0
 21
-145.0
 31
0.0
  0
LINE
  8
DETAIL
  6
CONTINUOUS
 62
     5
 10
145.0
 20
-55.0
 30
0.0
 11
-145.0
 21
-55.0
 31
0.0
  0
LINE
  8
DETAIL
  6
CONTINUOUS
 62
     5
 10
-145.0
 20
145.0
 30
0.0
 11
-145.0
 21
-145.0
 31
0.0
  0
LINE
  8
DETAIL
  6
CONTINUOUS
 62
     5
 10
145.0
 20
145.0
 30
0.0
 11
145.0
 21
-145.0
 31
0.0
  0
LINE
  8
SIZE
  6
CONTINUOUS
 62
    30
 10
-243.264658
 20
0.0
 30
0.0
 11
-334.137652
 21
0.0
 31
0.0
  0
LINE
  8
SIZE
  6
CONTINUOUS
 62
    30
 10
-185.0
 20
-191.0
 30
0.0
 11
-334.137652
 21
-191.0
 31
0.0
  0
LINE
  8
SIZE
  6
CONTINUOUS
 62
    30
 10
-314.137652
 20
-12.0
 30
0.0
 11
-314.137652
 21
-179.0
 31
0.0
  0
LINE
  8
SIZE
  6
CONTINUOUS
 62
    30
 10
-314.137652
 20
-388.558459
 30
0.0
 11
-314.137652
 21
-191.0
 31
0.0
  0
TEXT
  8
SIZE
  6
CONTINUOUS
 62
    30
 10
-339.137652
 20
-376.161888
 30
0.0
 40
64.0
  1
191
 50
90.0
 41
0.9
 51
0.0
  7
STANDARD
 71
     0
 72
     1
 11
-339.137652
 21
-307.329888
 31
0.0
210
0.0
220
0.0
230
1.0
  0
CIRCLE
  8
SIZE
  6
CONTINUOUS
 62
    30
 10
-314.137652
 20
0.0
 30
0.0
 40
6.0
  0
LINE
  8
SIZE
  6
CONTINUOUS
 62
    30
 10
-314.137652
 20
0.0
 30
0.0
 11
-314.137652
 21
-12.0
 31
0.0
  0
CIRCLE
  8
SIZE
  6
CONTINUOUS
 62
    30
 10
-314.137652
 20
-191.0
 30
0.0
 40
6.0
  0
LINE
  8
SIZE
  6
CONTINUOUS
 62
    30
 10
-314.137652
 20
-191.0
 30
0.0
 11
-314.137652
 21
-179.0
 31
0.0
  0
POINT
  8
DEFPOINTS
  6
CONTINUOUS
 62
    30
 10
-223.264658
 20
0.0
 30
0.0
  0
POINT
  8
DEFPOINTS
  6
CONTINUOUS
 62
    30
 10
-165.0
 20
-191.0
 30
0.0
  0
POINT
  8
DEFPOINTS
  6
CONTINUOUS
 62
    30
 10
-314.137652
 20
-191.0
 30
0.0
  0
LINE
  8
SIZE
  6
CONTINUOUS
 62
    30
 10
-243.264658
 20
0.0
 30
0.0
 11
-334.137652
 21
0.0
 31
0.0
  0
LINE
  8
SIZE
  6
CONTINUOUS
 62
    30
 10
-125.0
 20
157.5
 30
0.0
 11
-334.137652
 21
157.5
 31
0.0
  0
LINE
  8
SIZE
  6
CONTINUOUS
 62
    30
 10
-314.137652
 20
12.0
 30
0.0
 11
-314.137652
 21
145.5
 31
0.0
  0
LINE
  8
SIZE
  6
CONTINUOUS
 62
    30
 10
-314.137652
 20
477.281529
 30
0.0
 11
-314.137652
 21
157.5
 31
0.0
  0
TEXT
  8
SIZE
  6
CONTINUOUS
 62
    30
 10
-339.137652
 20
227.367243
 30
0.0
 40
64.0
  1
157.5
 50
90.0
 41
0.9
 51
0.0
  7
STANDARD
 71
     0
 72
     1
 11
-339.137652
 21
342.567243
 31
0.0
210
0.0
220
0.0
230
1.0
  0
CIRCLE
  8
SIZE
  6
CONTINUOUS
 62
    30
 10
-314.137652
 20
0.0
 30
0.0
 40
6.0
  0
LINE
  8
SIZE
  6
CONTINUOUS
 62
    30
 10
-314.137652
 20
0.0
 30
0.0
 11
-314.137652
 21
12.0
 31
0.0
  0
CIRCLE
  8
SIZE
  6
CONTINUOUS
 62
    30
 10
-314.137652
 20
157.5
 30
0.0
 40
6.0
  0
LINE
  8
SIZE
  6
CONTINUOUS
 62
    30
 10
-314.137652
 20
157.5
 30
0.0
 11
-314.137652
 21
145.5
 31
0.0
  0
POINT
  8
DEFPOINTS
  6
CONTINUOUS
 62
    30
 10
-223.264658
 20
0.0
 30
0.0
  0
POINT
  8
DEFPOINTS
  6
CONTINUOUS
 62
    30
 10
-105.0
 20
157.5
 30
0.0
  0
POINT
  8
DEFPOINTS
  6
CONTINUOUS
 62
    30
 10
-314.137652
 20
157.5
 30
0.0
  0
LINE
  8
SIZE
  6
CONTINUOUS
 62
    30
 10
-125.0
 20
157.5
 30
0.0
 11
-451.670467
 21
157.5
 31
0.0
  0
LINE
  8
SIZE
  6
CONTINUOUS
 62
    30
 10
-125.0
 20
-157.5
 30
0.0
 11
-451.670467
 21
-157.5
 31
0.0
  0
LINE
  8
SIZE
  6
CONTINUOUS
 62
    30
 10
-431.670467
 20
145.5
 30
0.0
 11
-431.670467
 21
-145.5
 31
0.0
  0
CIRCLE
  8
SIZE
  6
CONTINUOUS
 62
    30
 10
-431.670467
 20
157.5
 30
0.0
 40
6.0
  0
LINE
  8
SIZE
  6
CONTINUOUS
 62
    30
 10
-431.670467
 20
157.5
 30
0.0
 11
-431.670467
 21
145.5
 31
0.0
  0
CIRCLE
  8
SIZE
  6
CONTINUOUS
 62
    30
 10
-431.670467
 20
-157.5
 30
0.0
 40
6.0
  0
LINE
  8
SIZE
  6
CONTINUOUS
 62
    30
 10
-431.670467
 20
-157.5
 30
0.0
 11
-431.670467
 21
-145.5
 31
0.0
  0
TEXT
  8
SIZE
  6
CONTINUOUS
 62
    30
 10
-456.670467
 20
-74.592
 30
0.0
 40
64.0
  1
315
 50
90.0
 41
0.9
 51
0.0
  7
STANDARD
 71
     0
 72
     1
 11
-456.670467
 21
0.0
 31
0.0
210
0.0
220
0.0
230
1.0
  0
POINT
  8
DEFPOINTS
  6
CONTINUOUS
 62
    30
 10
-105.0
 20
157.5
 30
0.0
  0
POINT
  8
DEFPOINTS
  6
CONTINUOUS
 62
    30
 10
-105.0
 20
-157.5
 30
0.0
  0
POINT
  8
DEFPOINTS
  6
CONTINUOUS
 62
    30
 10
-431.670467
 20
-157.5
 30
0.0
  0
LINE
  8
SIZE
  6
CONTINUOUS
 62
    30
 10
-172.0
 20
175.0
 30
0.0
 11
-572.722142
 21
175.0
 31
0.0
  0
LINE
  8
SIZE
  6
CONTINUOUS
 62
    30
 10
-185.0
 20
-191.0
 30
0.0
 11
-572.722142
 21
-191.0
 31
0.0
  0
LINE
  8
SIZE
  6
CONTINUOUS
 62
    30
 10
-552.722142
 20
163.0
 30
0.0
 11
-552.722142
 21
-179.0
 31
0.0
  0
CIRCLE
  8
SIZE
  6
CONTINUOUS
 62
    30
 10
-552.722142
 20
175.0
 30
0.0
 40
6.0
  0
LINE
  8
SIZE
  6
CONTINUOUS
 62
    30
 10
-552.722142
 20
175.0
 30
0.0
 11
-552.722142
 21
163.0
 31
0.0
  0
CIRCLE
  8
SIZE
  6
CONTINUOUS
 62
    30
 10
-552.722142
 20
-191.0
 30
0.0
 40
6.0
  0
LINE
  8
SIZE
  6
CONTINUOUS
 62
    30
 10
-552.722142
 20
-191.0
 30
0.0
 11
-552.722142
 21
-179.0
 31
0.0
  0
TEXT
  8
SIZE
  6
CONTINUOUS
 62
    30
 10
-577.722142
 20
-88.352
 30
0.0
 40
64.0
  1
366
 50
90.0
 41
0.9
 51
0.0
  7
STANDARD
 71
     0
 72
     1
 11
-577.722142
 21
-8.0
 31
0.0
210
0.0
220
0.0
230
1.0
  0
POINT
  8
DEFPOINTS
  6
CONTINUOUS
 62
    30
 10
-152.0
 20
175.0
 30
0.0
  0
POINT
  8
DEFPOINTS
  6
CONTINUOUS
 62
    30
 10
-165.0
 20
-191.0
 30
0.0
  0
POINT
  8
DEFPOINTS
  6
CONTINUOUS
 62
    30
 10
-552.722142
 20
-191.0
 30
0.0
  0
LINE
  8
NOTE
  6
CONTINUOUS
 62
     4
 39
50.0
 10
513.763254
 20
241.180443
 30
0.0
 11
228.339791
 21
241.180443
 31
0.0
  0
TEXT
  8
NOTE
  6
CONTINUOUS
 62
     4
 10
257.252449
 20
265.12416
 30
0.0
 40
64.0
  1
4-φ5
 41
0.9
  0
LINE
  8
NOTE
  6
CONTINUOUS
 62
     4
 10
228.339791
 20
241.180443
 30
0.0
 11
85.0
 21
157.5
 31
0.0
  0
LINE
  8
NOTE
  6
CONTINUOUS
 62
     4
 10
123.590266
 20
168.025747
 30
0.0
 11
85.0
 21
157.5
 31
0.0
  0
LINE
  8
NOTE
  6
CONTINUOUS
 62
     4
 10
85.0
 20
157.5
 30
0.0
 11
113.157277
 21
185.910698
 31
0.0
  0
LINE
  8
NOTE
  6
CONTINUOUS
 62
     4
 10
268.947067
 20
-264.001847
 30
0.0
 11
175.0
 21
-122.0
 31
0.0
  0
LINE
  8
NOTE
  6
CONTINUOUS
 62
     4
 10
387.512833
 20
-264.001847
 30
0.0
 11
268.947067
 21
-264.001847
 31
0.0
  0
TEXT
  8
NOTE
  6
CONTINUOUS
 62
     4
 10
279.331603
 20
-236.574895
 30
0.0
 40
64.0
  1
EL
 41
0.9
  0
LINE
  8
NOTE
  6
CONTINUOUS
 62
     4
 10
188.286978
 20
-159.728719
 30
0.0
 11
175.0
 21
-122.0
 31
0.0
  0
LINE
  8
NOTE
  6
CONTINUOUS
 62
     4
 10
175.0
 20
-122.0
 30
0.0
 11
205.37122
 21
-148.030539
 31
0.0
  0
ENDSEC
  0
EOF
