  0
SECTION
  2
HEADER
  9
$ACADVER
  1
AC1009
  9
$INSBASE
 10
0.0
 20
0.0
 30
0.0
  9
$EXTMIN
 10
-399.71006618546198
 20
-264.03807402127308
 30
-0.0030518556252446
  9
$EXTMAX
 10
1029.185497410577
 20
822.23511571324696
 30
50.003052088470113
  9
$LIMMIN
 10
-2970.0
 20
-2100.0
  9
$LIMMAX
 10
2970.0
 20
2100.0
  9
$ORTHOMODE
 70
     0
  9
$REGENMODE
 70
     1
  9
$FILLMODE
 70
     1
  9
$QTEXTMODE
 70
     0
  9
$MIRRTEXT
 70
     0
  9
$DRAGMODE
 70
     2
  9
$LTSCALE
 40
20.0
  9
$OSMODE
 70
    47
  9
$ATTMODE
 70
     1
  9
$TEXTSIZE
 40
64.0
  9
$TRACEWID
 40
0.05
  9
$TEXTSTYLE
  7
STANDARD
  9
$CLAYER
  8
NOTE
  9
$CELTYPE
  6
CONTINUOUS
  9
$CECOLOR
 62
     4
  9
$DIMSCALE
 40
1.0
  9
$DIMASZ
 40
12.0
  9
$DIMEXO
 40
20.0
  9
$DIMDLI
 40
200.0
  9
$DIMRND
 40
0.0
  9
$DIMDLE
 40
0.0
  9
$DIMEXE
 40
20.0
  9
$DIMTP
 40
0.0
  9
$DIMTM
 40
0.0
  9
$DIMTXT
 40
64.0
  9
$DIMCEN
 40
0.09
  9
$DIMTSZ
 40
0.0
  9
$DIMTOL
 70
     0
  9
$DIMLIM
 70
     0
  9
$DIMTIH
 70
     0
  9
$DIMTOH
 70
     0
  9
$DIMSE1
 70
     0
  9
$DIMSE2
 70
     0
  9
$DIMTAD
 70
     1
  9
$DIMZIN
 70
     8
  9
$DIMBLK
  1
DOT1
  9
$DIMASO
 70
     1
  9
$DIMSHO
 70
     0
  9
$DIMPOST
  1

  9
$DIMAPOST
  1

  9
$DIMALT
 70
     0
  9
$DIMALTD
 70
     2
  9
$DIMALTF
 40
25.399999999999999
  9
$DIMLFAC
 40
1.0
  9
$DIMTOFL
 70
     1
  9
$DIMTVP
 40
0.0
  9
$DIMTIX
 70
     1
  9
$DIMSOXD
 70
     0
  9
$DIMSAH
 70
     1
  9
$DIMBLK1
  1
ORIGIN
  9
$DIMBLK2
  1
ORIGIN
  9
$DIMSTYLE
  2
STANDARD
  9
$DIMCLRD
 70
     7
  9
$DIMCLRE
 70
     7
  9
$DIMCLRT
 70
     7
  9
$DIMTFAC
 40
1.0
  9
$DIMGAP
 40
25.0
  9
$LUNITS
 70
     2
  9
$LUPREC
 70
     4
  9
$SKETCHINC
 40
0.1
  9
$FILLETRAD
 40
10.0
  9
$AUNITS
 70
     1
  9
$AUPREC
 70
     3
  9
$MENU
  1
ACAD
  9
$ELEVATION
 40
0.0
  9
$PELEVATION
 40
0.0
  9
$THICKNESS
 40
50.0
  9
$LIMCHECK
 70
     0
  9
$BLIPMODE
 70
     0
  9
$CHAMFERA
 40
0.0
  9
$CHAMFERB
 40
0.0
  9
$SKPOLY
 70
     0
  9
$TDCREATE
 40
2451453.49385081
  9
$TDUPDATE
 40
2455110.5929696532
  9
$TDINDWG
 40
0.7707395486000001
  9
$TDUSRTIMER
 40
0.7707393634
  9
$USRTIMER
 70
     1
  9
$ANGBASE
 50
0.0
  9
$ANGDIR
 70
     0
  9
$PDMODE
 70
     3
  9
$PDSIZE
 40
-2.0
  9
$PLINEWID
 40
0.0
  9
$COORDS
 70
     0
  9
$SPLFRAME
 70
     0
  9
$SPLINETYPE
 70
     6
  9
$SPLINESEGS
 70
     8
  9
$ATTDIA
 70
     0
  9
$ATTREQ
 70
     1
  9
$HANDLING
 70
     1
  9
$HANDSEED
  5
261
  9
$SURFTAB1
 70
     6
  9
$SURFTAB2
 70
     6
  9
$SURFTYPE
 70
     6
  9
$SURFU
 70
     6
  9
$SURFV
 70
     6
  9
$UCSNAME
  2

  9
$UCSORG
 10
0.0
 20
0.0
 30
0.0
  9
$UCSXDIR
 10
1.0
 20
0.0
 30
0.0
  9
$UCSYDIR
 10
0.0
 20
1.0
 30
0.0
  9
$PUCSNAME
  2

  9
$PUCSORG
 10
0.0
 20
0.0
 30
0.0
  9
$PUCSXDIR
 10
1.0
 20
0.0
 30
0.0
  9
$PUCSYDIR
 10
0.0
 20
1.0
 30
0.0
  9
$USERI1
 70
     0
  9
$USERI2
 70
     0
  9
$USERI3
 70
     0
  9
$USERI4
 70
     0
  9
$USERI5
 70
     0
  9
$USERR1
 40
20.0
  9
$USERR2
 40
0.0
  9
$USERR3
 40
0.0
  9
$USERR4
 40
0.0
  9
$USERR5
 40
0.0
  9
$WORLDVIEW
 70
     1
  9
$SHADEDGE
 70
     3
  9
$SHADEDIF
 70
    70
  9
$TILEMODE
 70
     1
  9
$MAXACTVP
 70
    48
  9
$PLIMCHECK
 70
     0
  9
$PEXTMIN
 10
-1.0000000000000000E+020
 20
-1.0000000000000000E+020
 30
-1.0000000000000000E+020
  9
$PEXTMAX
 10
1.0000000000000000E+020
 20
1.0000000000000000E+020
 30
1.0000000000000000E+020
  9
$PLIMMIN
 10
0.0
 20
0.0
  9
$PLIMMAX
 10
12.0
 20
9.0
  9
$UNITMODE
 70
     0
  9
$VISRETAIN
 70
     0
  9
$PLINEGEN
 70
     0
  9
$PSLTSCALE
 70
     0
  0
ENDSEC
  0
SECTION
  2
TABLES
  0
TABLE
  2
VPORT
 70
     1
  0
VPORT
  2
*ACTIVE
 70
     0
 10
0.0
 20
0.0
 11
1.0
 21
1.0
 12
355.53962249440718
 22
316.9748939553931
 13
0.0
 23
0.0
 14
1.0
 24
1.0
 15
0.0
 25
0.0
 16
0.0
 26
0.0
 36
1.0
 17
0.0
 27
0.0
 37
0.0
 40
1248.4603968301949
 41
1.294617563739376
 42
50.0
 43
0.0
 44
0.0
 50
0.0
 51
0.0
 71
     0
 72
   100
 73
     1
 74
     0
 75
     0
 76
     0
 77
     0
 78
     0
  0
ENDTAB
  0
TABLE
  2
LTYPE
 70
     3
  0
LTYPE
  2
CONTINUOUS
 70
     0
  3
実線
 72
    65
 73
     0
 40
0.0
  0
LTYPE
  2
DASHDOT
 70
     0
  3
____ _ ____ _ ____ _ ____ _ ____ _ ____ _ ____
 72
    65
 73
     4
 40
5.5
 49
4.0
 49
-0.6
 49
0.3
 49
-0.6
  0
ENDTAB
  0
TABLE
  2
LAYER
 70
    12
  0
LAYER
  2
0
 70
     0
 62
     7
  6
CONTINUOUS
  0
LAYER
  2
NOTE
 70
     0
 62
     4
  6
CONTINUOUS
  0
LAYER
  2
BASIS
 70
     0
 62
     6
  6
DASHDOT
  0
LAYER
  2
OUTLINE
 70
     0
 62
     3
  6
CONTINUOUS
  0
LAYER
  2
DETAIL
 70
     0
 62
     5
  6
CONTINUOUS
  0
LAYER
  2
SIZE
 70
     0
 62
    30
  6
CONTINUOUS
  0
LAYER
  2
ARRANGE
 70
     0
 62
     1
  6
CONTINUOUS
  0
LAYER
  2
DEFPOINTS
 70
     0
 62
     7
  6
CONTINUOUS
  0
LAYER
  2
ETC
 70
     0
 62
    61
  6
CONTINUOUS
  0
LAYER
  2
FIX
 70
     0
 62
    11
  6
CONTINUOUS
  0
LAYER
  2
SERVICESPACE
 70
     0
 62
     2
  6
DASHDOT
  0
LAYER
  2
SYMBOLLINE
 70
     0
 62
    15
  6
CONTINUOUS
  0
ENDTAB
  0
TABLE
  2
STYLE
 70
     2
  0
STYLE
  2
STANDARD
 70
     0
 40
64.0
 41
0.9
 50
0.0
 71
     0
 42
64.0
  3
SIMPLEX.shx
  4
BIGFONT.shx
  0
STYLE
  2
ANNOTATIVE
 70
     0
 40
0.0
 41
1.0
 50
0.0
 71
     0
 42
0.2
  3
txt
  4

  0
ENDTAB
  0
TABLE
  2
VIEW
 70
     1
  0
VIEW
  2
ALL
 70
     0
 40
4282.6198079999986
 10
0.0
 20
41.309903999999989
 41
5940.0
 11
0.0
 21
0.0
 31
1.0
 12
0.0
 22
0.0
 32
0.0
 42
50.0
 43
0.0
 44
0.0
 50
0.0
 71
     0
  0
ENDTAB
  0
TABLE
  2
UCS
 70
     0
  0
ENDTAB
  0
TABLE
  2
APPID
 70
     5
  0
APPID
  2
ACAD
 70
     0
  0
APPID
  2
ACADANNOTATIVE
 70
     0
  0
APPID
  2
ACAD_MLEADERVER
 70
     0
  0
APPID
  2
AUTOCAD_POSTSCRIPT_FIGURE
 70
     0
  0
APPID
  2
ACAD_EXEMPT_FROM_CAD_STANDARDS
 70
     0
  0
ENDTAB
  0
TABLE
  2
DIMSTYLE
 70
     2
  0
DIMSTYLE
  2
STANDARD
 70
     0
  3

  4

  5

  6

  7

 40
1.0
 41
0.18
 42
0.0625
 43
0.38
 44
0.18
 45
0.0
 46
0.0
 47
0.0
 48
0.0
140
0.18
141
0.09
142
0.0
143
25.399999999999999
144
1.0
145
0.0
146
1.0
147
0.09
 71
     0
 72
     0
 73
     1
 74
     1
 75
     0
 76
     0
 77
     0
 78
     0
170
     0
171
     2
172
     0
173
     0
174
     0
175
     0
176
     7
177
     7
178
     7
  0
DIMSTYLE
  2
ANNOTATIVE
 70
     0
  3

  4

  5

  6

  7

 40
1.0
 41
0.18
 42
0.0625
 43
0.38
 44
0.18
 45
0.0
 46
0.0
 47
0.0
 48
0.0
140
0.18
141
0.09
142
0.0
143
25.399999999999999
144
1.0
145
0.0
146
1.0
147
0.09
 71
     0
 72
     0
 73
     1
 74
     1
 75
     0
 76
     0
 77
     0
 78
     0
170
     0
171
     2
172
     0
173
     0
174
     0
175
     0
176
     0
177
     0
178
     0
  0
ENDTAB
  0
ENDSEC
  0
SECTION
  2
BLOCKS
  0
BLOCK
  8
0
  2
$MODEL_SPACE
 70
     0
 10
0.0
 20
0.0
 30
0.0
  3
$MODEL_SPACE
  1

  0
ENDBLK
  5
76
  8
0
  0
BLOCK
 67
     1
  8
0
  2
$PAPER_SPACE
 70
     0
 10
0.0
 20
0.0
 30
0.0
  3
$PAPER_SPACE
  1

  0
ENDBLK
  5
72
 67
     1
  8
0
  0
BLOCK
  8
0
  2
DOT1
 70
     0
 10
0.0
 20
0.0
 30
0.0
  3
DOT1
  1

  0
CIRCLE
  5
8C
  8
SIZE
  6
CONTINUOUS
 62
     7
 10
0.0
 20
0.0
 30
0.0
 40
3.0
  0
ENDBLK
  5
8D
  8
0
  0
BLOCK
  8
0
  2
_ORIGIN
 70
     0
 10
0.0
 20
0.0
 30
0.0
  3
_ORIGIN
  1

  0
CIRCLE
  5
90
  8
0
  6
CONTINUOUS
 62
     7
 10
0.0
 20
0.0
 30
0.0
 40
0.5
  0
LINE
  5
91
  8
0
  6
CONTINUOUS
 62
     7
 10
0.0
 20
0.0
 30
0.0
 11
-1.0
 21
0.0
 31
0.0
  0
ENDBLK
  5
92
  8
0
  0
ENDSEC
  0
SECTION
  2
ENTITIES
  0
LINE
  5
95
  8
BASIS
  6
DASHDOT
 62
     6
 10
0.0
 20
225.40224599999999
 30
0.0
 11
0.0
 21
-257.92935699999998
 31
0.0
  0
LINE
  5
96
  8
BASIS
  6
DASHDOT
 62
     6
 10
-252.78438
 20
0.0
 30
0.0
 11
255.686418
 21
0.0
 31
0.0
  0
CIRCLE
  5
97
  8
ARRANGE
  6
CONTINUOUS
 62
     1
 39
50.0
 10
0.0
 20
0.0
 30
0.0
 40
40.0
  0
POINT
  5
98
  8
ARRANGE
  6
CONTINUOUS
 62
     1
 10
0.0
 20
0.0
 30
0.0
 39
50.0
  0
LINE
  5
99
  8
DETAIL
  6
CONTINUOUS
 62
     5
 39
50.0
 10
-170.0
 20
-205.0
 30
0.0
 11
170.0
 21
-205.0
 31
0.0
  0
LINE
  5
9A
  8
DETAIL
  6
CONTINUOUS
 62
     5
 39
50.0
 10
185.0
 20
-190.0
 30
0.0
 11
185.0
 21
190.0
 31
0.0
  0
LINE
  5
9B
  8
DETAIL
  6
CONTINUOUS
 62
     5
 39
50.0
 10
170.0
 20
205.0
 30
0.0
 11
-170.0
 21
205.0
 31
0.0
  0
LINE
  5
9C
  8
DETAIL
  6
CONTINUOUS
 62
     5
 39
50.0
 10
-185.0
 20
190.0
 30
0.0
 11
-185.0
 21
-190.0
 31
0.0
  0
ARC
  5
9D
  8
DETAIL
  6
CONTINUOUS
 62
     5
 39
50.0
 10
170.0
 20
190.0
 30
0.0
 40
15.0
 50
0.0
 51
90.0
  0
ARC
  5
9E
  8
DETAIL
  6
CONTINUOUS
 62
     5
 39
50.0
 10
170.0
 20
-190.0
 30
0.0
 40
15.0
 50
270.0
 51
0.0
  0
ARC
  5
9F
  8
DETAIL
  6
CONTINUOUS
 62
     5
 39
50.0
 10
-170.0
 20
-190.0
 30
0.0
 40
15.0
 50
180.0
 51
270.0
  0
ARC
  5
A0
  8
DETAIL
  6
CONTINUOUS
 62
     5
 39
50.0
 10
-170.0
 20
190.0
 30
0.0
 40
15.0
 50
90.0
 51
180.0
  0
LINE
  5
A1
  8
OUTLINE
  6
CONTINUOUS
 62
     3
 39
50.0
 10
-185.0
 20
190.0
 30
0.0
 11
-185.0
 21
-190.0
 31
0.0
  0
LINE
  5
A2
  8
OUTLINE
  6
CONTINUOUS
 62
     3
 39
50.0
 10
185.0
 20
-190.0
 30
0.0
 11
185.0
 21
190.0
 31
0.0
  0
ARC
  5
A3
  8
OUTLINE
  6
CONTINUOUS
 62
     3
 39
50.0
 10
-170.0
 20
-190.0
 30
0.0
 40
15.0
 50
180.0
 51
270.0
  0
LINE
  5
A4
  8
OUTLINE
  6
CONTINUOUS
 62
     3
 39
50.0
 10
-170.0
 20
-205.0
 30
0.0
 11
170.0
 21
-205.0
 31
0.0
  0
ARC
  5
A5
  8
OUTLINE
  6
CONTINUOUS
 62
     3
 39
50.0
 10
170.0
 20
-190.0
 30
0.0
 40
15.0
 50
270.0
 51
0.0
  0
ARC
  5
A6
  8
OUTLINE
  6
CONTINUOUS
 62
     3
 39
50.0
 10
-170.0
 20
190.0
 30
0.0
 40
15.0
 50
90.0
 51
180.0
  0
LINE
  5
A7
  8
OUTLINE
  6
CONTINUOUS
 62
     3
 39
50.0
 10
170.0
 20
205.0
 30
0.0
 11
-170.0
 21
205.0
 31
0.0
  0
ARC
  5
A8
  8
OUTLINE
  6
CONTINUOUS
 62
     3
 39
50.0
 10
170.0
 20
190.0
 30
0.0
 40
15.0
 50
0.0
 51
90.0
  0
LINE
  5
A9
  8
NOTE
  6
CONTINUOUS
 62
     4
 10
-173.0
 20
-145.0
 30
0.0
 11
-173.0
 21
-105.0
 31
0.0
  0
LINE
  5
AA
  8
NOTE
  6
CONTINUOUS
 62
     4
 10
-193.0
 20
-125.0
 30
0.0
 11
-153.0
 21
-125.0
 31
0.0
  0
LINE
  5
AB
  8
NOTE
  6
CONTINUOUS
 62
     4
 10
-187.55608699999999
 20
-162.257487
 30
0.0
 11
-173.0
 21
-125.0
 31
0.0
  0
LINE
  5
AC
  8
NOTE
  6
CONTINUOUS
 62
     4
 10
-173.0
 20
-125.0
 30
0.0
 11
-204.23468500000001
 21
-149.987886
 31
0.0
  0
TEXT
  5
AD
  8
NOTE
  6
CONTINUOUS
 62
     4
 10
-372.26142099999998
 20
-248.45186000000001
 30
0.0
 40
64.0
  1
EL
 41
0.9
  0
LINE
  5
AE
  8
NOTE
  6
CONTINUOUS
 62
     4
 39
50.0
 10
-173.0
 20
-125.0
 30
0.0
 11
-283.09849200000002
 21
-263.72919000000002
 31
0.0
  0
LINE
  5
AF
  8
NOTE
  6
CONTINUOUS
 62
     4
 39
50.0
 10
-283.09849200000002
 20
-263.72919000000002
 30
0.0
 11
-399.4348819999999
 21
-263.72919000000002
 31
0.0
  0
LINE
  5
B0
  8
SIZE
  6
CONTINUOUS
 62
    30
 10
-205.0
 20
0.0
 30
0.0
 11
-327.80724300000003
 21
0.0
 31
0.0
  0
LINE
  5
B1
  8
SIZE
  6
CONTINUOUS
 62
    30
 10
-193.0
 20
-125.0
 30
0.0
 11
-327.80724300000003
 21
-125.0
 31
0.0
  0
LINE
  5
B2
  8
SIZE
  6
CONTINUOUS
 62
    30
 10
-307.80724300000003
 20
12.0
 30
0.0
 11
-307.80724300000003
 21
24.0
 31
0.0
  0
LINE
  5
B3
  8
SIZE
  6
CONTINUOUS
 62
    30
 10
-307.80724300000003
 20
-137.0
 30
0.0
 11
-307.80724300000003
 21
-149.0
 31
0.0
  0
LINE
  5
B4
  8
SIZE
  6
CONTINUOUS
 62
    30
 10
-307.80724300000003
 20
0.0
 30
0.0
 11
-307.80724300000003
 21
-125.0
 31
0.0
  0
CIRCLE
  5
B5
  8
SIZE
  6
CONTINUOUS
 62
    30
 10
-307.80724300000003
 20
0.0
 30
0.0
 40
6.0
  0
LINE
  5
B6
  8
SIZE
  6
CONTINUOUS
 62
    30
 10
-307.80724300000003
 20
0.0
 30
0.0
 11
-307.80724300000003
 21
12.0
 31
0.0
  0
CIRCLE
  5
B7
  8
SIZE
  6
CONTINUOUS
 62
    30
 10
-307.80724300000003
 20
-125.0
 30
0.0
 40
6.0
  0
LINE
  5
B8
  8
SIZE
  6
CONTINUOUS
 62
    30
 10
-307.80724300000003
 20
-125.0
 30
0.0
 11
-307.80724300000003
 21
-137.0
 31
0.0
  0
TEXT
  5
B9
  8
SIZE
  6
CONTINUOUS
 62
    30
 10
-332.80724300000003
 20
-131.0714285714285
 30
0.0
 40
64.0
  1
125
 50
90.0
 41
0.9
 72
     1
 11
-332.80724300000003
 21
-62.5
 31
0.0
  0
POINT
  5
BA
  8
DEFPOINTS
  6
CONTINUOUS
 62
    30
 10
-185.0
 20
0.0
 30
0.0
  0
POINT
  5
BB
  8
DEFPOINTS
  6
CONTINUOUS
 62
    30
 10
-173.0
 20
-125.0
 30
0.0
  0
POINT
  5
BC
  8
DEFPOINTS
  6
CONTINUOUS
 62
    30
 10
-307.80724300000003
 20
-125.0
 30
0.0
  0
LINE
  5
BD
  8
SIZE
  6
CONTINUOUS
 62
    30
 10
-185.0
 20
210.0
 30
0.0
 11
-185.0
 21
533.85998800000004
 31
0.0
  0
LINE
  5
BE
  8
SIZE
  6
CONTINUOUS
 62
    30
 10
185.0
 20
210.0
 30
0.0
 11
185.0
 21
533.85998800000004
 31
0.0
  0
LINE
  5
BF
  8
SIZE
  6
CONTINUOUS
 62
    30
 10
-173.0
 20
513.85998800000004
 30
0.0
 11
173.0
 21
513.85998800000004
 31
0.0
  0
CIRCLE
  5
C0
  8
SIZE
  6
CONTINUOUS
 62
    30
 10
-185.0
 20
513.85998800000004
 30
0.0
 40
6.0
  0
LINE
  5
C1
  8
SIZE
  6
CONTINUOUS
 62
    30
 10
-185.0
 20
513.85998800000004
 30
0.0
 11
-173.0
 21
513.85998800000004
 31
0.0
  0
CIRCLE
  5
C2
  8
SIZE
  6
CONTINUOUS
 62
    30
 10
185.0
 20
513.85998800000004
 30
0.0
 40
6.0
  0
LINE
  5
C3
  8
SIZE
  6
CONTINUOUS
 62
    30
 10
185.0
 20
513.85998800000004
 30
0.0
 11
173.0
 21
513.85998800000004
 31
0.0
  0
TEXT
  5
C4
  8
SIZE
  6
CONTINUOUS
 62
    30
 10
-74.05714285714285
 20
538.85998800000004
 30
0.0
 40
64.0
  1
370
 41
0.9
 72
     1
 11
0.0
 21
538.85998800000004
 31
0.0
  0
POINT
  5
C5
  8
DEFPOINTS
  6
CONTINUOUS
 62
    30
 10
-185.0
 20
190.0
 30
0.0
  0
POINT
  5
C6
  8
DEFPOINTS
  6
CONTINUOUS
 62
    30
 10
185.0
 20
190.0
 30
0.0
  0
POINT
  5
C7
  8
DEFPOINTS
  6
CONTINUOUS
 62
    30
 10
185.0
 20
513.85998800000004
 30
0.0
  0
LINE
  5
C8
  8
SIZE
  6
CONTINUOUS
 62
    30
 10
190.0
 20
205.0
 30
0.0
 11
825.40270700000008
 21
205.0
 31
0.0
  0
LINE
  5
C9
  8
SIZE
  6
CONTINUOUS
 62
    30
 10
190.0
 20
-205.0
 30
0.0
 11
825.40270700000008
 21
-205.0
 31
0.0
  0
LINE
  5
CA
  8
SIZE
  6
CONTINUOUS
 62
    30
 10
805.40270699999996
 20
193.0
 30
0.0
 11
805.40270699999996
 21
-193.0
 31
0.0
  0
CIRCLE
  5
CB
  8
SIZE
  6
CONTINUOUS
 62
    30
 10
805.40270699999996
 20
205.0
 30
0.0
 40
6.0
  0
LINE
  5
CC
  8
SIZE
  6
CONTINUOUS
 62
    30
 10
805.40270699999996
 20
205.0
 30
0.0
 11
805.40270699999996
 21
193.0
 31
0.0
  0
CIRCLE
  5
CD
  8
SIZE
  6
CONTINUOUS
 62
    30
 10
805.40270699999996
 20
-205.0
 30
0.0
 40
6.0
  0
LINE
  5
CE
  8
SIZE
  6
CONTINUOUS
 62
    30
 10
805.40270699999996
 20
-205.0
 30
0.0
 11
805.40270699999996
 21
-193.0
 31
0.0
  0
TEXT
  5
CF
  8
SIZE
  6
CONTINUOUS
 62
    30
 10
780.40270699999996
 20
-68.571428571428555
 30
0.0
 40
64.0
  1
410
 50
90.0
 41
0.9
 72
     1
 11
780.40270699999996
 21
0.0
 31
0.0
  0
POINT
  5
D0
  8
DEFPOINTS
  6
CONTINUOUS
 62
    30
 10
170.0
 20
205.0
 30
0.0
  0
POINT
  5
D1
  8
DEFPOINTS
  6
CONTINUOUS
 62
    30
 10
170.0
 20
-205.0
 30
0.0
  0
POINT
  5
D2
  8
DEFPOINTS
  6
CONTINUOUS
 62
    30
 10
805.40270699999996
 20
-205.0
 30
0.0
  0
LINE
  5
D3
  8
DETAIL
  6
CONTINUOUS
 62
     5
 39
50.0
 10
-173.0
 20
-163.0
 30
0.0
 11
-173.0
 21
163.0
 31
0.0
  0
LINE
  5
D4
  8
DETAIL
  6
CONTINUOUS
 62
     5
 39
50.0
 10
-163.0
 20
173.0
 30
0.0
 11
163.0
 21
173.0
 31
0.0
  0
LINE
  5
D5
  8
DETAIL
  6
CONTINUOUS
 62
     5
 39
50.0
 10
173.0
 20
163.0
 30
0.0
 11
173.0
 21
-163.0
 31
0.0
  0
LINE
  5
D6
  8
DETAIL
  6
CONTINUOUS
 62
     5
 39
50.0
 10
163.0
 20
-173.0
 30
0.0
 11
-163.0
 21
-173.0
 31
0.0
  0
ARC
  5
D7
  8
DETAIL
  6
CONTINUOUS
 62
     5
 39
50.0
 10
-163.0
 20
163.0
 30
0.0
 40
10.0
 50
90.0
 51
180.0
  0
ARC
  5
D8
  8
DETAIL
  6
CONTINUOUS
 62
     5
 39
50.0
 10
163.0
 20
163.0
 30
0.0
 40
10.0
 50
0.0
 51
90.0
  0
ARC
  5
D9
  8
DETAIL
  6
CONTINUOUS
 62
     5
 39
50.0
 10
163.0
 20
-163.0
 30
0.0
 40
10.0
 50
270.0
 51
0.0
  0
ARC
  5
DA
  8
DETAIL
  6
CONTINUOUS
 62
     5
 39
50.0
 10
-163.0
 20
-163.0
 30
0.0
 40
10.0
 50
180.0
 51
270.0
  0
ARC
  5
DB
  8
DETAIL
  6
CONTINUOUS
 62
     5
 39
47.687860999999991
 10
-155.46242799999999
 20
-155.46242799999999
 30
0.0
 40
9.5375720000000008
 50
180.0
 51
270.0
  0
LINE
  5
DC
  8
DETAIL
  6
CONTINUOUS
 62
     5
 39
47.687860999999991
 10
-165.0
 20
-155.46242799999999
 30
0.0
 11
-165.0
 21
155.46242799999999
 31
0.0
  0
LINE
  5
DD
  8
DETAIL
  6
CONTINUOUS
 62
     5
 39
47.687860999999991
 10
155.46242799999999
 20
-165.0
 30
0.0
 11
-155.46242799999999
 21
-165.0
 31
0.0
  0
ARC
  5
DE
  8
DETAIL
  6
CONTINUOUS
 62
     5
 39
47.687860999999991
 10
155.46242799999999
 20
-155.46242799999999
 30
0.0
 40
9.5375720000000008
 50
270.0
 51
0.0
  0
LINE
  5
DF
  8
DETAIL
  6
CONTINUOUS
 62
     5
 39
47.687860999999991
 10
165.0
 20
155.46242799999999
 30
0.0
 11
165.0
 21
-155.46242799999999
 31
0.0
  0
ARC
  5
E0
  8
DETAIL
  6
CONTINUOUS
 62
     5
 39
47.687860999999991
 10
155.46242799999999
 20
155.46242799999999
 30
0.0
 40
9.5375720000000008
 50
0.0
 51
90.0
  0
LINE
  5
E1
  8
DETAIL
  6
CONTINUOUS
 62
     5
 39
47.687860999999991
 10
-155.46242799999999
 20
165.0
 30
0.0
 11
155.46242799999999
 21
165.0
 31
0.0
  0
ARC
  5
E2
  8
DETAIL
  6
CONTINUOUS
 62
     5
 39
47.687860999999991
 10
-155.46242799999999
 20
155.46242799999999
 30
0.0
 40
9.5375720000000008
 50
90.0
 51
180.0
  0
LINE
  5
E3
  8
DETAIL
  6
CONTINUOUS
 62
     5
 10
107.36416199999999
 20
122.763006
 30
0.0
 11
-107.36416199999999
 21
122.763006
 31
0.0
  0
LINE
  5
E4
  8
DETAIL
  6
CONTINUOUS
 62
     5
 10
-107.36416199999999
 20
-122.763006
 30
0.0
 11
107.36416199999999
 21
-122.763006
 31
0.0
  0
LINE
  5
E5
  8
DETAIL
  6
CONTINUOUS
 62
     5
 10
-2.994219999999999
 20
73.572254000000001
 30
0.0
 11
2.994219999999999
 21
73.572254000000001
 31
0.0
  0
LINE
  5
E6
  8
DETAIL
  6
CONTINUOUS
 62
     5
 10
-2.994219999999999
 20
75.283237
 30
0.0
 11
2.994219999999999
 21
75.283237
 31
0.0
  0
LINE
  5
E7
  8
DETAIL
  6
CONTINUOUS
 62
     5
 10
-2.994219999999999
 20
-73.572254000000001
 30
0.0
 11
2.994219999999999
 21
-73.572254000000001
 31
0.0
  0
LINE
  5
E8
  8
DETAIL
  6
CONTINUOUS
 62
     5
 10
-2.994219999999999
 20
-75.283237
 30
0.0
 11
2.994219999999999
 21
-75.283237
 31
0.0
  0
ARC
  5
E9
  8
DETAIL
  6
CONTINUOUS
 62
     5
 10
60.959044999999989
 20
34.061432000000011
 30
0.0
 40
87.035659999999993
 50
125.93415400000001
 51
144.83077399999999
  0
ARC
  5
EA
  8
DETAIL
  6
CONTINUOUS
 62
     5
 10
-60.959029999999998
 20
-34.061428999999997
 30
0.0
 40
87.035659999999993
 50
305.93411800000001
 51
324.830738
  0
CIRCLE
  5
EB
  8
DETAIL
  6
CONTINUOUS
 62
     5
 10
0.0
 20
0.0
 30
0.0
 40
46.0
  0
CIRCLE
  5
EC
  8
DETAIL
  6
CONTINUOUS
 62
     5
 10
0.0
 20
0.0
 30
0.0
 40
109.0
  0
LINE
  5
ED
  8
DETAIL
  6
CONTINUOUS
 62
     5
 10
-122.763006
 20
107.36416199999999
 30
0.0
 11
-122.763006
 21
-107.36416199999999
 31
0.0
  0
LINE
  5
EE
  8
DETAIL
  6
CONTINUOUS
 62
     5
 10
-5.5606939999999989
 20
-122.763006
 30
0.0
 11
-5.5606939999999989
 21
122.763006
 31
0.0
  0
LINE
  5
EF
  8
DETAIL
  6
CONTINUOUS
 62
     5
 10
-14.115607000000001
 20
-122.763006
 30
0.0
 11
-14.115607000000001
 21
122.763006
 31
0.0
  0
LINE
  5
F0
  8
DETAIL
  6
CONTINUOUS
 62
     5
 10
-22.67052
 20
-122.763006
 30
0.0
 11
-22.67052
 21
122.763006
 31
0.0
  0
LINE
  5
F1
  8
DETAIL
  6
CONTINUOUS
 62
     5
 10
-31.225434
 20
-122.763006
 30
0.0
 11
-31.225434
 21
122.763006
 31
0.0
  0
LINE
  5
F2
  8
DETAIL
  6
CONTINUOUS
 62
     5
 10
-39.780346999999999
 20
-122.763006
 30
0.0
 11
-39.780346999999999
 21
122.763006
 31
0.0
  0
LINE
  5
F3
  8
DETAIL
  6
CONTINUOUS
 62
     5
 10
-48.335259999999991
 20
-122.763006
 30
0.0
 11
-48.335259999999991
 21
122.763006
 31
0.0
  0
LINE
  5
F4
  8
DETAIL
  6
CONTINUOUS
 62
     5
 10
-56.89017299999999
 20
-122.763006
 30
0.0
 11
-56.89017299999999
 21
122.763006
 31
0.0
  0
LINE
  5
F5
  8
DETAIL
  6
CONTINUOUS
 62
     5
 10
-65.445087000000001
 20
-122.763006
 30
0.0
 11
-65.445087000000001
 21
122.763006
 31
0.0
  0
LINE
  5
F6
  8
DETAIL
  6
CONTINUOUS
 62
     5
 10
-74.0
 20
-122.763006
 30
0.0
 11
-74.0
 21
122.763006
 31
0.0
  0
LINE
  5
F7
  8
DETAIL
  6
CONTINUOUS
 62
     5
 10
-82.554912999999999
 20
-122.763006
 30
0.0
 11
-82.554912999999999
 21
122.763006
 31
0.0
  0
LINE
  5
F8
  8
DETAIL
  6
CONTINUOUS
 62
     5
 10
-91.109826999999996
 20
-122.763006
 30
0.0
 11
-91.109826999999996
 21
122.763006
 31
0.0
  0
LINE
  5
F9
  8
DETAIL
  6
CONTINUOUS
 62
     5
 10
-99.664740000000009
 20
-122.763006
 30
0.0
 11
-99.664740000000009
 21
122.763006
 31
0.0
  0
LINE
  5
FA
  8
DETAIL
  6
CONTINUOUS
 62
     5
 10
-108.21965299999999
 20
-122.763006
 30
0.0
 11
-108.21965299999999
 21
122.763006
 31
0.0
  0
LINE
  5
FB
  8
DETAIL
  6
CONTINUOUS
 62
     5
 10
-116.77456599999999
 20
-119.553037
 30
0.0
 11
-116.77456599999999
 21
119.553037
 31
0.0
  0
LINE
  5
FC
  8
DETAIL
  6
CONTINUOUS
 62
     5
 10
-114.20809199999999
 20
-121.158545
 30
0.0
 11
-114.20809199999999
 21
121.158545
 31
0.0
  0
LINE
  5
FD
  8
DETAIL
  6
CONTINUOUS
 62
     5
 10
-105.65317899999999
 20
-122.763006
 30
0.0
 11
-105.65317899999999
 21
122.763006
 31
0.0
  0
LINE
  5
FE
  8
DETAIL
  6
CONTINUOUS
 62
     5
 10
-97.09826600000001
 20
-122.763006
 30
0.0
 11
-97.09826600000001
 21
122.763006
 31
0.0
  0
LINE
  5
FF
  8
DETAIL
  6
CONTINUOUS
 62
     5
 10
-88.543352999999996
 20
-122.763006
 30
0.0
 11
-88.543352999999996
 21
122.763006
 31
0.0
  0
LINE
  5
100
  8
DETAIL
  6
CONTINUOUS
 62
     5
 10
-79.988439
 20
-122.763006
 30
0.0
 11
-79.988439
 21
122.763006
 31
0.0
  0
LINE
  5
101
  8
DETAIL
  6
CONTINUOUS
 62
     5
 10
-71.433526000000001
 20
-122.763006
 30
0.0
 11
-71.433526000000001
 21
122.763006
 31
0.0
  0
LINE
  5
102
  8
DETAIL
  6
CONTINUOUS
 62
     5
 10
-62.878613000000001
 20
-122.763006
 30
0.0
 11
-62.878613000000001
 21
122.763006
 31
0.0
  0
LINE
  5
103
  8
DETAIL
  6
CONTINUOUS
 62
     5
 10
-54.323698999999998
 20
-122.763006
 30
0.0
 11
-54.323698999999998
 21
122.763006
 31
0.0
  0
LINE
  5
104
  8
DETAIL
  6
CONTINUOUS
 62
     5
 10
-45.768785999999992
 20
-122.763006
 30
0.0
 11
-45.768785999999992
 21
122.763006
 31
0.0
  0
LINE
  5
105
  8
DETAIL
  6
CONTINUOUS
 62
     5
 10
-37.213873
 20
-122.763006
 30
0.0
 11
-37.213873
 21
122.763006
 31
0.0
  0
LINE
  5
106
  8
DETAIL
  6
CONTINUOUS
 62
     5
 10
-28.65896
 20
-122.763006
 30
0.0
 11
-28.65896
 21
122.763006
 31
0.0
  0
LINE
  5
107
  8
DETAIL
  6
CONTINUOUS
 62
     5
 10
-20.104046
 20
-122.763006
 30
0.0
 11
-20.104046
 21
122.763006
 31
0.0
  0
LINE
  5
108
  8
DETAIL
  6
CONTINUOUS
 62
     5
 10
-11.549132999999999
 20
-122.763006
 30
0.0
 11
-11.549132999999999
 21
122.763006
 31
0.0
  0
LINE
  5
109
  8
DETAIL
  6
CONTINUOUS
 62
     5
 10
-2.994219999999999
 20
-122.763006
 30
0.0
 11
-2.994219999999999
 21
122.763006
 31
0.0
  0
ARC
  5
10A
  8
DETAIL
  6
CONTINUOUS
 62
     5
 10
-34.061432000000011
 20
60.959029999999998
 30
0.0
 40
87.035659999999993
 50
215.93419
 51
234.83081000000001
  0
ARC
  5
10B
  8
DETAIL
  6
CONTINUOUS
 62
     5
 10
-107.36416199999999
 20
-107.36416199999999
 30
0.0
 40
15.398844
 50
180.0
 51
270.0
  0
LINE
  5
10C
  8
DETAIL
  6
CONTINUOUS
 62
     5
 10
-122.763006
 20
-73.572254000000001
 30
0.0
 11
-116.77456599999999
 21
-73.572254000000001
 31
0.0
  0
LINE
  5
10D
  8
DETAIL
  6
CONTINUOUS
 62
     5
 10
-122.763006
 20
-75.283237
 30
0.0
 11
-116.77456599999999
 21
-75.283237
 31
0.0
  0
ARC
  5
10E
  8
DETAIL
  6
CONTINUOUS
 62
     5
 10
0.0
 20
0.0
 30
0.0
 40
104.999954
 50
198.70850799999999
 51
264.59988900000002
  0
LINE
  5
10F
  8
DETAIL
  6
CONTINUOUS
 62
     5
 10
-62.878613000000001
 20
-73.572254000000001
 30
0.0
 11
-56.89017299999999
 21
-73.572254000000001
 31
0.0
  0
LINE
  5
110
  8
DETAIL
  6
CONTINUOUS
 62
     5
 10
-62.878613000000001
 20
-75.283237
 30
0.0
 11
-56.89017299999999
 21
-75.283237
 31
0.0
  0
ARC
  5
111
  8
DETAIL
  6
CONTINUOUS
 62
     5
 10
-43.959029999999991
 20
42.047699000000001
 30
0.0
 40
65.702866
 50
250.68701200000001
 51
267.43283300000002
  0
ARC
  5
112
  8
DETAIL
  6
CONTINUOUS
 62
     5
 10
-48.059005999999997
 20
31.479034000000009
 30
0.0
 40
67.747481999999991
 50
246.93783999999999
 51
273.8580740000001
  0
LINE
  5
113
  8
DETAIL
  6
CONTINUOUS
 62
     5
 10
-71.433526000000001
 20
-73.572254000000001
 30
0.0
 11
-65.445087000000001
 21
-73.572254000000001
 31
0.0
  0
LINE
  5
114
  8
DETAIL
  6
CONTINUOUS
 62
     5
 10
-71.433526000000001
 20
-75.283237
 30
0.0
 11
-65.445087000000001
 21
-75.283237
 31
0.0
  0
LINE
  5
115
  8
DETAIL
  6
CONTINUOUS
 62
     5
 10
-79.988439
 20
-73.572254000000001
 30
0.0
 11
-74.0
 21
-73.572254000000001
 31
0.0
  0
LINE
  5
116
  8
DETAIL
  6
CONTINUOUS
 62
     5
 10
-79.988439
 20
-75.283237
 30
0.0
 11
-74.0
 21
-75.283237
 31
0.0
  0
LINE
  5
117
  8
DETAIL
  6
CONTINUOUS
 62
     5
 10
-88.543352999999996
 20
-73.572254000000001
 30
0.0
 11
-82.554912999999999
 21
-73.572254000000001
 31
0.0
  0
LINE
  5
118
  8
DETAIL
  6
CONTINUOUS
 62
     5
 10
-88.543352999999996
 20
-75.283237
 30
0.0
 11
-82.554912999999999
 21
-75.283237
 31
0.0
  0
LINE
  5
119
  8
DETAIL
  6
CONTINUOUS
 62
     5
 10
-97.09826600000001
 20
-73.572254000000001
 30
0.0
 11
-91.109826999999996
 21
-73.572254000000001
 31
0.0
  0
LINE
  5
11A
  8
DETAIL
  6
CONTINUOUS
 62
     5
 10
-97.09826600000001
 20
-75.283237
 30
0.0
 11
-91.109826999999996
 21
-75.283237
 31
0.0
  0
LINE
  5
11B
  8
DETAIL
  6
CONTINUOUS
 62
     5
 10
-105.65317899999999
 20
-73.572254000000001
 30
0.0
 11
-99.664740000000009
 21
-73.572254000000001
 31
0.0
  0
LINE
  5
11C
  8
DETAIL
  6
CONTINUOUS
 62
     5
 10
-105.65317899999999
 20
-75.283237
 30
0.0
 11
-99.664740000000009
 21
-75.283237
 31
0.0
  0
LINE
  5
11D
  8
DETAIL
  6
CONTINUOUS
 62
     5
 10
-114.20809199999999
 20
-73.572254000000001
 30
0.0
 11
-108.21965299999999
 21
-73.572254000000001
 31
0.0
  0
LINE
  5
11E
  8
DETAIL
  6
CONTINUOUS
 62
     5
 10
-114.20809199999999
 20
-75.283237
 30
0.0
 11
-108.21965299999999
 21
-75.283237
 31
0.0
  0
ARC
  5
11F
  8
DETAIL
  6
CONTINUOUS
 62
     5
 10
-39.374664000000003
 20
52.295929000000001
 30
0.0
 40
76.896286000000003
 50
234.34898100000001
 51
249.98880299999999
  0
ARC
  5
120
  8
DETAIL
  6
CONTINUOUS
 62
     5
 10
-43.43089299999999
 20
45.249924
 30
0.0
 40
82.298309000000003
 50
237.51594900000009
 51
247.72888499999999
  0
ARC
  5
121
  8
DETAIL
  6
CONTINUOUS
 62
     5
 10
-91.801849000000004
 20
-31.088401000000001
 30
0.0
 40
8.0769199999999994
 50
57.161416000000003
 51
198.70845299999999
  0
LINE
  5
122
  8
DETAIL
  6
CONTINUOUS
 62
     5
 10
-11.549132999999999
 20
-73.572254000000001
 30
0.0
 11
-5.5606939999999989
 21
-73.572254000000001
 31
0.0
  0
LINE
  5
123
  8
DETAIL
  6
CONTINUOUS
 62
     5
 10
-11.549132999999999
 20
-75.283237
 30
0.0
 11
-5.5606939999999989
 21
-75.283237
 31
0.0
  0
LINE
  5
124
  8
DETAIL
  6
CONTINUOUS
 62
     5
 10
-20.104046
 20
-73.572254000000001
 30
0.0
 11
-14.115607000000001
 21
-73.572254000000001
 31
0.0
  0
LINE
  5
125
  8
DETAIL
  6
CONTINUOUS
 62
     5
 10
-20.104046
 20
-75.283237
 30
0.0
 11
-14.115607000000001
 21
-75.283237
 31
0.0
  0
LINE
  5
126
  8
DETAIL
  6
CONTINUOUS
 62
     5
 10
-28.65896
 20
-73.572254000000001
 30
0.0
 11
-22.67052
 21
-73.572254000000001
 31
0.0
  0
LINE
  5
127
  8
DETAIL
  6
CONTINUOUS
 62
     5
 10
-28.65896
 20
-75.283237
 30
0.0
 11
-22.67052
 21
-75.283237
 31
0.0
  0
LINE
  5
128
  8
DETAIL
  6
CONTINUOUS
 62
     5
 10
-37.213873
 20
-73.572254000000001
 30
0.0
 11
-31.225434
 21
-73.572254000000001
 31
0.0
  0
LINE
  5
129
  8
DETAIL
  6
CONTINUOUS
 62
     5
 10
-37.213873
 20
-75.283237
 30
0.0
 11
-31.225434
 21
-75.283237
 31
0.0
  0
LINE
  5
12A
  8
DETAIL
  6
CONTINUOUS
 62
     5
 10
-45.768785999999992
 20
-73.572254000000001
 30
0.0
 11
-39.780346999999999
 21
-73.572254000000001
 31
0.0
  0
LINE
  5
12B
  8
DETAIL
  6
CONTINUOUS
 62
     5
 10
-45.768785999999992
 20
-75.283237
 30
0.0
 11
-39.780346999999999
 21
-75.283237
 31
0.0
  0
LINE
  5
12C
  8
DETAIL
  6
CONTINUOUS
 62
     5
 10
-54.323698999999998
 20
-73.572254000000001
 30
0.0
 11
-48.335259999999991
 21
-73.572254000000001
 31
0.0
  0
LINE
  5
12D
  8
DETAIL
  6
CONTINUOUS
 62
     5
 10
-54.323698999999998
 20
-75.283237
 30
0.0
 11
-48.335259999999991
 21
-75.283237
 31
0.0
  0
ARC
  5
12E
  8
DETAIL
  6
CONTINUOUS
 62
     5
 10
-46.606110000000001
 20
15.526672
 30
0.0
 40
51.526932000000002
 50
273.44137799999999
 51
286.92723100000001
  0
ARC
  5
12F
  8
DETAIL
  6
CONTINUOUS
 62
     5
 10
-43.804488999999997
 20
30.377746999999999
 30
0.0
 40
54.055770999999993
 50
266.71495299999998
 51
274.230729
  0
ARC
  5
130
  8
DETAIL
  6
CONTINUOUS
 62
     5
 10
-107.36416199999999
 20
107.36416199999999
 30
0.0
 40
15.398844
 50
90.0
 51
180.0
  0
ARC
  5
131
  8
DETAIL
  6
CONTINUOUS
 62
     5
 10
0.0
 20
0.0
 30
0.0
 40
104.999954
 50
108.70852600000001
 51
174.599907
  0
LINE
  5
132
  8
DETAIL
  6
CONTINUOUS
 62
     5
 10
-122.763006
 20
73.572254000000001
 30
0.0
 11
-116.77456599999999
 21
73.572254000000001
 31
0.0
  0
LINE
  5
133
  8
DETAIL
  6
CONTINUOUS
 62
     5
 10
-122.763006
 20
75.283237
 30
0.0
 11
-116.77456599999999
 21
75.283237
 31
0.0
  0
ARC
  5
134
  8
DETAIL
  6
CONTINUOUS
 62
     5
 10
45.249878000000002
 20
43.43089299999999
 30
0.0
 40
82.298309000000003
 50
147.51596699999999
 51
157.728903
  0
ARC
  5
135
  8
DETAIL
  6
CONTINUOUS
 62
     5
 10
52.295883000000003
 20
39.374664000000003
 30
0.0
 40
76.896286000000003
 50
144.34894499999999
 51
159.988767
  0
LINE
  5
136
  8
DETAIL
  6
CONTINUOUS
 62
     5
 10
-62.878613000000001
 20
73.572254000000001
 30
0.0
 11
-56.89017299999999
 21
73.572254000000001
 31
0.0
  0
LINE
  5
137
  8
DETAIL
  6
CONTINUOUS
 62
     5
 10
-62.878613000000001
 20
75.283237
 30
0.0
 11
-56.89017299999999
 21
75.283237
 31
0.0
  0
LINE
  5
138
  8
DETAIL
  6
CONTINUOUS
 62
     5
 10
-71.433526000000001
 20
73.572254000000001
 30
0.0
 11
-65.445087000000001
 21
73.572254000000001
 31
0.0
  0
LINE
  5
139
  8
DETAIL
  6
CONTINUOUS
 62
     5
 10
-71.433526000000001
 20
75.283237
 30
0.0
 11
-65.445087000000001
 21
75.283237
 31
0.0
  0
LINE
  5
13A
  8
DETAIL
  6
CONTINUOUS
 62
     5
 10
-79.988439
 20
73.572254000000001
 30
0.0
 11
-74.0
 21
73.572254000000001
 31
0.0
  0
LINE
  5
13B
  8
DETAIL
  6
CONTINUOUS
 62
     5
 10
-79.988439
 20
75.283237
 30
0.0
 11
-74.0
 21
75.283237
 31
0.0
  0
LINE
  5
13C
  8
DETAIL
  6
CONTINUOUS
 62
     5
 10
-88.543352999999996
 20
73.572254000000001
 30
0.0
 11
-82.554912999999999
 21
73.572254000000001
 31
0.0
  0
LINE
  5
13D
  8
DETAIL
  6
CONTINUOUS
 62
     5
 10
-88.543352999999996
 20
75.283237
 30
0.0
 11
-82.554912999999999
 21
75.283237
 31
0.0
  0
LINE
  5
13E
  8
DETAIL
  6
CONTINUOUS
 62
     5
 10
-97.09826600000001
 20
73.572254000000001
 30
0.0
 11
-91.109826999999996
 21
73.572254000000001
 31
0.0
  0
LINE
  5
13F
  8
DETAIL
  6
CONTINUOUS
 62
     5
 10
-97.09826600000001
 20
75.283237
 30
0.0
 11
-91.109826999999996
 21
75.283237
 31
0.0
  0
LINE
  5
140
  8
DETAIL
  6
CONTINUOUS
 62
     5
 10
-105.65317899999999
 20
73.572254000000001
 30
0.0
 11
-99.664740000000009
 21
73.572254000000001
 31
0.0
  0
LINE
  5
141
  8
DETAIL
  6
CONTINUOUS
 62
     5
 10
-105.65317899999999
 20
75.283237
 30
0.0
 11
-99.664740000000009
 21
75.283237
 31
0.0
  0
LINE
  5
142
  8
DETAIL
  6
CONTINUOUS
 62
     5
 10
-114.20809199999999
 20
73.572254000000001
 30
0.0
 11
-108.21965299999999
 21
73.572254000000001
 31
0.0
  0
LINE
  5
143
  8
DETAIL
  6
CONTINUOUS
 62
     5
 10
-114.20809199999999
 20
75.283237
 30
0.0
 11
-108.21965299999999
 21
75.283237
 31
0.0
  0
ARC
  5
144
  8
DETAIL
  6
CONTINUOUS
 62
     5
 10
0.0
 20
0.0
 30
0.0
 40
114.63583800000001
 50
140.07449700000001
 51
140.56882200000001
  0
LINE
  5
145
  8
DETAIL
  6
CONTINUOUS
 62
     5
 10
-11.549132999999999
 20
73.572254000000001
 30
0.0
 11
-5.5606939999999989
 21
73.572254000000001
 31
0.0
  0
LINE
  5
146
  8
DETAIL
  6
CONTINUOUS
 62
     5
 10
-11.549132999999999
 20
75.283237
 30
0.0
 11
-5.5606939999999989
 21
75.283237
 31
0.0
  0
LINE
  5
147
  8
DETAIL
  6
CONTINUOUS
 62
     5
 10
-20.104046
 20
73.572254000000001
 30
0.0
 11
-14.115607000000001
 21
73.572254000000001
 31
0.0
  0
LINE
  5
148
  8
DETAIL
  6
CONTINUOUS
 62
     5
 10
-20.104046
 20
75.283237
 30
0.0
 11
-14.115607000000001
 21
75.283237
 31
0.0
  0
LINE
  5
149
  8
DETAIL
  6
CONTINUOUS
 62
     5
 10
-28.65896
 20
73.572254000000001
 30
0.0
 11
-22.67052
 21
73.572254000000001
 31
0.0
  0
LINE
  5
14A
  8
DETAIL
  6
CONTINUOUS
 62
     5
 10
-28.65896
 20
75.283237
 30
0.0
 11
-22.67052
 21
75.283237
 31
0.0
  0
LINE
  5
14B
  8
DETAIL
  6
CONTINUOUS
 62
     5
 10
-37.213873
 20
73.572254000000001
 30
0.0
 11
-31.225434
 21
73.572254000000001
 31
0.0
  0
LINE
  5
14C
  8
DETAIL
  6
CONTINUOUS
 62
     5
 10
-37.213873
 20
75.283237
 30
0.0
 11
-31.225434
 21
75.283237
 31
0.0
  0
LINE
  5
14D
  8
DETAIL
  6
CONTINUOUS
 62
     5
 10
-45.768785999999992
 20
73.572254000000001
 30
0.0
 11
-39.780346999999999
 21
73.572254000000001
 31
0.0
  0
LINE
  5
14E
  8
DETAIL
  6
CONTINUOUS
 62
     5
 10
-45.768785999999992
 20
75.283237
 30
0.0
 11
-39.780346999999999
 21
75.283237
 31
0.0
  0
LINE
  5
14F
  8
DETAIL
  6
CONTINUOUS
 62
     5
 10
-54.323698999999998
 20
73.572254000000001
 30
0.0
 11
-48.335259999999991
 21
73.572254000000001
 31
0.0
  0
LINE
  5
150
  8
DETAIL
  6
CONTINUOUS
 62
     5
 10
-54.323698999999998
 20
75.283237
 30
0.0
 11
-48.335259999999991
 21
75.283237
 31
0.0
  0
ARC
  5
151
  8
DETAIL
  6
CONTINUOUS
 62
     5
 10
31.47908
 20
48.059005999999997
 30
0.0
 40
67.747481999999991
 50
156.93785800000001
 51
183.858092
  0
ARC
  5
152
  8
DETAIL
  6
CONTINUOUS
 62
     5
 10
15.526581
 20
46.606110000000001
 30
0.0
 40
51.526932000000002
 50
183.441396
 51
196.92730399999999
  0
ARC
  5
153
  8
DETAIL
  6
CONTINUOUS
 62
     5
 10
30.377762000000001
 20
43.804488999999997
 30
0.0
 40
54.055770999999993
 50
176.71508
 51
184.230638
  0
ARC
  5
154
  8
DETAIL
  6
CONTINUOUS
 62
     5
 10
42.047699000000001
 20
43.959029999999991
 30
0.0
 40
65.702866
 50
160.68697599999999
 51
177.432796
  0
ARC
  5
155
  8
DETAIL
  6
CONTINUOUS
 62
     5
 10
-31.088394000000001
 20
91.801909999999978
 30
0.0
 40
8.0769199999999994
 50
327.161362
 51
108.708454
  0
LINE
  5
156
  8
DETAIL
  6
CONTINUOUS
 62
     5
 10
122.763006
 20
107.36416199999999
 30
0.0
 11
122.763006
 21
-107.36416199999999
 31
0.0
  0
LINE
  5
157
  8
DETAIL
  6
CONTINUOUS
 62
     5
 10
2.994219999999999
 20
-122.763006
 30
0.0
 11
2.994219999999999
 21
122.763006
 31
0.0
  0
LINE
  5
158
  8
DETAIL
  6
CONTINUOUS
 62
     5
 10
11.549132999999999
 20
-122.763006
 30
0.0
 11
11.549132999999999
 21
122.763006
 31
0.0
  0
LINE
  5
159
  8
DETAIL
  6
CONTINUOUS
 62
     5
 10
20.104046
 20
-122.763006
 30
0.0
 11
20.104046
 21
122.763006
 31
0.0
  0
LINE
  5
15A
  8
DETAIL
  6
CONTINUOUS
 62
     5
 10
28.65896
 20
-122.763006
 30
0.0
 11
28.65896
 21
122.763006
 31
0.0
  0
LINE
  5
15B
  8
DETAIL
  6
CONTINUOUS
 62
     5
 10
37.213873
 20
-122.763006
 30
0.0
 11
37.213873
 21
122.763006
 31
0.0
  0
LINE
  5
15C
  8
DETAIL
  6
CONTINUOUS
 62
     5
 10
45.768785999999992
 20
-122.763006
 30
0.0
 11
45.768785999999992
 21
122.763006
 31
0.0
  0
LINE
  5
15D
  8
DETAIL
  6
CONTINUOUS
 62
     5
 10
54.323698999999998
 20
-122.763006
 30
0.0
 11
54.323698999999998
 21
122.763006
 31
0.0
  0
LINE
  5
15E
  8
DETAIL
  6
CONTINUOUS
 62
     5
 10
62.878613000000001
 20
-122.763006
 30
0.0
 11
62.878613000000001
 21
122.763006
 31
0.0
  0
LINE
  5
15F
  8
DETAIL
  6
CONTINUOUS
 62
     5
 10
71.433526000000001
 20
-122.763006
 30
0.0
 11
71.433526000000001
 21
122.763006
 31
0.0
  0
LINE
  5
160
  8
DETAIL
  6
CONTINUOUS
 62
     5
 10
79.988439
 20
-122.763006
 30
0.0
 11
79.988439
 21
122.763006
 31
0.0
  0
LINE
  5
161
  8
DETAIL
  6
CONTINUOUS
 62
     5
 10
88.543352999999996
 20
-122.763006
 30
0.0
 11
88.543352999999996
 21
122.763006
 31
0.0
  0
LINE
  5
162
  8
DETAIL
  6
CONTINUOUS
 62
     5
 10
97.09826600000001
 20
-122.763006
 30
0.0
 11
97.09826600000001
 21
122.763006
 31
0.0
  0
LINE
  5
163
  8
DETAIL
  6
CONTINUOUS
 62
     5
 10
105.65317899999999
 20
-122.763006
 30
0.0
 11
105.65317899999999
 21
122.763006
 31
0.0
  0
LINE
  5
164
  8
DETAIL
  6
CONTINUOUS
 62
     5
 10
114.20809199999999
 20
-121.158545
 30
0.0
 11
114.20809199999999
 21
121.158545
 31
0.0
  0
LINE
  5
165
  8
DETAIL
  6
CONTINUOUS
 62
     5
 10
5.5606939999999989
 20
-122.763006
 30
0.0
 11
5.5606939999999989
 21
122.763006
 31
0.0
  0
LINE
  5
166
  8
DETAIL
  6
CONTINUOUS
 62
     5
 10
14.115607000000001
 20
-122.763006
 30
0.0
 11
14.115607000000001
 21
122.763006
 31
0.0
  0
LINE
  5
167
  8
DETAIL
  6
CONTINUOUS
 62
     5
 10
22.67052
 20
-122.763006
 30
0.0
 11
22.67052
 21
122.763006
 31
0.0
  0
LINE
  5
168
  8
DETAIL
  6
CONTINUOUS
 62
     5
 10
31.225434
 20
-122.763006
 30
0.0
 11
31.225434
 21
122.763006
 31
0.0
  0
LINE
  5
169
  8
DETAIL
  6
CONTINUOUS
 62
     5
 10
39.780346999999999
 20
-122.763006
 30
0.0
 11
39.780346999999999
 21
122.763006
 31
0.0
  0
LINE
  5
16A
  8
DETAIL
  6
CONTINUOUS
 62
     5
 10
48.335259999999991
 20
-122.763006
 30
0.0
 11
48.335259999999991
 21
122.763006
 31
0.0
  0
LINE
  5
16B
  8
DETAIL
  6
CONTINUOUS
 62
     5
 10
56.89017299999999
 20
-122.763006
 30
0.0
 11
56.89017299999999
 21
122.763006
 31
0.0
  0
LINE
  5
16C
  8
DETAIL
  6
CONTINUOUS
 62
     5
 10
65.445087000000001
 20
-122.763006
 30
0.0
 11
65.445087000000001
 21
122.763006
 31
0.0
  0
LINE
  5
16D
  8
DETAIL
  6
CONTINUOUS
 62
     5
 10
74.0
 20
-122.763006
 30
0.0
 11
74.0
 21
122.763006
 31
0.0
  0
LINE
  5
16E
  8
DETAIL
  6
CONTINUOUS
 62
     5
 10
82.554912999999999
 20
-122.763006
 30
0.0
 11
82.554912999999999
 21
122.763006
 31
0.0
  0
LINE
  5
16F
  8
DETAIL
  6
CONTINUOUS
 62
     5
 10
91.109826999999996
 20
-122.763006
 30
0.0
 11
91.109826999999996
 21
122.763006
 31
0.0
  0
LINE
  5
170
  8
DETAIL
  6
CONTINUOUS
 62
     5
 10
99.664740000000009
 20
-122.763006
 30
0.0
 11
99.664740000000009
 21
122.763006
 31
0.0
  0
LINE
  5
171
  8
DETAIL
  6
CONTINUOUS
 62
     5
 10
108.21965299999999
 20
-122.763006
 30
0.0
 11
108.21965299999999
 21
122.73922399999999
 31
0.0
  0
LINE
  5
172
  8
DETAIL
  6
CONTINUOUS
 62
     5
 10
116.77456599999999
 20
-119.553037
 30
0.0
 11
116.77456599999999
 21
119.553037
 31
0.0
  0
ARC
  5
173
  8
DETAIL
  6
CONTINUOUS
 62
     5
 10
34.061492999999999
 20
-60.959029999999998
 30
0.0
 40
87.035659999999993
 50
35.934154999999997
 51
54.830773999999991
  0
ARC
  5
174
  8
DETAIL
  6
CONTINUOUS
 62
     5
 10
107.36416199999999
 20
-107.36416199999999
 30
0.0
 40
15.398844
 50
270.0
 51
0.0
  0
ARC
  5
175
  8
DETAIL
  6
CONTINUOUS
 62
     5
 10
0.0
 20
0.0
 30
0.0
 40
104.999954
 50
288.70848999999998
 51
333.194277
  0
ARC
  5
176
  8
DETAIL
  6
CONTINUOUS
 62
     5
 10
-45.249924
 20
-43.430894000000002
 30
0.0
 40
82.298309000000003
 50
327.51587599999999
 51
337.728812
  0
ARC
  5
177
  8
DETAIL
  6
CONTINUOUS
 62
     5
 10
-52.295929000000001
 20
-39.374662999999998
 30
0.0
 40
76.896286000000003
 50
324.34890899999999
 51
339.98873099999997
  0
ARC
  5
178
  8
DETAIL
  6
CONTINUOUS
 62
     5
 10
31.088455
 20
-91.801909999999978
 30
0.0
 40
8.0769199999999994
 50
147.16139799999999
 51
288.70843500000001
  0
LINE
  5
179
  8
DETAIL
  6
CONTINUOUS
 62
     5
 10
56.89017299999999
 20
-73.572254000000001
 30
0.0
 11
62.878613000000001
 21
-73.572254000000001
 31
0.0
  0
LINE
  5
17A
  8
DETAIL
  6
CONTINUOUS
 62
     5
 10
56.89017299999999
 20
-75.283237
 30
0.0
 11
62.878613000000001
 21
-75.283237
 31
0.0
  0
ARC
  5
17B
  8
DETAIL
  6
CONTINUOUS
 62
     5
 10
-55.390818000000003
 20
-42.132609000000002
 30
0.0
 40
81.447013999999996
 50
337.29332699999998
 51
337.959675
  0
LINE
  5
17C
  8
DETAIL
  6
CONTINUOUS
 62
     5
 10
48.335259999999991
 20
-73.572254000000001
 30
0.0
 11
54.323698999999998
 21
-73.572254000000001
 31
0.0
  0
LINE
  5
17D
  8
DETAIL
  6
CONTINUOUS
 62
     5
 10
48.335259999999991
 20
-75.283237
 30
0.0
 11
54.323698999999998
 21
-75.283237
 31
0.0
  0
LINE
  5
17E
  8
DETAIL
  6
CONTINUOUS
 62
     5
 10
39.780346999999999
 20
-73.572254000000001
 30
0.0
 11
45.768785999999992
 21
-73.572254000000001
 31
0.0
  0
LINE
  5
17F
  8
DETAIL
  6
CONTINUOUS
 62
     5
 10
39.780346999999999
 20
-75.283237
 30
0.0
 11
45.768785999999992
 21
-75.283237
 31
0.0
  0
LINE
  5
180
  8
DETAIL
  6
CONTINUOUS
 62
     5
 10
31.225434
 20
-73.572254000000001
 30
0.0
 11
37.213873
 21
-73.572254000000001
 31
0.0
  0
LINE
  5
181
  8
DETAIL
  6
CONTINUOUS
 62
     5
 10
31.225434
 20
-75.283237
 30
0.0
 11
37.213873
 21
-75.283237
 31
0.0
  0
LINE
  5
182
  8
DETAIL
  6
CONTINUOUS
 62
     5
 10
22.67052
 20
-73.572254000000001
 30
0.0
 11
28.65896
 21
-73.572254000000001
 31
0.0
  0
LINE
  5
183
  8
DETAIL
  6
CONTINUOUS
 62
     5
 10
22.67052
 20
-75.283237
 30
0.0
 11
28.65896
 21
-75.283237
 31
0.0
  0
LINE
  5
184
  8
DETAIL
  6
CONTINUOUS
 62
     5
 10
14.115607000000001
 20
-73.572254000000001
 30
0.0
 11
20.104046
 21
-73.572254000000001
 31
0.0
  0
LINE
  5
185
  8
DETAIL
  6
CONTINUOUS
 62
     5
 10
14.115607000000001
 20
-75.283237
 30
0.0
 11
20.104046
 21
-75.283237
 31
0.0
  0
LINE
  5
186
  8
DETAIL
  6
CONTINUOUS
 62
     5
 10
5.5606939999999989
 20
-73.572254000000001
 30
0.0
 11
11.549132999999999
 21
-73.572254000000001
 31
0.0
  0
LINE
  5
187
  8
DETAIL
  6
CONTINUOUS
 62
     5
 10
5.5606939999999989
 20
-75.283237
 30
0.0
 11
11.549132999999999
 21
-75.283237
 31
0.0
  0
ARC
  5
188
  8
DETAIL
  6
CONTINUOUS
 62
     5
 10
-31.479034000000009
 20
-48.059005999999997
 30
0.0
 40
67.747481999999991
 50
336.93776700000001
 51
3.8580009999999998
  0
ARC
  5
189
  8
DETAIL
  6
CONTINUOUS
 62
     5
 10
-15.526672
 20
-46.606110000000001
 30
0.0
 40
51.526932000000002
 50
3.441352999999999
 51
16.927223999999999
  0
ARC
  5
18A
  8
DETAIL
  6
CONTINUOUS
 62
     5
 10
-30.377746999999999
 20
-43.804496999999991
 30
0.0
 40
54.055770999999993
 50
356.71509900000001
 51
4.2307110000000003
  0
ARC
  5
18B
  8
DETAIL
  6
CONTINUOUS
 62
     5
 10
-42.047699000000001
 20
-43.959032000000001
 30
0.0
 40
65.702866
 50
340.68693999999999
 51
357.43275999999997
  0
LINE
  5
18C
  8
DETAIL
  6
CONTINUOUS
 62
     5
 10
108.21965299999999
 20
-73.572254000000001
 30
0.0
 11
114.20809199999999
 21
-73.572254000000001
 31
0.0
  0
LINE
  5
18D
  8
DETAIL
  6
CONTINUOUS
 62
     5
 10
108.21965299999999
 20
-75.283237
 30
0.0
 11
114.20809199999999
 21
-75.283237
 31
0.0
  0
LINE
  5
18E
  8
DETAIL
  6
CONTINUOUS
 62
     5
 10
99.664740000000009
 20
-73.572254000000001
 30
0.0
 11
105.65317899999999
 21
-73.572254000000001
 31
0.0
  0
LINE
  5
18F
  8
DETAIL
  6
CONTINUOUS
 62
     5
 10
99.664740000000009
 20
-75.283237
 30
0.0
 11
105.65317899999999
 21
-75.283237
 31
0.0
  0
LINE
  5
190
  8
DETAIL
  6
CONTINUOUS
 62
     5
 10
91.109826999999996
 20
-73.572254000000001
 30
0.0
 11
97.09826600000001
 21
-73.572254000000001
 31
0.0
  0
LINE
  5
191
  8
DETAIL
  6
CONTINUOUS
 62
     5
 10
91.109826999999996
 20
-75.283237
 30
0.0
 11
97.09826600000001
 21
-75.283237
 31
0.0
  0
LINE
  5
192
  8
DETAIL
  6
CONTINUOUS
 62
     5
 10
82.554912999999999
 20
-73.572254000000001
 30
0.0
 11
88.543352999999996
 21
-73.572254000000001
 31
0.0
  0
LINE
  5
193
  8
DETAIL
  6
CONTINUOUS
 62
     5
 10
82.554912999999999
 20
-75.283237
 30
0.0
 11
88.543352999999996
 21
-75.283237
 31
0.0
  0
LINE
  5
194
  8
DETAIL
  6
CONTINUOUS
 62
     5
 10
74.0
 20
-73.572254000000001
 30
0.0
 11
79.988439
 21
-73.572254000000001
 31
0.0
  0
LINE
  5
195
  8
DETAIL
  6
CONTINUOUS
 62
     5
 10
74.0
 20
-75.283237
 30
0.0
 11
79.988439
 21
-75.283237
 31
0.0
  0
LINE
  5
196
  8
DETAIL
  6
CONTINUOUS
 62
     5
 10
65.445087000000001
 20
-73.572254000000001
 30
0.0
 11
71.433526000000001
 21
-73.572254000000001
 31
0.0
  0
LINE
  5
197
  8
DETAIL
  6
CONTINUOUS
 62
     5
 10
65.445087000000001
 20
-75.283237
 30
0.0
 11
71.433526000000001
 21
-75.283237
 31
0.0
  0
ARC
  5
198
  8
DETAIL
  6
CONTINUOUS
 62
     5
 10
0.0
 20
0.0
 30
0.0
 40
104.999954
 50
333.194277
 51
354.59981699999997
  0
LINE
  5
199
  8
DETAIL
  6
CONTINUOUS
 62
     5
 10
116.77456599999999
 20
-75.283237
 30
0.0
 11
122.763006
 21
-75.283237
 31
0.0
  0
LINE
  5
19A
  8
DETAIL
  6
CONTINUOUS
 62
     5
 10
116.77456599999999
 20
-73.572254000000001
 30
0.0
 11
122.763006
 21
-73.572254000000001
 31
0.0
  0
ARC
  5
19B
  8
DETAIL
  6
CONTINUOUS
 62
     5
 10
107.36416199999999
 20
107.36416199999999
 30
0.0
 40
15.398844
 50
0.0
 51
90.0
  0
ARC
  5
19C
  8
DETAIL
  6
CONTINUOUS
 62
     5
 10
0.0
 20
0.0
 30
0.0
 40
104.999954
 50
18.708527
 51
84.599924999999999
  0
LINE
  5
19D
  8
DETAIL
  6
CONTINUOUS
 62
     5
 10
56.89017299999999
 20
73.572254000000001
 30
0.0
 11
62.878613000000001
 21
73.572254000000001
 31
0.0
  0
LINE
  5
19E
  8
DETAIL
  6
CONTINUOUS
 62
     5
 10
56.89017299999999
 20
75.283237
 30
0.0
 11
62.878613000000001
 21
75.283237
 31
0.0
  0
ARC
  5
19F
  8
DETAIL
  6
CONTINUOUS
 62
     5
 10
43.959076000000003
 20
-42.047702999999998
 30
0.0
 40
65.702866
 50
70.686993999999984
 51
87.432813999999993
  0
ARC
  5
1A0
  8
DETAIL
  6
CONTINUOUS
 62
     5
 10
48.059052000000001
 20
-31.479035
 30
0.0
 40
67.747481999999991
 50
66.937876000000003
 51
93.858110000000025
  0
LINE
  5
1A1
  8
DETAIL
  6
CONTINUOUS
 62
     5
 10
48.335259999999991
 20
73.572254000000001
 30
0.0
 11
54.323698999999998
 21
73.572254000000001
 31
0.0
  0
LINE
  5
1A2
  8
DETAIL
  6
CONTINUOUS
 62
     5
 10
48.335259999999991
 20
75.283237
 30
0.0
 11
54.323698999999998
 21
75.283237
 31
0.0
  0
LINE
  5
1A3
  8
DETAIL
  6
CONTINUOUS
 62
     5
 10
39.780346999999999
 20
73.572254000000001
 30
0.0
 11
45.768785999999992
 21
73.572254000000001
 31
0.0
  0
LINE
  5
1A4
  8
DETAIL
  6
CONTINUOUS
 62
     5
 10
39.780346999999999
 20
75.283237
 30
0.0
 11
45.768785999999992
 21
75.283237
 31
0.0
  0
LINE
  5
1A5
  8
DETAIL
  6
CONTINUOUS
 62
     5
 10
31.225434
 20
73.572254000000001
 30
0.0
 11
37.213873
 21
73.572254000000001
 31
0.0
  0
LINE
  5
1A6
  8
DETAIL
  6
CONTINUOUS
 62
     5
 10
31.225434
 20
75.283237
 30
0.0
 11
37.213873
 21
75.283237
 31
0.0
  0
LINE
  5
1A7
  8
DETAIL
  6
CONTINUOUS
 62
     5
 10
22.67052
 20
73.572254000000001
 30
0.0
 11
28.65896
 21
73.572254000000001
 31
0.0
  0
LINE
  5
1A8
  8
DETAIL
  6
CONTINUOUS
 62
     5
 10
22.67052
 20
75.283237
 30
0.0
 11
28.65896
 21
75.283237
 31
0.0
  0
LINE
  5
1A9
  8
DETAIL
  6
CONTINUOUS
 62
     5
 10
14.115607000000001
 20
73.572254000000001
 30
0.0
 11
20.104046
 21
73.572254000000001
 31
0.0
  0
LINE
  5
1AA
  8
DETAIL
  6
CONTINUOUS
 62
     5
 10
14.115607000000001
 20
75.283237
 30
0.0
 11
20.104046
 21
75.283237
 31
0.0
  0
LINE
  5
1AB
  8
DETAIL
  6
CONTINUOUS
 62
     5
 10
5.5606939999999989
 20
73.572254000000001
 30
0.0
 11
11.549132999999999
 21
73.572254000000001
 31
0.0
  0
LINE
  5
1AC
  8
DETAIL
  6
CONTINUOUS
 62
     5
 10
5.5606939999999989
 20
75.283237
 30
0.0
 11
11.549132999999999
 21
75.283237
 31
0.0
  0
ARC
  5
1AD
  8
DETAIL
  6
CONTINUOUS
 62
     5
 10
46.606155000000001
 20
-15.526662999999999
 30
0.0
 40
51.526932000000002
 50
93.441632000000027
 51
106.927322
  0
ARC
  5
1AE
  8
DETAIL
  6
CONTINUOUS
 62
     5
 10
43.804459000000001
 20
-30.377751
 30
0.0
 40
54.055770999999993
 50
86.715207000000007
 51
94.230710000000016
  0
LINE
  5
1AF
  8
DETAIL
  6
CONTINUOUS
 62
     5
 10
108.21965299999999
 20
73.572254000000001
 30
0.0
 11
114.20809199999999
 21
73.572254000000001
 31
0.0
  0
LINE
  5
1B0
  8
DETAIL
  6
CONTINUOUS
 62
     5
 10
108.21965299999999
 20
75.283237
 30
0.0
 11
114.20809199999999
 21
75.283237
 31
0.0
  0
LINE
  5
1B1
  8
DETAIL
  6
CONTINUOUS
 62
     5
 10
99.664740000000009
 20
73.572254000000001
 30
0.0
 11
105.65317899999999
 21
73.572254000000001
 31
0.0
  0
LINE
  5
1B2
  8
DETAIL
  6
CONTINUOUS
 62
     5
 10
99.664740000000009
 20
75.283237
 30
0.0
 11
105.65317899999999
 21
75.283237
 31
0.0
  0
LINE
  5
1B3
  8
DETAIL
  6
CONTINUOUS
 62
     5
 10
91.109826999999996
 20
73.572254000000001
 30
0.0
 11
97.09826600000001
 21
73.572254000000001
 31
0.0
  0
LINE
  5
1B4
  8
DETAIL
  6
CONTINUOUS
 62
     5
 10
91.109826999999996
 20
75.283237
 30
0.0
 11
97.09826600000001
 21
75.283237
 31
0.0
  0
LINE
  5
1B5
  8
DETAIL
  6
CONTINUOUS
 62
     5
 10
82.554912999999999
 20
73.572254000000001
 30
0.0
 11
88.543352999999996
 21
73.572254000000001
 31
0.0
  0
LINE
  5
1B6
  8
DETAIL
  6
CONTINUOUS
 62
     5
 10
82.554912999999999
 20
75.283237
 30
0.0
 11
88.543352999999996
 21
75.283237
 31
0.0
  0
LINE
  5
1B7
  8
DETAIL
  6
CONTINUOUS
 62
     5
 10
74.0
 20
73.572254000000001
 30
0.0
 11
79.988439
 21
73.572254000000001
 31
0.0
  0
LINE
  5
1B8
  8
DETAIL
  6
CONTINUOUS
 62
     5
 10
74.0
 20
75.283237
 30
0.0
 11
79.988439
 21
75.283237
 31
0.0
  0
LINE
  5
1B9
  8
DETAIL
  6
CONTINUOUS
 62
     5
 10
65.445087000000001
 20
73.572254000000001
 30
0.0
 11
71.433526000000001
 21
73.572254000000001
 31
0.0
  0
LINE
  5
1BA
  8
DETAIL
  6
CONTINUOUS
 62
     5
 10
65.445087000000001
 20
75.283237
 30
0.0
 11
71.433526000000001
 21
75.283237
 31
0.0
  0
ARC
  5
1BB
  8
DETAIL
  6
CONTINUOUS
 62
     5
 10
0.0
 20
0.0
 30
0.0
 40
114.63583800000001
 50
39.431178000000003
 51
39.925503000000013
  0
ARC
  5
1BC
  8
DETAIL
  6
CONTINUOUS
 62
     5
 10
91.802093999999997
 20
31.088394000000001
 30
0.0
 40
8.0769199999999994
 50
279.036068
 51
7.3789909999999992
  0
ARC
  5
1BD
  8
DETAIL
  6
CONTINUOUS
 62
     5
 10
91.802093999999997
 20
31.088394000000001
 30
0.0
 40
8.0769199999999994
 50
237.16143500000001
 51
279.036068
  0
ARC
  5
1BE
  8
DETAIL
  6
CONTINUOUS
 62
     5
 10
43.430785999999998
 20
-45.249924
 30
0.0
 40
82.298309000000003
 50
57.515985000000001
 51
67.728920999999985
  0
ARC
  5
1BF
  8
DETAIL
  6
CONTINUOUS
 62
     5
 10
39.374588000000003
 20
-52.295929000000001
 30
0.0
 40
76.896286000000003
 50
54.348945999999991
 51
69.988784999999993
  0
LINE
  5
1C0
  8
DETAIL
  6
CONTINUOUS
 62
     5
 10
116.77456599999999
 20
75.283237
 30
0.0
 11
122.763006
 21
75.283237
 31
0.0
  0
LINE
  5
1C1
  8
DETAIL
  6
CONTINUOUS
 62
     5
 10
116.77456599999999
 20
73.572254000000001
 30
0.0
 11
122.763006
 21
73.572254000000001
 31
0.0
  0
LINE
  5
1C2
  8
SIZE
  6
CONTINUOUS
 62
    30
 10
-173.0
 20
183.0
 30
0.0
 11
-173.0
 21
411.40101600000003
 31
0.0
  0
LINE
  5
1C3
  8
SIZE
  6
CONTINUOUS
 62
    30
 10
173.0
 20
183.0
 30
0.0
 11
173.0
 21
411.40101600000003
 31
0.0
  0
LINE
  5
1C4
  8
SIZE
  6
CONTINUOUS
 62
    30
 10
-161.0
 20
391.40101600000008
 30
0.0
 11
161.0
 21
391.40101600000008
 31
0.0
  0
CIRCLE
  5
1C5
  8
SIZE
  6
CONTINUOUS
 62
    30
 10
-173.0
 20
391.40101600000008
 30
0.0
 40
6.0
  0
LINE
  5
1C6
  8
SIZE
  6
CONTINUOUS
 62
    30
 10
-173.0
 20
391.40101600000008
 30
0.0
 11
-161.0
 21
391.40101600000008
 31
0.0
  0
CIRCLE
  5
1C7
  8
SIZE
  6
CONTINUOUS
 62
    30
 10
173.0
 20
391.40101600000008
 30
0.0
 40
6.0
  0
LINE
  5
1C8
  8
SIZE
  6
CONTINUOUS
 62
    30
 10
173.0
 20
391.40101600000008
 30
0.0
 11
161.0
 21
391.40101600000008
 31
0.0
  0
TEXT
  5
1C9
  8
SIZE
  6
CONTINUOUS
 62
    30
 10
-72.685714285714297
 20
416.40101600000003
 30
0.0
 40
64.0
  1
346
 41
0.9
 72
     1
 11
0.0
 21
416.40101600000003
 31
0.0
  0
POINT
  5
1CA
  8
DEFPOINTS
  6
CONTINUOUS
 62
    30
 10
-173.0
 20
163.0
 30
0.0
  0
POINT
  5
1CB
  8
DEFPOINTS
  6
CONTINUOUS
 62
    30
 10
173.0
 20
163.0
 30
0.0
  0
POINT
  5
1CC
  8
DEFPOINTS
  6
CONTINUOUS
 62
    30
 10
173.0
 20
391.40101600000008
 30
0.0
  0
LINE
  5
1CD
  8
SIZE
  6
CONTINUOUS
 62
    30
 10
205.0
 20
0.0
 30
0.0
 11
342.02866699999998
 21
0.0
 31
0.0
  0
LINE
  5
1CE
  8
SIZE
  6
CONTINUOUS
 62
    30
 10
183.0
 20
-173.0
 30
0.0
 11
342.02866699999998
 21
-173.0
 31
0.0
  0
LINE
  5
1CF
  8
SIZE
  6
CONTINUOUS
 62
    30
 10
322.02866699999998
 20
12.0
 30
0.0
 11
322.02866699999998
 21
24.0
 31
0.0
  0
LINE
  5
1D0
  8
SIZE
  6
CONTINUOUS
 62
    30
 10
322.02866699999998
 20
-185.0
 30
0.0
 11
322.02866699999998
 21
-197.0
 31
0.0
  0
LINE
  5
1D1
  8
SIZE
  6
CONTINUOUS
 62
    30
 10
322.02866699999998
 20
0.0
 30
0.0
 11
322.02866699999998
 21
-173.0
 31
0.0
  0
CIRCLE
  5
1D2
  8
SIZE
  6
CONTINUOUS
 62
    30
 10
322.02866699999998
 20
0.0
 30
0.0
 40
6.0
  0
LINE
  5
1D3
  8
SIZE
  6
CONTINUOUS
 62
    30
 10
322.02866699999998
 20
0.0
 30
0.0
 11
322.02866699999998
 21
12.0
 31
0.0
  0
CIRCLE
  5
1D4
  8
SIZE
  6
CONTINUOUS
 62
    30
 10
322.02866699999998
 20
-173.0
 30
0.0
 40
6.0
  0
LINE
  5
1D5
  8
SIZE
  6
CONTINUOUS
 62
    30
 10
322.02866699999998
 20
-173.0
 30
0.0
 11
322.02866699999998
 21
-185.0
 31
0.0
  0
TEXT
  5
1D6
  8
SIZE
  6
CONTINUOUS
 62
    30
 10
297.02866699999998
 20
-155.0714285714285
 30
0.0
 40
64.0
  1
173
 50
90.0
 41
0.9
 72
     1
 11
297.02866699999998
 21
-86.5
 31
0.0
  0
POINT
  5
1D7
  8
DEFPOINTS
  6
CONTINUOUS
 62
    30
 10
185.0
 20
0.0
 30
0.0
  0
POINT
  5
1D8
  8
DEFPOINTS
  6
CONTINUOUS
 62
    30
 10
163.0
 20
-173.0
 30
0.0
  0
POINT
  5
1D9
  8
DEFPOINTS
  6
CONTINUOUS
 62
    30
 10
322.02866699999998
 20
-173.0
 30
0.0
  0
LINE
  5
1DA
  8
SIZE
  6
CONTINUOUS
 62
    30
 10
183.0
 20
173.0
 30
0.0
 11
490.102509
 21
173.0
 31
0.0
  0
LINE
  5
1DB
  8
SIZE
  6
CONTINUOUS
 62
    30
 10
183.0
 20
-173.0
 30
0.0
 11
490.102509
 21
-173.0
 31
0.0
  0
LINE
  5
1DC
  8
SIZE
  6
CONTINUOUS
 62
    30
 10
470.10250899999988
 20
161.0
 30
0.0
 11
470.10250899999988
 21
-161.0
 31
0.0
  0
CIRCLE
  5
1DD
  8
SIZE
  6
CONTINUOUS
 62
    30
 10
470.10250899999988
 20
173.0
 30
0.0
 40
6.0
  0
LINE
  5
1DE
  8
SIZE
  6
CONTINUOUS
 62
    30
 10
470.10250899999988
 20
173.0
 30
0.0
 11
470.10250899999988
 21
161.0
 31
0.0
  0
CIRCLE
  5
1DF
  8
SIZE
  6
CONTINUOUS
 62
    30
 10
470.10250899999988
 20
-173.0
 30
0.0
 40
6.0
  0
LINE
  5
1E0
  8
SIZE
  6
CONTINUOUS
 62
    30
 10
470.10250899999988
 20
-173.0
 30
0.0
 11
470.10250899999988
 21
-161.0
 31
0.0
  0
TEXT
  5
1E1
  8
SIZE
  6
CONTINUOUS
 62
    30
 10
445.10250899999988
 20
-72.685714285714297
 30
0.0
 40
64.0
  1
346
 50
90.0
 41
0.9
 72
     1
 11
445.10250899999988
 21
0.0
 31
0.0
  0
POINT
  5
1E2
  8
DEFPOINTS
  6
CONTINUOUS
 62
    30
 10
163.0
 20
173.0
 30
0.0
  0
POINT
  5
1E3
  8
DEFPOINTS
  6
CONTINUOUS
 62
    30
 10
163.0
 20
-173.0
 30
0.0
  0
POINT
  5
1E4
  8
DEFPOINTS
  6
CONTINUOUS
 62
    30
 10
470.10250899999988
 20
-173.0
 30
0.0
  0
LINE
  5
1E5
  8
NOTE
  6
CONTINUOUS
 62
     4
 10
160.0
 20
162.0
 30
0.0
 11
160.0
 21
202.0
 31
0.0
  0
LINE
  5
1E6
  8
NOTE
  6
CONTINUOUS
 62
     4
 10
140.0
 20
182.0
 30
0.0
 11
180.0
 21
182.0
 31
0.0
  0
LINE
  5
1E7
  8
NOTE
  6
CONTINUOUS
 62
     4
 10
-160.0
 20
162.0
 30
0.0
 11
-160.0
 21
202.0
 31
0.0
  0
LINE
  5
1E8
  8
NOTE
  6
CONTINUOUS
 62
     4
 10
-180.0
 20
182.0
 30
0.0
 11
-140.0
 21
182.0
 31
0.0
  0
LINE
  5
1E9
  8
NOTE
  6
CONTINUOUS
 62
     4
 10
-160.0
 20
-214.0
 30
0.0
 11
-160.0
 21
-174.0
 31
0.0
  0
LINE
  5
1EA
  8
NOTE
  6
CONTINUOUS
 62
     4
 10
-180.0
 20
-194.0
 30
0.0
 11
-140.0
 21
-194.0
 31
0.0
  0
LINE
  5
1EB
  8
NOTE
  6
CONTINUOUS
 62
     4
 10
160.0
 20
-214.0
 30
0.0
 11
160.0
 21
-174.0
 31
0.0
  0
LINE
  5
1EC
  8
NOTE
  6
CONTINUOUS
 62
     4
 10
140.0
 20
-194.0
 30
0.0
 11
180.0
 21
-194.0
 31
0.0
  0
LINE
  5
1ED
  8
NOTE
  6
CONTINUOUS
 62
     4
 10
172.7390879999999
 20
219.91722100000001
 30
0.0
 11
160.0
 21
182.0
 31
0.0
  0
LINE
  5
1EE
  8
NOTE
  6
CONTINUOUS
 62
     4
 10
160.0
 20
182.0
 30
0.0
 11
189.990984
 21
208.46773300000001
 31
0.0
  0
CIRCLE
  5
1EF
  8
FIX
  6
CONTINUOUS
 62
    11
 39
50.0
 10
160.0
 20
182.0
 30
0.0
 40
3.0
  0
CIRCLE
  5
1F0
  8
FIX
  6
CONTINUOUS
 62
    11
 39
50.0
 10
-160.0
 20
182.0
 30
0.0
 40
3.0
  0
CIRCLE
  5
1F1
  8
FIX
  6
CONTINUOUS
 62
    11
 39
50.0
 10
-160.0
 20
-194.0
 30
0.0
 40
3.0
  0
CIRCLE
  5
1F2
  8
FIX
  6
CONTINUOUS
 62
    11
 39
50.0
 10
160.0
 20
-194.0
 30
0.0
 40
3.0
  0
LINE
  5
1F3
  8
SIZE
  6
CONTINUOUS
 62
    30
 10
160.0
 20
202.0
 30
0.0
 11
160.0
 21
286.37037599999991
 31
0.0
  0
LINE
  5
1F4
  8
SIZE
  6
CONTINUOUS
 62
    30
 10
-160.0
 20
202.0
 30
0.0
 11
-160.0
 21
286.37037599999991
 31
0.0
  0
LINE
  5
1F5
  8
SIZE
  6
CONTINUOUS
 62
    30
 10
148.0
 20
266.37037600000002
 30
0.0
 11
-148.0
 21
266.37037600000002
 31
0.0
  0
CIRCLE
  5
1F6
  8
SIZE
  6
CONTINUOUS
 62
    30
 10
160.0
 20
266.37037600000002
 30
0.0
 40
6.0
  0
LINE
  5
1F7
  8
SIZE
  6
CONTINUOUS
 62
    30
 10
160.0
 20
266.37037600000002
 30
0.0
 11
148.0
 21
266.37037600000002
 31
0.0
  0
CIRCLE
  5
1F8
  8
SIZE
  6
CONTINUOUS
 62
    30
 10
-160.0
 20
266.37037600000002
 30
0.0
 40
6.0
  0
LINE
  5
1F9
  8
SIZE
  6
CONTINUOUS
 62
    30
 10
-160.0
 20
266.37037600000002
 30
0.0
 11
-148.0
 21
266.37037600000002
 31
0.0
  0
TEXT
  5
1FA
  8
SIZE
  6
CONTINUOUS
 62
    30
 10
-74.05714285714285
 20
291.37037600000002
 30
0.0
 40
64.0
  1
320
 41
0.9
 72
     1
 11
0.0
 21
291.37037600000002
 31
0.0
  0
POINT
  5
1FB
  8
DEFPOINTS
  6
CONTINUOUS
 62
    30
 10
160.0
 20
182.0
 30
0.0
  0
POINT
  5
1FC
  8
DEFPOINTS
  6
CONTINUOUS
 62
    30
 10
-160.0
 20
182.0
 30
0.0
  0
POINT
  5
1FD
  8
DEFPOINTS
  6
CONTINUOUS
 62
    30
 10
-160.0
 20
266.37037600000002
 30
0.0
  0
LINE
  5
1FE
  8
SIZE
  6
CONTINUOUS
 62
    30
 10
180.0
 20
-194.0
 30
0.0
 11
655.33255599999995
 21
-194.0
 31
0.0
  0
LINE
  5
1FF
  8
SIZE
  6
CONTINUOUS
 62
    30
 10
180.0
 20
182.0
 30
0.0
 11
655.33255599999995
 21
182.0
 31
0.0
  0
LINE
  5
200
  8
SIZE
  6
CONTINUOUS
 62
    30
 10
635.33255599999995
 20
-182.0
 30
0.0
 11
635.33255599999995
 21
170.0
 31
0.0
  0
CIRCLE
  5
201
  8
SIZE
  6
CONTINUOUS
 62
    30
 10
635.33255599999995
 20
-194.0
 30
0.0
 40
6.0
  0
LINE
  5
202
  8
SIZE
  6
CONTINUOUS
 62
    30
 10
635.33255599999995
 20
-194.0
 30
0.0
 11
635.33255599999995
 21
-182.0
 31
0.0
  0
CIRCLE
  5
203
  8
SIZE
  6
CONTINUOUS
 62
    30
 10
635.33255599999995
 20
182.0
 30
0.0
 40
6.0
  0
LINE
  5
204
  8
SIZE
  6
CONTINUOUS
 62
    30
 10
635.33255599999995
 20
182.0
 30
0.0
 11
635.33255599999995
 21
170.0
 31
0.0
  0
TEXT
  5
205
  8
SIZE
  6
CONTINUOUS
 62
    30
 10
610.33255599999995
 20
-78.685714285714283
 30
0.0
 40
64.0
  1
376
 50
90.0
 41
0.9
 72
     1
 11
610.33255599999995
 21
-6.0
 31
0.0
  0
POINT
  5
206
  8
DEFPOINTS
  6
CONTINUOUS
 62
    30
 10
160.0
 20
-194.0
 30
0.0
  0
POINT
  5
207
  8
DEFPOINTS
  6
CONTINUOUS
 62
    30
 10
160.0
 20
182.0
 30
0.0
  0
POINT
  5
208
  8
DEFPOINTS
  6
CONTINUOUS
 62
    30
 10
635.33255599999995
 20
182.0
 30
0.0
  0
LINE
  5
209
  8
SIZE
  6
CONTINUOUS
 62
    30
 10
190.0
 20
205.0
 30
0.0
 11
655.33255599999995
 21
205.0
 31
0.0
  0
LINE
  5
20A
  8
SIZE
  6
CONTINUOUS
 62
    30
 10
180.0
 20
182.0
 30
0.0
 11
655.33255599999995
 21
182.0
 31
0.0
  0
LINE
  5
20B
  8
SIZE
  6
CONTINUOUS
 62
    30
 10
635.33255599999995
 20
217.0
 30
0.0
 11
635.33255599999995
 21
229.0
 31
0.0
  0
LINE
  5
20C
  8
SIZE
  6
CONTINUOUS
 62
    30
 10
635.33255599999995
 20
170.0
 30
0.0
 11
635.33255599999995
 21
158.0
 31
0.0
  0
LINE
  5
20D
  8
SIZE
  6
CONTINUOUS
 62
    30
 10
635.33255599999995
 20
377.11977899999999
 30
0.0
 11
635.33255599999995
 21
205.0
 31
0.0
  0
TEXT
  5
20E
  8
SIZE
  6
CONTINUOUS
 62
    30
 10
610.33255599999995
 20
258.8626365714286
 30
0.0
 40
64.0
  1
23
 50
90.0
 41
0.9
 72
     1
 11
610.33255599999995
 21
305.49120799999997
 31
0.0
  0
LINE
  5
20F
  8
SIZE
  6
CONTINUOUS
 62
    30
 10
635.33255599999995
 20
205.0
 30
0.0
 11
635.33255599999995
 21
182.0
 31
0.0
  0
LINE
  5
210
  8
SIZE
  6
CONTINUOUS
 62
    30
 10
635.33255599999995
 20
205.0
 30
0.0
 11
635.33255599999995
 21
182.0
 31
0.0
  0
CIRCLE
  5
211
  8
SIZE
  6
CONTINUOUS
 62
    30
 10
635.33255599999995
 20
205.0
 30
0.0
 40
6.0
  0
LINE
  5
212
  8
SIZE
  6
CONTINUOUS
 62
    30
 10
635.33255599999995
 20
205.0
 30
0.0
 11
635.33255599999995
 21
217.0
 31
0.0
  0
CIRCLE
  5
213
  8
SIZE
  6
CONTINUOUS
 62
    30
 10
635.33255599999995
 20
182.0
 30
0.0
 40
6.0
  0
LINE
  5
214
  8
SIZE
  6
CONTINUOUS
 62
    30
 10
635.33255599999995
 20
182.0
 30
0.0
 11
635.33255599999995
 21
170.0
 31
0.0
  0
POINT
  5
215
  8
DEFPOINTS
  6
CONTINUOUS
 62
    30
 10
170.0
 20
205.0
 30
0.0
  0
POINT
  5
216
  8
DEFPOINTS
  6
CONTINUOUS
 62
    30
 10
160.0
 20
182.0
 30
0.0
  0
POINT
  5
217
  8
DEFPOINTS
  6
CONTINUOUS
 62
    30
 10
635.33255599999995
 20
182.0
 30
0.0
  0
TEXT
  5
218
  8
NOTE
  6
CONTINUOUS
 62
     4
 10
312.3712339999999
 20
406.60396600000001
 30
0.0
 40
64.0
  1
4×φ6パネル固定用穴
 41
0.9
  0
LINE
  5
219
  8
NOTE
  6
CONTINUOUS
 62
     4
 39
50.0
 10
160.0
 20
182.0
 30
0.0
 11
303.59563700000001
 21
396.35551199999998
 31
0.0
  0
LINE
  5
21A
  8
NOTE
  6
CONTINUOUS
 62
     4
 39
50.0
 10
303.59563700000001
 20
396.35551199999998
 30
0.0
 11
1025.6710029999999
 21
396.35551199999998
 31
0.0
  0
TEXT
  5
223
  8
ETC
  6
CONTINUOUS
 62
    61
 10
546.84679392602902
 20
781.93611120009552
 30
0.0
 40
40.0
  1
EX-25SC-S_2
 41
0.9
  0
TEXT
  5
224
  8
ETC
  6
CONTINUOUS
 62
    61
 10
538.773314926029
 20
718.03106820009543
 30
0.0
 40
40.0
  1
換気扇
 41
0.9
  0
TEXT
  5
225
  8
ETC
  6
CONTINUOUS
 62
    61
 10
600.12151901301559
 20
647.61476047143151
 30
0.0
 40
40.0
  1
EX-25SC-S
 41
0.9
  0
TEXT
  5
226
  8
ETC
  6
CONTINUOUS
 62
    61
 10
600.12151901301559
 20
577.28209560023652
 30
0.0
 40
40.0
  1
EX-25SC-RK
 41
0.9
  0
ENDSEC
  0
EOF
