  0
SECTION
  2
HEADER
  9
$ACADVER
  1
AC1009
  9
$INSBASE
 10
0.0
 20
0.0
 30
0.0
  9
$EXTMIN
 10
-402.65114899999998
 20
-657.78334100000006
 30
0.0
  9
$EXTMAX
 10
1216.4802800210109
 20
704.1518664794213
 30
50.0
  9
$LIMMIN
 10
-2970.0
 20
-2100.0
  9
$LIMMAX
 10
2970.0
 20
2100.0
  9
$ORTHOMODE
 70
     1
  9
$REGENMODE
 70
     1
  9
$FILLMODE
 70
     1
  9
$QTEXTMODE
 70
     0
  9
$MIRRTEXT
 70
     0
  9
$DRAGMODE
 70
     2
  9
$LTSCALE
 40
20.0
  9
$OSMODE
 70
    47
  9
$ATTMODE
 70
     1
  9
$TEXTSIZE
 40
64.0
  9
$TRACEWID
 40
0.05
  9
$TEXTSTYLE
  7
STANDARD
  9
$CLAYER
  8
DETAIL
  9
$CELTYPE
  6
CONTINUOUS
  9
$CECOLOR
 62
     5
  9
$DIMSCALE
 40
1.0
  9
$DIMASZ
 40
12.0
  9
$DIMEXO
 40
20.0
  9
$DIMDLI
 40
200.0
  9
$DIMRND
 40
0.0
  9
$DIMDLE
 40
0.0
  9
$DIMEXE
 40
20.0
  9
$DIMTP
 40
0.0
  9
$DIMTM
 40
0.0
  9
$DIMTXT
 40
64.0
  9
$DIMCEN
 40
0.09
  9
$DIMTSZ
 40
0.0
  9
$DIMTOL
 70
     0
  9
$DIMLIM
 70
     0
  9
$DIMTIH
 70
     0
  9
$DIMTOH
 70
     0
  9
$DIMSE1
 70
     0
  9
$DIMSE2
 70
     0
  9
$DIMTAD
 70
     1
  9
$DIMZIN
 70
     8
  9
$DIMBLK
  1
DOT1
  9
$DIMASO
 70
     1
  9
$DIMSHO
 70
     0
  9
$DIMPOST
  1

  9
$DIMAPOST
  1

  9
$DIMALT
 70
     0
  9
$DIMALTD
 70
     2
  9
$DIMALTF
 40
25.399999999999999
  9
$DIMLFAC
 40
1.0
  9
$DIMTOFL
 70
     1
  9
$DIMTVP
 40
0.0
  9
$DIMTIX
 70
     1
  9
$DIMSOXD
 70
     0
  9
$DIMSAH
 70
     1
  9
$DIMBLK1
  1
ORIGIN
  9
$DIMBLK2
  1
ORIGIN
  9
$DIMSTYLE
  2
STANDARD
  9
$DIMCLRD
 70
     7
  9
$DIMCLRE
 70
     7
  9
$DIMCLRT
 70
     7
  9
$DIMTFAC
 40
1.0
  9
$DIMGAP
 40
25.0
  9
$LUNITS
 70
     2
  9
$LUPREC
 70
     4
  9
$SKETCHINC
 40
0.1
  9
$FILLETRAD
 40
10.0
  9
$AUNITS
 70
     1
  9
$AUPREC
 70
     3
  9
$MENU
  1
ACAD
  9
$ELEVATION
 40
0.0
  9
$PELEVATION
 40
0.0
  9
$THICKNESS
 40
50.0
  9
$LIMCHECK
 70
     0
  9
$BLIPMODE
 70
     0
  9
$CHAMFERA
 40
0.0
  9
$CHAMFERB
 40
0.0
  9
$SKPOLY
 70
     0
  9
$TDCREATE
 40
2451453.49385081
  9
$TDUPDATE
 40
2455110.5972708678
  9
$TDINDWG
 40
0.7968379861
  9
$TDUSRTIMER
 40
0.7968378125
  9
$USRTIMER
 70
     1
  9
$ANGBASE
 50
0.0
  9
$ANGDIR
 70
     0
  9
$PDMODE
 70
     3
  9
$PDSIZE
 40
-2.0
  9
$PLINEWID
 40
0.0
  9
$COORDS
 70
     0
  9
$SPLFRAME
 70
     0
  9
$SPLINETYPE
 70
     6
  9
$SPLINESEGS
 70
     8
  9
$ATTDIA
 70
     0
  9
$ATTREQ
 70
     1
  9
$HANDLING
 70
     1
  9
$HANDSEED
  5
1B4
  9
$SURFTAB1
 70
     6
  9
$SURFTAB2
 70
     6
  9
$SURFTYPE
 70
     6
  9
$SURFU
 70
     6
  9
$SURFV
 70
     6
  9
$UCSNAME
  2

  9
$UCSORG
 10
0.0
 20
0.0
 30
0.0
  9
$UCSXDIR
 10
1.0
 20
0.0
 30
0.0
  9
$UCSYDIR
 10
0.0
 20
1.0
 30
0.0
  9
$PUCSNAME
  2

  9
$PUCSORG
 10
0.0
 20
0.0
 30
0.0
  9
$PUCSXDIR
 10
1.0
 20
0.0
 30
0.0
  9
$PUCSYDIR
 10
0.0
 20
1.0
 30
0.0
  9
$USERI1
 70
     0
  9
$USERI2
 70
     0
  9
$USERI3
 70
     0
  9
$USERI4
 70
     0
  9
$USERI5
 70
     0
  9
$USERR1
 40
20.0
  9
$USERR2
 40
0.0
  9
$USERR3
 40
0.0
  9
$USERR4
 40
0.0
  9
$USERR5
 40
0.0
  9
$WORLDVIEW
 70
     1
  9
$SHADEDGE
 70
     3
  9
$SHADEDIF
 70
    70
  9
$TILEMODE
 70
     1
  9
$MAXACTVP
 70
    48
  9
$PLIMCHECK
 70
     0
  9
$PEXTMIN
 10
-1.0000000000000000E+020
 20
-1.0000000000000000E+020
 30
-1.0000000000000000E+020
  9
$PEXTMAX
 10
1.0000000000000000E+020
 20
1.0000000000000000E+020
 30
1.0000000000000000E+020
  9
$PLIMMIN
 10
0.0
 20
0.0
  9
$PLIMMAX
 10
12.0
 20
9.0
  9
$UNITMODE
 70
     0
  9
$VISRETAIN
 70
     0
  9
$PLINEGEN
 70
     0
  9
$PSLTSCALE
 70
     0
  0
ENDSEC
  0
SECTION
  2
TABLES
  0
TABLE
  2
VPORT
 70
     1
  0
VPORT
  2
*ACTIVE
 70
     0
 10
0.0
 20
0.0
 11
1.0
 21
1.0
 12
449.04908041024908
 22
110.6650060265017
 13
0.0
 23
0.0
 14
1.0
 24
1.0
 15
0.0
 25
0.0
 16
0.0
 26
0.0
 36
1.0
 17
0.0
 27
0.0
 37
0.0
 40
1611.9269334886781
 41
1.294617563739376
 42
50.0
 43
0.0
 44
0.0
 50
0.0
 51
0.0
 71
     0
 72
   100
 73
     1
 74
     0
 75
     0
 76
     0
 77
     0
 78
     0
  0
ENDTAB
  0
TABLE
  2
LTYPE
 70
     3
  0
LTYPE
  2
CONTINUOUS
 70
     0
  3
実線
 72
    65
 73
     0
 40
0.0
  0
LTYPE
  2
DASHDOT
 70
     0
  3
____ _ ____ _ ____ _ ____ _ ____ _ ____ _ ____
 72
    65
 73
     4
 40
5.5
 49
4.0
 49
-0.6
 49
0.3
 49
-0.6
  0
ENDTAB
  0
TABLE
  2
LAYER
 70
    12
  0
LAYER
  2
0
 70
     0
 62
     7
  6
CONTINUOUS
  0
LAYER
  2
DETAIL
 70
     0
 62
     5
  6
CONTINUOUS
  0
LAYER
  2
BASIS
 70
     0
 62
     6
  6
DASHDOT
  0
LAYER
  2
OUTLINE
 70
     0
 62
     3
  6
CONTINUOUS
  0
LAYER
  2
SIZE
 70
     0
 62
    30
  6
CONTINUOUS
  0
LAYER
  2
ARRANGE
 70
     0
 62
     1
  6
CONTINUOUS
  0
LAYER
  2
DEFPOINTS
 70
     0
 62
     7
  6
CONTINUOUS
  0
LAYER
  2
ETC
 70
     0
 62
    61
  6
CONTINUOUS
  0
LAYER
  2
FIX
 70
     0
 62
    11
  6
CONTINUOUS
  0
LAYER
  2
NOTE
 70
     0
 62
     4
  6
CONTINUOUS
  0
LAYER
  2
SERVICESPACE
 70
     0
 62
     2
  6
DASHDOT
  0
LAYER
  2
SYMBOLLINE
 70
     0
 62
    15
  6
CONTINUOUS
  0
ENDTAB
  0
TABLE
  2
STYLE
 70
     2
  0
STYLE
  2
STANDARD
 70
     0
 40
64.0
 41
0.9
 50
0.0
 71
     0
 42
64.0
  3
SIMPLEX.shx
  4
BIGFONT.shx
  0
STYLE
  2
ANNOTATIVE
 70
     0
 40
0.0
 41
1.0
 50
0.0
 71
     0
 42
0.2
  3
txt
  4

  0
ENDTAB
  0
TABLE
  2
VIEW
 70
     1
  0
VIEW
  2
ALL
 70
     0
 40
4282.6198079999986
 10
0.0
 20
41.309903999999989
 41
5940.0
 11
0.0
 21
0.0
 31
1.0
 12
0.0
 22
0.0
 32
0.0
 42
50.0
 43
0.0
 44
0.0
 50
0.0
 71
     0
  0
ENDTAB
  0
TABLE
  2
UCS
 70
     0
  0
ENDTAB
  0
TABLE
  2
APPID
 70
     5
  0
APPID
  2
ACAD
 70
     0
  0
APPID
  2
ACADANNOTATIVE
 70
     0
  0
APPID
  2
ACAD_MLEADERVER
 70
     0
  0
APPID
  2
AUTOCAD_POSTSCRIPT_FIGURE
 70
     0
  0
APPID
  2
ACAD_EXEMPT_FROM_CAD_STANDARDS
 70
     0
  0
ENDTAB
  0
TABLE
  2
DIMSTYLE
 70
     2
  0
DIMSTYLE
  2
STANDARD
 70
     0
  3

  4

  5

  6

  7

 40
1.0
 41
0.18
 42
0.0625
 43
0.38
 44
0.18
 45
0.0
 46
0.0
 47
0.0
 48
0.0
140
0.18
141
0.09
142
0.0
143
25.399999999999999
144
1.0
145
0.0
146
1.0
147
0.09
 71
     0
 72
     0
 73
     1
 74
     1
 75
     0
 76
     0
 77
     0
 78
     0
170
     0
171
     2
172
     0
173
     0
174
     0
175
     0
176
     7
177
     7
178
     7
  0
DIMSTYLE
  2
ANNOTATIVE
 70
     0
  3

  4

  5

  6

  7

 40
1.0
 41
0.18
 42
0.0625
 43
0.38
 44
0.18
 45
0.0
 46
0.0
 47
0.0
 48
0.0
140
0.18
141
0.09
142
0.0
143
25.399999999999999
144
1.0
145
0.0
146
1.0
147
0.09
 71
     0
 72
     0
 73
     1
 74
     1
 75
     0
 76
     0
 77
     0
 78
     0
170
     0
171
     2
172
     0
173
     0
174
     0
175
     0
176
     0
177
     0
178
     0
  0
ENDTAB
  0
ENDSEC
  0
SECTION
  2
BLOCKS
  0
BLOCK
  8
0
  2
$MODEL_SPACE
 70
     0
 10
0.0
 20
0.0
 30
0.0
  3
$MODEL_SPACE
  1

  0
ENDBLK
  5
76
  8
0
  0
BLOCK
 67
     1
  8
0
  2
$PAPER_SPACE
 70
     0
 10
0.0
 20
0.0
 30
0.0
  3
$PAPER_SPACE
  1

  0
ENDBLK
  5
72
 67
     1
  8
0
  0
BLOCK
  8
0
  2
DOT1
 70
     0
 10
0.0
 20
0.0
 30
0.0
  3
DOT1
  1

  0
CIRCLE
  5
8C
  8
SIZE
  6
CONTINUOUS
 62
     7
 10
0.0
 20
0.0
 30
0.0
 40
3.0
  0
ENDBLK
  5
8D
  8
0
  0
BLOCK
  8
0
  2
_ORIGIN
 70
     0
 10
0.0
 20
0.0
 30
0.0
  3
_ORIGIN
  1

  0
CIRCLE
  5
90
  8
0
  6
CONTINUOUS
 62
     7
 10
0.0
 20
0.0
 30
0.0
 40
0.5
  0
LINE
  5
91
  8
0
  6
CONTINUOUS
 62
     7
 10
0.0
 20
0.0
 30
0.0
 11
-1.0
 21
0.0
 31
0.0
  0
ENDBLK
  5
92
  8
0
  0
BLOCK
  8
0
 62
     5
  2
A$C5252499E
 70
     0
 10
0.0
 20
0.0
 30
0.0
  3
A$C5252499E
  1

  0
TEXT
  5
168
  8
ETC
  6
CONTINUOUS
 62
    61
 10
8.0734780754677882
 20
204.65401559985901
 30
0.0
 40
40.0
  1
EX-25SC-S_1
 41
0.9
  0
TEXT
  5
169
  8
ETC
  6
CONTINUOUS
 62
    61
 10
-0.0000009245321735
 20
140.74897259985889
 30
0.0
 40
40.0
  1
換気扇
 41
0.9
  0
TEXT
  5
16A
  8
ETC
  6
CONTINUOUS
 62
    61
 10
61.348203162454411
 20
70.332664871194993
 30
0.0
 40
40.0
  1
EX-25SC-S
 41
0.9
  0
TEXT
  5
16B
  8
ETC
  6
CONTINUOUS
 62
    61
 10
61.348203162454411
 20
0.0
 30
0.0
 40
40.0
  1
EX-25SC-RK
 41
0.9
  0
ENDBLK
  5
16D
  8
0
 62
     5
  0
ENDSEC
  0
SECTION
  2
ENTITIES
  0
LINE
  5
95
  8
BASIS
  6
DASHDOT
 62
     6
 10
-132.50515899999999
 20
0.0
 30
0.0
 11
175.66840199999999
 21
0.0
 31
0.0
  0
POINT
  5
96
  8
ARRANGE
  6
CONTINUOUS
 62
     1
 10
0.0
 20
0.0
 30
0.0
 39
50.0
  0
CIRCLE
  5
97
  8
ARRANGE
  6
CONTINUOUS
 62
     1
 39
50.0
 10
0.0
 20
0.0
 30
0.0
 40
40.0
  0
LINE
  5
98
  8
DETAIL
  6
CONTINUOUS
 62
     5
 39
50.0
 10
0.0
 20
205.0
 30
0.0
 11
-1.0
 21
205.0
 31
0.0
  0
LINE
  5
99
  8
DETAIL
  6
CONTINUOUS
 62
     5
 39
50.0
 10
-1.0
 20
205.0
 30
0.0
 11
-1.0
 21
-205.0
 31
0.0
  0
LINE
  5
9A
  8
DETAIL
  6
CONTINUOUS
 62
     5
 39
50.0
 10
-1.0
 20
-205.0
 30
0.0
 11
0.0
 21
-205.0
 31
0.0
  0
LINE
  5
9B
  8
DETAIL
  6
CONTINUOUS
 62
     5
 39
50.0
 10
0.0
 20
-205.0
 30
0.0
 11
0.0
 21
205.0
 31
0.0
  0
LINE
  5
9C
  8
DETAIL
  6
CONTINUOUS
 62
     5
 39
50.0
 10
0.0
 20
145.0
 30
0.0
 11
120.0
 21
145.0
 31
0.0
  0
LINE
  5
9D
  8
DETAIL
  6
CONTINUOUS
 62
     5
 39
50.0
 10
120.0
 20
145.0
 30
0.0
 11
120.0
 21
-145.0
 31
0.0
  0
LINE
  5
9E
  8
DETAIL
  6
CONTINUOUS
 62
     5
 39
50.0
 10
120.0
 20
-145.0
 30
0.0
 11
0.0
 21
-145.0
 31
0.0
  0
LINE
  5
9F
  8
DETAIL
  6
CONTINUOUS
 62
     5
 39
50.0
 10
0.0
 20
-145.0
 30
0.0
 11
0.0
 21
145.0
 31
0.0
  0
LINE
  5
A0
  8
DETAIL
  6
CONTINUOUS
 62
     5
 39
50.0
 10
-1.0
 20
-185.0
 30
0.0
 11
-1.0
 21
-160.0
 31
0.0
  0
LINE
  5
A1
  8
OUTLINE
  6
CONTINUOUS
 62
     3
 39
50.0
 10
0.0
 20
145.0
 30
0.0
 11
120.0
 21
145.0
 31
0.0
  0
LINE
  5
A2
  8
OUTLINE
  6
CONTINUOUS
 62
     3
 39
50.0
 10
120.0
 20
-145.0
 30
0.0
 11
0.0
 21
-145.0
 31
0.0
  0
LINE
  5
A3
  8
OUTLINE
  6
CONTINUOUS
 62
     3
 39
50.0
 10
-1.0
 20
205.0
 30
0.0
 11
-1.0
 21
-205.0
 31
0.0
  0
LINE
  5
A4
  8
OUTLINE
  6
CONTINUOUS
 62
     3
 39
50.0
 10
0.0
 20
-205.0
 30
0.0
 11
0.0
 21
205.0
 31
0.0
  0
LINE
  5
A5
  8
OUTLINE
  6
CONTINUOUS
 62
     3
 39
50.0
 10
0.0
 20
-145.0
 30
0.0
 11
0.0
 21
145.0
 31
0.0
  0
LINE
  5
A6
  8
OUTLINE
  6
CONTINUOUS
 62
     3
 39
50.0
 10
-1.0
 20
-185.0
 30
0.0
 11
-1.0
 21
-160.0
 31
0.0
  0
LINE
  5
A7
  8
OUTLINE
  6
CONTINUOUS
 62
     3
 39
50.0
 10
-1.0
 20
-205.0
 30
0.0
 11
0.0
 21
-205.0
 31
0.0
  0
LINE
  5
A8
  8
OUTLINE
  6
CONTINUOUS
 62
     3
 39
50.0
 10
0.0
 20
205.0
 30
0.0
 11
-1.0
 21
205.0
 31
0.0
  0
LINE
  5
A9
  8
OUTLINE
  6
CONTINUOUS
 62
     3
 39
50.0
 10
120.0
 20
145.0
 30
0.0
 11
120.0
 21
-145.0
 31
0.0
  0
LINE
  5
AA
  8
NOTE
  6
CONTINUOUS
 62
     4
 10
0.0
 20
137.5
 30
0.0
 11
0.0
 21
177.5
 31
0.0
  0
LINE
  5
AB
  8
NOTE
  6
CONTINUOUS
 62
     4
 10
-20.0
 20
157.5
 30
0.0
 11
20.0
 21
157.5
 31
0.0
  0
LINE
  5
AC
  8
NOTE
  6
CONTINUOUS
 62
     4
 10
0.0
 20
-177.5
 30
0.0
 11
0.0
 21
-137.5
 31
0.0
  0
LINE
  5
AD
  8
NOTE
  6
CONTINUOUS
 62
     4
 10
-20.0
 20
-157.5
 30
0.0
 11
20.0
 21
-157.5
 31
0.0
  0
LINE
  5
AE
  8
NOTE
  6
CONTINUOUS
 62
     4
 10
0.0
 20
140.0
 30
0.0
 11
0.0
 21
180.0
 31
0.0
  0
LINE
  5
AF
  8
NOTE
  6
CONTINUOUS
 62
     4
 10
-20.0
 20
160.0
 30
0.0
 11
20.0
 21
160.0
 31
0.0
  0
LINE
  5
B0
  8
NOTE
  6
CONTINUOUS
 62
     4
 10
0.0
 20
-180.0
 30
0.0
 11
0.0
 21
-140.0
 31
0.0
  0
LINE
  5
B1
  8
NOTE
  6
CONTINUOUS
 62
     4
 10
-20.0
 20
-160.0
 30
0.0
 11
20.0
 21
-160.0
 31
0.0
  0
LINE
  5
B2
  8
NOTE
  6
CONTINUOUS
 62
     4
 10
0.0
 20
162.0
 30
0.0
 11
0.0
 21
202.0
 31
0.0
  0
LINE
  5
B3
  8
NOTE
  6
CONTINUOUS
 62
     4
 10
-20.0
 20
182.0
 30
0.0
 11
20.0
 21
182.0
 31
0.0
  0
LINE
  5
B4
  8
NOTE
  6
CONTINUOUS
 62
     4
 10
0.0
 20
-214.0
 30
0.0
 11
0.0
 21
-174.0
 31
0.0
  0
LINE
  5
B5
  8
NOTE
  6
CONTINUOUS
 62
     4
 10
-20.0
 20
-194.0
 30
0.0
 11
20.0
 21
-194.0
 31
0.0
  0
CIRCLE
  5
B6
  8
FIX
  6
CONTINUOUS
 62
    11
 39
50.0
 10
0.0
 20
157.5
 30
0.0
 40
2.5
  0
CIRCLE
  5
B7
  8
FIX
  6
CONTINUOUS
 62
    11
 39
50.0
 10
0.0
 20
-157.5
 30
0.0
 40
2.5
  0
CIRCLE
  5
B8
  8
FIX
  6
CONTINUOUS
 62
    11
 39
50.0
 10
0.0
 20
160.0
 30
0.0
 40
3.0
  0
CIRCLE
  5
B9
  8
FIX
  6
CONTINUOUS
 62
    11
 39
50.0
 10
0.0
 20
-160.0
 30
0.0
 40
3.0
  0
CIRCLE
  5
BA
  8
FIX
  6
CONTINUOUS
 62
    11
 39
50.0
 10
0.0
 20
182.0
 30
0.0
 40
3.0
  0
CIRCLE
  5
BB
  8
FIX
  6
CONTINUOUS
 62
    11
 39
50.0
 10
0.0
 20
-194.0
 30
0.0
 40
3.0
  0
LINE
  5
BC
  8
NOTE
  6
CONTINUOUS
 62
     4
 10
37.882604999999998
 20
-170.34165899999999
 30
0.0
 11
0.0
 21
-157.5
 31
0.0
  0
LINE
  5
BD
  8
NOTE
  6
CONTINUOUS
 62
     4
 10
0.0
 20
-157.5
 30
0.0
 11
26.386469000000002
 21
-187.56250600000001
 31
0.0
  0
LINE
  5
BE
  8
NOTE
  6
CONTINUOUS
 62
     4
 10
31.193159999999999
 20
-185.039703
 30
0.0
 11
0.0
 21
-160.0
 31
0.0
  0
LINE
  5
BF
  8
NOTE
  6
CONTINUOUS
 62
     4
 10
0.0
 20
-160.0
 30
0.0
 11
14.494217000000001
 21
-197.2816
 31
0.0
  0
LINE
  5
C0
  8
NOTE
  6
CONTINUOUS
 62
     4
 10
30.179960000000001
 20
-220.252048
 30
0.0
 11
0.0
 21
-194.0
 31
0.0
  0
LINE
  5
C1
  8
NOTE
  6
CONTINUOUS
 62
     4
 10
0.0
 20
-194.0
 30
0.0
 11
13.010588
 21
-231.82491999999999
 31
0.0
  0
LINE
  5
C2
  8
SIZE
  6
CONTINUOUS
 62
    30
 10
140.0
 20
145.0
 30
0.0
 11
322.163161
 21
145.0
 31
0.0
  0
LINE
  5
C3
  8
SIZE
  6
CONTINUOUS
 62
    30
 10
140.0
 20
-145.0
 30
0.0
 11
322.163161
 21
-145.0
 31
0.0
  0
LINE
  5
C4
  8
SIZE
  6
CONTINUOUS
 62
    30
 10
302.163161
 20
133.0
 30
0.0
 11
302.163161
 21
-133.0
 31
0.0
  0
CIRCLE
  5
C5
  8
SIZE
  6
CONTINUOUS
 62
    30
 10
302.163161
 20
145.0
 30
0.0
 40
6.0
  0
LINE
  5
C6
  8
SIZE
  6
CONTINUOUS
 62
    30
 10
302.163161
 20
145.0
 30
0.0
 11
302.163161
 21
133.0
 31
0.0
  0
CIRCLE
  5
C7
  8
SIZE
  6
CONTINUOUS
 62
    30
 10
302.163161
 20
-145.0
 30
0.0
 40
6.0
  0
LINE
  5
C8
  8
SIZE
  6
CONTINUOUS
 62
    30
 10
302.163161
 20
-145.0
 30
0.0
 11
302.163161
 21
-133.0
 31
0.0
  0
TEXT
  5
C9
  8
SIZE
  6
CONTINUOUS
 62
    30
 10
277.163161
 20
-110.5371428571428
 30
0.0
 40
64.0
  1
□290
 50
90.0
 41
0.9
 72
     1
 11
277.163161
 21
0.0
 31
0.0
  0
POINT
  5
CA
  8
DEFPOINTS
  6
CONTINUOUS
 62
    30
 10
120.0
 20
145.0
 30
0.0
  0
POINT
  5
CB
  8
DEFPOINTS
  6
CONTINUOUS
 62
    30
 10
120.0
 20
-145.0
 30
0.0
  0
POINT
  5
CC
  8
DEFPOINTS
  6
CONTINUOUS
 62
    30
 10
302.163161
 20
-145.0
 30
0.0
  0
LINE
  5
CD
  8
SIZE
  6
CONTINUOUS
 62
    30
 10
20.0
 20
157.5
 30
0.0
 11
465.63955399999998
 21
157.5
 31
0.0
  0
LINE
  5
CE
  8
SIZE
  6
CONTINUOUS
 62
    30
 10
20.0
 20
-157.5
 30
0.0
 11
465.63955399999998
 21
-157.5
 31
0.0
  0
LINE
  5
CF
  8
SIZE
  6
CONTINUOUS
 62
    30
 10
445.63955399999992
 20
145.5
 30
0.0
 11
445.63955399999992
 21
-145.5
 31
0.0
  0
CIRCLE
  5
D0
  8
SIZE
  6
CONTINUOUS
 62
    30
 10
445.63955399999992
 20
157.5
 30
0.0
 40
6.0
  0
LINE
  5
D1
  8
SIZE
  6
CONTINUOUS
 62
    30
 10
445.63955399999992
 20
157.5
 30
0.0
 11
445.63955399999992
 21
145.5
 31
0.0
  0
CIRCLE
  5
D2
  8
SIZE
  6
CONTINUOUS
 62
    30
 10
445.63955399999992
 20
-157.5
 30
0.0
 40
6.0
  0
LINE
  5
D3
  8
SIZE
  6
CONTINUOUS
 62
    30
 10
445.63955399999992
 20
-157.5
 30
0.0
 11
445.63955399999992
 21
-145.5
 31
0.0
  0
TEXT
  5
D4
  8
SIZE
  6
CONTINUOUS
 62
    30
 10
420.63955399999992
 20
-68.571428571428569
 30
0.0
 40
64.0
  1
315
 50
90.0
 41
0.9
 72
     1
 11
420.63955399999992
 21
0.0
 31
0.0
  0
POINT
  5
D5
  8
DEFPOINTS
  6
CONTINUOUS
 62
    30
 10
0.0
 20
157.5
 30
0.0
  0
POINT
  5
D6
  8
DEFPOINTS
  6
CONTINUOUS
 62
    30
 10
0.0
 20
-157.5
 30
0.0
  0
POINT
  5
D7
  8
DEFPOINTS
  6
CONTINUOUS
 62
    30
 10
445.63955399999992
 20
-157.5
 30
0.0
  0
LINE
  5
D8
  8
SIZE
  6
CONTINUOUS
 62
    30
 10
20.0
 20
160.0
 30
0.0
 11
602.28676500000006
 21
160.0
 31
0.0
  0
LINE
  5
D9
  8
SIZE
  6
CONTINUOUS
 62
    30
 10
20.0
 20
-160.0
 30
0.0
 11
602.28676500000006
 21
-160.0
 31
0.0
  0
LINE
  5
DA
  8
SIZE
  6
CONTINUOUS
 62
    30
 10
582.28676499999995
 20
148.0
 30
0.0
 11
582.28676499999995
 21
-148.0
 31
0.0
  0
CIRCLE
  5
DB
  8
SIZE
  6
CONTINUOUS
 62
    30
 10
582.28676499999995
 20
160.0
 30
0.0
 40
6.0
  0
LINE
  5
DC
  8
SIZE
  6
CONTINUOUS
 62
    30
 10
582.28676499999995
 20
160.0
 30
0.0
 11
582.28676499999995
 21
148.0
 31
0.0
  0
CIRCLE
  5
DD
  8
SIZE
  6
CONTINUOUS
 62
    30
 10
582.28676499999995
 20
-160.0
 30
0.0
 40
6.0
  0
LINE
  5
DE
  8
SIZE
  6
CONTINUOUS
 62
    30
 10
582.28676499999995
 20
-160.0
 30
0.0
 11
582.28676499999995
 21
-148.0
 31
0.0
  0
TEXT
  5
DF
  8
SIZE
  6
CONTINUOUS
 62
    30
 10
557.28676499999995
 20
-74.05714285714285
 30
0.0
 40
64.0
  1
320
 50
90.0
 41
0.9
 72
     1
 11
557.28676499999995
 21
0.0
 31
0.0
  0
POINT
  5
E0
  8
DEFPOINTS
  6
CONTINUOUS
 62
    30
 10
0.0
 20
160.0
 30
0.0
  0
POINT
  5
E1
  8
DEFPOINTS
  6
CONTINUOUS
 62
    30
 10
0.0
 20
-160.0
 30
0.0
  0
POINT
  5
E2
  8
DEFPOINTS
  6
CONTINUOUS
 62
    30
 10
582.28676499999995
 20
-160.0
 30
0.0
  0
LINE
  5
E3
  8
SIZE
  6
CONTINUOUS
 62
    30
 10
20.0
 20
182.0
 30
0.0
 11
750.45844099999988
 21
182.0
 31
0.0
  0
LINE
  5
E4
  8
SIZE
  6
CONTINUOUS
 62
    30
 10
20.0
 20
-194.0
 30
0.0
 11
750.45844099999988
 21
-194.0
 31
0.0
  0
LINE
  5
E5
  8
SIZE
  6
CONTINUOUS
 62
    30
 10
730.45844099999999
 20
170.0
 30
0.0
 11
730.45844099999999
 21
-182.0
 31
0.0
  0
CIRCLE
  5
E6
  8
SIZE
  6
CONTINUOUS
 62
    30
 10
730.45844099999999
 20
182.0
 30
0.0
 40
6.0
  0
LINE
  5
E7
  8
SIZE
  6
CONTINUOUS
 62
    30
 10
730.45844099999999
 20
182.0
 30
0.0
 11
730.45844099999999
 21
170.0
 31
0.0
  0
CIRCLE
  5
E8
  8
SIZE
  6
CONTINUOUS
 62
    30
 10
730.45844099999999
 20
-194.0
 30
0.0
 40
6.0
  0
LINE
  5
E9
  8
SIZE
  6
CONTINUOUS
 62
    30
 10
730.45844099999999
 20
-194.0
 30
0.0
 11
730.45844099999999
 21
-182.0
 31
0.0
  0
TEXT
  5
EA
  8
SIZE
  6
CONTINUOUS
 62
    30
 10
705.45844099999999
 20
-78.685714285714283
 30
0.0
 40
64.0
  1
376
 50
90.0
 41
0.9
 72
     1
 11
705.45844099999999
 21
-6.0
 31
0.0
  0
POINT
  5
EB
  8
DEFPOINTS
  6
CONTINUOUS
 62
    30
 10
0.0
 20
182.0
 30
0.0
  0
POINT
  5
EC
  8
DEFPOINTS
  6
CONTINUOUS
 62
    30
 10
0.0
 20
-194.0
 30
0.0
  0
POINT
  5
ED
  8
DEFPOINTS
  6
CONTINUOUS
 62
    30
 10
730.45844099999999
 20
-194.0
 30
0.0
  0
TEXT
  5
EE
  8
NOTE
  6
CONTINUOUS
 62
     4
 10
314.99998799999997
 20
-357.35537699999998
 30
0.0
 40
64.0
  1
4×φ5本体取付用穴
 41
0.9
  0
TEXT
  5
EF
  8
NOTE
  6
CONTINUOUS
 62
     4
 10
311.75045
 20
-504.96618099999989
 30
0.0
 40
64.0
  1
4×φ6フード取付用穴
 41
0.9
  0
TEXT
  5
F0
  8
NOTE
  6
CONTINUOUS
 62
     4
 10
307.01181300000002
 20
-633.20577700000001
 30
0.0
 40
64.0
  1
4×φ6パネル取付用穴
 41
0.9
  0
LINE
  5
F1
  8
NOTE
  6
CONTINUOUS
 62
     4
 39
50.0
 10
0.0
 20
-160.0
 30
0.0
 11
287.94058899999999
 21
-528.01883299999986
 31
0.0
  0
LINE
  5
F2
  8
NOTE
  6
CONTINUOUS
 62
     4
 39
50.0
 10
287.94058899999999
 20
-528.01883299999986
 30
0.0
 11
1022.854588
 21
-528.01883299999986
 31
0.0
  0
LINE
  5
F3
  8
NOTE
  6
CONTINUOUS
 62
     4
 39
50.0
 10
301.54736400000002
 20
-657.78334100000006
 30
0.0
 11
1033.7834829999999
 21
-657.78334100000006
 31
0.0
  0
LINE
  5
F4
  8
NOTE
  6
CONTINUOUS
 62
     4
 39
50.0
 10
301.54736400000002
 20
-657.78334100000006
 30
0.0
 11
0.0
 21
-194.0
 31
0.0
  0
LINE
  5
F5
  8
NOTE
  6
CONTINUOUS
 62
     4
 39
50.0
 10
299.08770800000002
 20
-390.93094300000001
 30
0.0
 11
953.25909600000023
 21
-390.93094300000001
 31
0.0
  0
LINE
  5
F6
  8
NOTE
  6
CONTINUOUS
 62
     4
 39
50.0
 10
299.08770800000002
 20
-390.93094300000001
 30
0.0
 11
0.0
 21
-157.5
 31
0.0
  0
LINE
  5
F7
  8
SIZE
  6
CONTINUOUS
 62
    30
 10
120.0
 20
165.0
 30
0.0
 11
120.0
 21
338.180361
 31
0.0
  0
LINE
  5
F8
  8
SIZE
  6
CONTINUOUS
 62
    30
 10
0.0
 20
225.0
 30
0.0
 11
0.0
 21
338.180361
 31
0.0
  0
LINE
  5
F9
  8
SIZE
  6
CONTINUOUS
 62
    30
 10
132.0
 20
318.180361
 30
0.0
 11
144.0
 21
318.180361
 31
0.0
  0
LINE
  5
FA
  8
SIZE
  6
CONTINUOUS
 62
    30
 10
-12.0
 20
318.180361
 30
0.0
 11
-24.0
 21
318.180361
 31
0.0
  0
LINE
  5
FB
  8
SIZE
  6
CONTINUOUS
 62
    30
 10
120.0
 20
318.180361
 30
0.0
 11
0.0
 21
318.180361
 31
0.0
  0
CIRCLE
  5
FC
  8
SIZE
  6
CONTINUOUS
 62
    30
 10
120.0
 20
318.180361
 30
0.0
 40
6.0
  0
LINE
  5
FD
  8
SIZE
  6
CONTINUOUS
 62
    30
 10
120.0
 20
318.180361
 30
0.0
 11
132.0
 21
318.180361
 31
0.0
  0
CIRCLE
  5
FE
  8
SIZE
  6
CONTINUOUS
 62
    30
 10
0.0
 20
318.180361
 30
0.0
 40
6.0
  0
LINE
  5
FF
  8
SIZE
  6
CONTINUOUS
 62
    30
 10
0.0
 20
318.180361
 30
0.0
 11
-12.0
 21
318.180361
 31
0.0
  0
TEXT
  5
100
  8
SIZE
  6
CONTINUOUS
 62
    30
 10
-8.5714285714285694
 20
343.180361
 30
0.0
 40
64.0
  1
120
 41
0.9
 72
     1
 11
60.0
 21
343.180361
 31
0.0
  0
POINT
  5
101
  8
DEFPOINTS
  6
CONTINUOUS
 62
    30
 10
120.0
 20
145.0
 30
0.0
  0
POINT
  5
102
  8
DEFPOINTS
  6
CONTINUOUS
 62
    30
 10
0.0
 20
205.0
 30
0.0
  0
POINT
  5
103
  8
DEFPOINTS
  6
CONTINUOUS
 62
    30
 10
0.0
 20
318.180361
 30
0.0
  0
LINE
  5
104
  8
DETAIL
  6
CONTINUOUS
 62
     5
 39
50.0
 10
-31.0
 20
173.0
 30
0.0
 11
-1.0
 21
173.0
 31
0.0
  0
LINE
  5
105
  8
DETAIL
  6
CONTINUOUS
 62
     5
 39
50.0
 10
-1.0
 20
-173.0
 30
0.0
 11
-31.0
 21
-173.0
 31
0.0
  0
LINE
  5
106
  8
DETAIL
  6
CONTINUOUS
 62
     5
 39
50.0
 10
-31.0
 20
173.0
 30
0.0
 11
-31.0
 21
-173.0
 31
0.0
  0
LINE
  5
107
  8
DETAIL
  6
CONTINUOUS
 62
     5
 39
50.0
 10
-31.0
 20
173.0
 30
0.0
 11
-31.0
 21
170.0
 31
0.0
  0
LINE
  5
108
  8
DETAIL
  6
CONTINUOUS
 62
     5
 39
50.0
 10
-31.0
 20
-173.0
 30
0.0
 11
-31.0
 21
-170.0
 31
0.0
  0
LINE
  5
109
  8
DETAIL
  6
CONTINUOUS
 62
     5
 39
50.0
 10
-47.0
 20
170.0
 30
0.0
 11
-31.0
 21
170.0
 31
0.0
  0
LINE
  5
10A
  8
OUTLINE
  6
CONTINUOUS
 62
     3
 39
50.0
 10
-31.0
 20
173.0
 30
0.0
 11
-1.0
 21
173.0
 31
0.0
  0
LINE
  5
10B
  8
OUTLINE
  6
CONTINUOUS
 62
     3
 39
50.0
 10
-31.0
 20
173.0
 30
0.0
 11
-31.0
 21
170.0
 31
0.0
  0
LINE
  5
10C
  8
OUTLINE
  6
CONTINUOUS
 62
     3
 39
50.0
 10
-1.0
 20
-173.0
 30
0.0
 11
-31.0
 21
-173.0
 31
0.0
  0
LINE
  5
10D
  8
OUTLINE
  6
CONTINUOUS
 62
     3
 39
50.0
 10
-31.0
 20
-173.0
 30
0.0
 11
-31.0
 21
-170.0
 31
0.0
  0
LINE
  5
10E
  8
SIZE
  6
CONTINUOUS
 62
    30
 10
0.0
 20
225.0
 30
0.0
 11
0.0
 21
338.180361
 31
0.0
  0
LINE
  5
10F
  8
SIZE
  6
CONTINUOUS
 62
    30
 10
-57.0
 20
20.0
 30
0.0
 11
-57.0
 21
338.180361
 31
0.0
  0
LINE
  5
110
  8
SIZE
  6
CONTINUOUS
 62
    30
 10
12.0
 20
318.180361
 30
0.0
 11
24.0
 21
318.180361
 31
0.0
  0
LINE
  5
111
  8
SIZE
  6
CONTINUOUS
 62
    30
 10
-69.0
 20
318.180361
 30
0.0
 11
-81.0
 21
318.180361
 31
0.0
  0
LINE
  5
112
  8
SIZE
  6
CONTINUOUS
 62
    30
 10
-232.295377
 20
318.180361
 30
0.0
 11
-57.0
 21
318.180361
 31
0.0
  0
TEXT
  5
113
  8
SIZE
  6
CONTINUOUS
 62
    30
 10
-207.29537642857139
 20
343.180361
 30
0.0
 40
64.0
  1
57
 41
0.9
 72
     1
 11
-160.66680500000001
 21
343.180361
 31
0.0
  0
LINE
  5
114
  8
SIZE
  6
CONTINUOUS
 62
    30
 10
0.0
 20
318.180361
 30
0.0
 11
-57.0
 21
318.180361
 31
0.0
  0
LINE
  5
115
  8
SIZE
  6
CONTINUOUS
 62
    30
 10
0.0
 20
318.180361
 30
0.0
 11
-57.0
 21
318.180361
 31
0.0
  0
CIRCLE
  5
116
  8
SIZE
  6
CONTINUOUS
 62
    30
 10
0.0
 20
318.180361
 30
0.0
 40
6.0
  0
LINE
  5
117
  8
SIZE
  6
CONTINUOUS
 62
    30
 10
0.0
 20
318.180361
 30
0.0
 11
12.0
 21
318.180361
 31
0.0
  0
CIRCLE
  5
118
  8
SIZE
  6
CONTINUOUS
 62
    30
 10
-57.0
 20
318.180361
 30
0.0
 40
6.0
  0
LINE
  5
119
  8
SIZE
  6
CONTINUOUS
 62
    30
 10
-57.0
 20
318.180361
 30
0.0
 11
-69.0
 21
318.180361
 31
0.0
  0
POINT
  5
11A
  8
DEFPOINTS
  6
CONTINUOUS
 62
    30
 10
0.0
 20
205.0
 30
0.0
  0
POINT
  5
11B
  8
DEFPOINTS
  6
CONTINUOUS
 62
    30
 10
-57.0
 20
0.0
 30
0.0
  0
POINT
  5
11C
  8
DEFPOINTS
  6
CONTINUOUS
 62
    30
 10
-57.0
 20
318.180361
 30
0.0
  0
LINE
  5
11D
  8
SIZE
  6
CONTINUOUS
 62
    30
 10
20.0
 20
205.0
 30
0.0
 11
915.31195600000001
 21
205.0
 31
0.0
  0
LINE
  5
11E
  8
SIZE
  6
CONTINUOUS
 62
    30
 10
20.0
 20
-205.0
 30
0.0
 11
915.31195600000001
 21
-205.0
 31
0.0
  0
LINE
  5
11F
  8
SIZE
  6
CONTINUOUS
 62
    30
 10
895.31195600000012
 20
193.0
 30
0.0
 11
895.31195600000012
 21
-193.0
 31
0.0
  0
CIRCLE
  5
120
  8
SIZE
  6
CONTINUOUS
 62
    30
 10
895.31195600000012
 20
205.0
 30
0.0
 40
6.0
  0
LINE
  5
121
  8
SIZE
  6
CONTINUOUS
 62
    30
 10
895.31195600000012
 20
205.0
 30
0.0
 11
895.31195600000012
 21
193.0
 31
0.0
  0
CIRCLE
  5
122
  8
SIZE
  6
CONTINUOUS
 62
    30
 10
895.31195600000012
 20
-205.0
 30
0.0
 40
6.0
  0
LINE
  5
123
  8
SIZE
  6
CONTINUOUS
 62
    30
 10
895.31195600000012
 20
-205.0
 30
0.0
 11
895.31195600000012
 21
-193.0
 31
0.0
  0
TEXT
  5
124
  8
SIZE
  6
CONTINUOUS
 62
    30
 10
870.31195600000012
 20
-68.571428571428555
 30
0.0
 40
64.0
  1
410
 50
90.0
 41
0.9
 72
     1
 11
870.31195600000012
 21
0.0
 31
0.0
  0
POINT
  5
125
  8
DEFPOINTS
  6
CONTINUOUS
 62
    30
 10
0.0
 20
205.0
 30
0.0
  0
POINT
  5
126
  8
DEFPOINTS
  6
CONTINUOUS
 62
    30
 10
0.0
 20
-205.0
 30
0.0
  0
POINT
  5
127
  8
DEFPOINTS
  6
CONTINUOUS
 62
    30
 10
895.31195600000012
 20
-205.0
 30
0.0
  0
LINE
  5
128
  8
SIZE
  6
CONTINUOUS
 62
    30
 10
-77.0
 20
0.0
 30
0.0
 11
-169.81654
 21
0.0
 31
0.0
  0
LINE
  5
129
  8
SIZE
  6
CONTINUOUS
 62
    30
 10
-51.0
 20
-173.0
 30
0.0
 11
-169.81654
 21
-173.0
 31
0.0
  0
LINE
  5
12A
  8
SIZE
  6
CONTINUOUS
 62
    30
 10
-149.81654
 20
12.0
 30
0.0
 11
-149.81654
 21
24.0
 31
0.0
  0
LINE
  5
12B
  8
SIZE
  6
CONTINUOUS
 62
    30
 10
-149.81654
 20
-185.0
 30
0.0
 11
-149.81654
 21
-197.0
 31
0.0
  0
LINE
  5
12C
  8
SIZE
  6
CONTINUOUS
 62
    30
 10
-149.81654
 20
0.0
 30
0.0
 11
-149.81654
 21
-173.0
 31
0.0
  0
CIRCLE
  5
12D
  8
SIZE
  6
CONTINUOUS
 62
    30
 10
-149.81654
 20
0.0
 30
0.0
 40
6.0
  0
LINE
  5
12E
  8
SIZE
  6
CONTINUOUS
 62
    30
 10
-149.81654
 20
0.0
 30
0.0
 11
-149.81654
 21
12.0
 31
0.0
  0
CIRCLE
  5
12F
  8
SIZE
  6
CONTINUOUS
 62
    30
 10
-149.81654
 20
-173.0
 30
0.0
 40
6.0
  0
LINE
  5
130
  8
SIZE
  6
CONTINUOUS
 62
    30
 10
-149.81654
 20
-173.0
 30
0.0
 11
-149.81654
 21
-185.0
 31
0.0
  0
TEXT
  5
131
  8
SIZE
  6
CONTINUOUS
 62
    30
 10
-174.81654
 20
-155.0714285714285
 30
0.0
 40
64.0
  1
173
 50
90.0
 41
0.9
 72
     1
 11
-174.81654
 21
-86.5
 31
0.0
  0
POINT
  5
132
  8
DEFPOINTS
  6
CONTINUOUS
 62
    30
 10
-57.0
 20
0.0
 30
0.0
  0
POINT
  5
133
  8
DEFPOINTS
  6
CONTINUOUS
 62
    30
 10
-31.0
 20
-173.0
 30
0.0
  0
POINT
  5
134
  8
DEFPOINTS
  6
CONTINUOUS
 62
    30
 10
-149.81654
 20
-173.0
 30
0.0
  0
LINE
  5
135
  8
SIZE
  6
CONTINUOUS
 62
    30
 10
-51.0
 20
173.0
 30
0.0
 11
-333.65114899999998
 21
173.0
 31
0.0
  0
LINE
  5
136
  8
SIZE
  6
CONTINUOUS
 62
    30
 10
-51.0
 20
-173.0
 30
0.0
 11
-333.65114899999998
 21
-173.0
 31
0.0
  0
LINE
  5
137
  8
SIZE
  6
CONTINUOUS
 62
    30
 10
-313.65114899999998
 20
161.0
 30
0.0
 11
-313.65114899999998
 21
-161.0
 31
0.0
  0
CIRCLE
  5
138
  8
SIZE
  6
CONTINUOUS
 62
    30
 10
-313.65114899999998
 20
173.0
 30
0.0
 40
6.0
  0
LINE
  5
139
  8
SIZE
  6
CONTINUOUS
 62
    30
 10
-313.65114899999998
 20
173.0
 30
0.0
 11
-313.65114899999998
 21
161.0
 31
0.0
  0
CIRCLE
  5
13A
  8
SIZE
  6
CONTINUOUS
 62
    30
 10
-313.65114899999998
 20
-173.0
 30
0.0
 40
6.0
  0
LINE
  5
13B
  8
SIZE
  6
CONTINUOUS
 62
    30
 10
-313.65114899999998
 20
-173.0
 30
0.0
 11
-313.65114899999998
 21
-161.0
 31
0.0
  0
TEXT
  5
13C
  8
SIZE
  6
CONTINUOUS
 62
    30
 10
-338.65114899999998
 20
-72.685714285714297
 30
0.0
 40
64.0
  1
346
 50
90.0
 41
0.9
 72
     1
 11
-338.65114899999998
 21
0.0
 31
0.0
  0
POINT
  5
13D
  8
DEFPOINTS
  6
CONTINUOUS
 62
    30
 10
-31.0
 20
173.0
 30
0.0
  0
POINT
  5
13E
  8
DEFPOINTS
  6
CONTINUOUS
 62
    30
 10
-31.0
 20
-173.0
 30
0.0
  0
POINT
  5
13F
  8
DEFPOINTS
  6
CONTINUOUS
 62
    30
 10
-313.65114899999998
 20
-173.0
 30
0.0
  0
LINE
  5
140
  8
SIZE
  6
CONTINUOUS
 62
    30
 10
20.0
 20
205.0
 30
0.0
 11
750.45844099999988
 21
205.0
 31
0.0
  0
LINE
  5
141
  8
SIZE
  6
CONTINUOUS
 62
    30
 10
20.0
 20
182.0
 30
0.0
 11
750.45844099999988
 21
182.0
 31
0.0
  0
LINE
  5
142
  8
SIZE
  6
CONTINUOUS
 62
    30
 10
730.45844099999999
 20
217.0
 30
0.0
 11
730.45844099999999
 21
229.0
 31
0.0
  0
LINE
  5
143
  8
SIZE
  6
CONTINUOUS
 62
    30
 10
730.45844099999999
 20
170.0
 30
0.0
 11
730.45844099999999
 21
158.0
 31
0.0
  0
LINE
  5
144
  8
SIZE
  6
CONTINUOUS
 62
    30
 10
730.45844099999999
 20
381.78431899999998
 30
0.0
 11
730.45844099999999
 21
205.0
 31
0.0
  0
TEXT
  5
145
  8
SIZE
  6
CONTINUOUS
 62
    30
 10
705.45844099999999
 20
263.52717657142858
 30
0.0
 40
64.0
  1
23
 50
90.0
 41
0.9
 72
     1
 11
705.45844099999999
 21
310.15574800000002
 31
0.0
  0
LINE
  5
146
  8
SIZE
  6
CONTINUOUS
 62
    30
 10
730.45844099999999
 20
205.0
 30
0.0
 11
730.45844099999999
 21
182.0
 31
0.0
  0
LINE
  5
147
  8
SIZE
  6
CONTINUOUS
 62
    30
 10
730.45844099999999
 20
205.0
 30
0.0
 11
730.45844099999999
 21
182.0
 31
0.0
  0
CIRCLE
  5
148
  8
SIZE
  6
CONTINUOUS
 62
    30
 10
730.45844099999999
 20
205.0
 30
0.0
 40
6.0
  0
LINE
  5
149
  8
SIZE
  6
CONTINUOUS
 62
    30
 10
730.45844099999999
 20
205.0
 30
0.0
 11
730.45844099999999
 21
217.0
 31
0.0
  0
CIRCLE
  5
14A
  8
SIZE
  6
CONTINUOUS
 62
    30
 10
730.45844099999999
 20
182.0
 30
0.0
 40
6.0
  0
LINE
  5
14B
  8
SIZE
  6
CONTINUOUS
 62
    30
 10
730.45844099999999
 20
182.0
 30
0.0
 11
730.45844099999999
 21
170.0
 31
0.0
  0
POINT
  5
14C
  8
DEFPOINTS
  6
CONTINUOUS
 62
    30
 10
0.0
 20
205.0
 30
0.0
  0
POINT
  5
14D
  8
DEFPOINTS
  6
CONTINUOUS
 62
    30
 10
0.0
 20
182.0
 30
0.0
  0
POINT
  5
14E
  8
DEFPOINTS
  6
CONTINUOUS
 62
    30
 10
730.45844099999999
 20
182.0
 30
0.0
  0
LINE
  5
14F
  8
SIZE
  6
CONTINUOUS
 62
    30
 10
20.0
 20
205.0
 30
0.0
 11
602.28676500000006
 21
205.0
 31
0.0
  0
LINE
  5
150
  8
SIZE
  6
CONTINUOUS
 62
    30
 10
20.0
 20
160.0
 30
0.0
 11
602.28676500000006
 21
160.0
 31
0.0
  0
LINE
  5
151
  8
SIZE
  6
CONTINUOUS
 62
    30
 10
582.28676499999995
 20
217.0
 30
0.0
 11
582.28676499999995
 21
229.0
 31
0.0
  0
LINE
  5
152
  8
SIZE
  6
CONTINUOUS
 62
    30
 10
582.28676499999995
 20
148.0
 30
0.0
 11
582.28676499999995
 21
136.0
 31
0.0
  0
LINE
  5
153
  8
SIZE
  6
CONTINUOUS
 62
    30
 10
582.28676499999995
 20
375.75686899999999
 30
0.0
 11
582.28676499999995
 21
205.0
 31
0.0
  0
TEXT
  5
154
  8
SIZE
  6
CONTINUOUS
 62
    30
 10
557.28676499999995
 20
257.49972657142848
 30
0.0
 40
64.0
  1
45
 50
90.0
 41
0.9
 72
     1
 11
557.28676499999995
 21
304.12829799999997
 31
0.0
  0
LINE
  5
155
  8
SIZE
  6
CONTINUOUS
 62
    30
 10
582.28676499999995
 20
205.0
 30
0.0
 11
582.28676499999995
 21
160.0
 31
0.0
  0
LINE
  5
156
  8
SIZE
  6
CONTINUOUS
 62
    30
 10
582.28676499999995
 20
205.0
 30
0.0
 11
582.28676499999995
 21
160.0
 31
0.0
  0
CIRCLE
  5
157
  8
SIZE
  6
CONTINUOUS
 62
    30
 10
582.28676499999995
 20
205.0
 30
0.0
 40
6.0
  0
LINE
  5
158
  8
SIZE
  6
CONTINUOUS
 62
    30
 10
582.28676499999995
 20
205.0
 30
0.0
 11
582.28676499999995
 21
217.0
 31
0.0
  0
CIRCLE
  5
159
  8
SIZE
  6
CONTINUOUS
 62
    30
 10
582.28676499999995
 20
160.0
 30
0.0
 40
6.0
  0
LINE
  5
15A
  8
SIZE
  6
CONTINUOUS
 62
    30
 10
582.28676499999995
 20
160.0
 30
0.0
 11
582.28676499999995
 21
148.0
 31
0.0
  0
POINT
  5
15B
  8
DEFPOINTS
  6
CONTINUOUS
 62
    30
 10
0.0
 20
205.0
 30
0.0
  0
POINT
  5
15C
  8
DEFPOINTS
  6
CONTINUOUS
 62
    30
 10
0.0
 20
160.0
 30
0.0
  0
POINT
  5
15D
  8
DEFPOINTS
  6
CONTINUOUS
 62
    30
 10
582.28676499999995
 20
160.0
 30
0.0
  0
LINE
  5
15E
  8
DETAIL
  6
CONTINUOUS
 62
     5
 39
50.0
 10
-31.0
 20
-170.0
 30
0.0
 11
-47.0
 21
-170.0
 31
0.0
  0
LINE
  5
15F
  8
DETAIL
  6
CONTINUOUS
 62
     5
 39
50.0
 10
-57.0
 20
160.0
 30
0.0
 11
-57.0
 21
-160.0
 31
0.0
  0
ARC
  5
160
  8
DETAIL
  6
CONTINUOUS
 62
     5
 39
50.0
 10
-47.0
 20
-160.0
 30
0.0
 40
10.0
 50
180.0
 51
270.0
  0
ARC
  5
161
  8
DETAIL
  6
CONTINUOUS
 62
     5
 39
50.0
 10
-47.0
 20
160.0
 30
0.0
 40
10.0
 50
90.0
 51
180.0
  0
ARC
  5
162
  8
OUTLINE
  6
CONTINUOUS
 62
     3
 39
50.0
 10
-47.0
 20
-160.0
 30
0.0
 40
10.0
 50
180.0
 51
270.0
  0
LINE
  5
163
  8
OUTLINE
  6
CONTINUOUS
 62
     3
 39
50.0
 10
-31.0
 20
-170.0
 30
0.0
 11
-47.0
 21
-170.0
 31
0.0
  0
LINE
  5
164
  8
OUTLINE
  6
CONTINUOUS
 62
     3
 39
50.0
 10
-57.0
 20
160.0
 30
0.0
 11
-57.0
 21
-160.0
 31
0.0
  0
ARC
  5
165
  8
OUTLINE
  6
CONTINUOUS
 62
     3
 39
50.0
 10
-47.0
 20
160.0
 30
0.0
 40
10.0
 50
90.0
 51
180.0
  0
LINE
  5
166
  8
OUTLINE
  6
CONTINUOUS
 62
     3
 39
50.0
 10
-47.0
 20
170.0
 30
0.0
 11
-31.0
 21
170.0
 31
0.0
  0
TEXT
  5
176
  8
ETC
  6
CONTINUOUS
 62
    61
 10
808.34841207688123
 20
664.15186647942107
 30
0.0
 40
40.0
  1
EX-25SC-S_4
 41
0.9
  0
TEXT
  5
177
  8
ETC
  6
CONTINUOUS
 62
    61
 10
800.27493307688121
 20
600.24682347942098
 30
0.0
 40
40.0
  1
換気扇
 41
0.9
  0
TEXT
  5
178
  8
ETC
  6
CONTINUOUS
 62
    61
 10
861.6231371638678
 20
529.83051575075694
 30
0.0
 40
40.0
  1
EX-25SC-S
 41
0.9
  0
TEXT
  5
179
  8
ETC
  6
CONTINUOUS
 62
    61
 10
861.6231371638678
 20
459.49785087956201
 30
0.0
 40
40.0
  1
EX-25SC-RK
 41
0.9
  0
ENDSEC
  0
EOF
