  0
SECTION
  2
HEADER
  9
$ACADVER
  1
AC1009
  9
$DWGCODEPAGE
  3
dos932
  9
$INSBASE
 10
0.0
 20
0.0
 30
0.0
  9
$EXTMIN
 10
-630.8349443842144
 20
-339.98106727374397
 30
-0.0033093419694268
  9
$EXTMAX
 10
1269.3740963230071
 20
572.2961505785297
 30
0.0011498788957454
  9
$LIMMIN
 10
-2970.0
 20
-2100.0
  9
$LIMMAX
 10
2970.0
 20
2100.0
  9
$ORTHOMODE
 70
     1
  9
$REGENMODE
 70
     1
  9
$FILLMODE
 70
     1
  9
$QTEXTMODE
 70
     0
  9
$MIRRTEXT
 70
     0
  9
$LTSCALE
 40
20.0
  9
$ATTMODE
 70
     1
  9
$TEXTSIZE
 40
64.0
  9
$TRACEWID
 40
0.05
  9
$TEXTSTYLE
  7
STANDARD
  9
$CLAYER
  8
NOTE
  9
$CELTYPE
  6
CONTINUOUS
  9
$CECOLOR
 62
     7
  9
$DIMSCALE
 40
1.0
  9
$DIMASZ
 40
12.0
  9
$DIMEXO
 40
20.0
  9
$DIMDLI
 40
200.0
  9
$DIMRND
 40
0.0
  9
$DIMDLE
 40
0.0
  9
$DIMEXE
 40
20.0
  9
$DIMTP
 40
0.0
  9
$DIMTM
 40
0.0
  9
$DIMTXT
 40
64.0
  9
$DIMCEN
 40
0.09
  9
$DIMTSZ
 40
0.0
  9
$DIMTOL
 70
     0
  9
$DIMLIM
 70
     0
  9
$DIMTIH
 70
     0
  9
$DIMTOH
 70
     0
  9
$DIMSE1
 70
     0
  9
$DIMSE2
 70
     0
  9
$DIMTAD
 70
     1
  9
$DIMZIN
 70
     8
  9
$DIMBLK
  1

  9
$DIMASO
 70
     1
  9
$DIMSHO
 70
     0
  9
$DIMPOST
  1

  9
$DIMAPOST
  1

  9
$DIMALT
 70
     0
  9
$DIMALTD
 70
     2
  9
$DIMALTF
 40
25.399999999999999
  9
$DIMLFAC
 40
1.0
  9
$DIMTOFL
 70
     1
  9
$DIMTVP
 40
0.0
  9
$DIMTIX
 70
     1
  9
$DIMSOXD
 70
     0
  9
$DIMSAH
 70
     0
  9
$DIMBLK1
  1

  9
$DIMBLK2
  1

  9
$DIMSTYLE
  2
STANDARD
  9
$DIMCLRD
 70
     7
  9
$DIMCLRE
 70
     7
  9
$DIMCLRT
 70
     7
  9
$DIMTFAC
 40
1.0
  9
$DIMGAP
 40
25.0
  9
$LUNITS
 70
     2
  9
$LUPREC
 70
     4
  9
$SKETCHINC
 40
0.1
  9
$FILLETRAD
 40
3.0
  9
$AUNITS
 70
     1
  9
$AUPREC
 70
     3
  9
$MENU
  1
ACAD
  9
$ELEVATION
 40
0.0
  9
$PELEVATION
 40
0.0
  9
$THICKNESS
 40
50.0
  9
$LIMCHECK
 70
     0
  9
$CHAMFERA
 40
0.0
  9
$CHAMFERB
 40
0.0
  9
$SKPOLY
 70
     0
  9
$TDCREATE
 40
2453019.62301037
  9
$TDUPDATE
 40
2459017.513569896
  9
$TDINDWG
 40
1.7119991898
  9
$TDUSRTIMER
 40
1.7119991898
  9
$USRTIMER
 70
     1
  9
$ANGBASE
 50
0.0
  9
$ANGDIR
 70
     0
  9
$PDMODE
 70
     3
  9
$PDSIZE
 40
-2.0
  9
$PLINEWID
 40
0.0
  9
$SPLFRAME
 70
     0
  9
$SPLINETYPE
 70
     6
  9
$SPLINESEGS
 70
     8
  9
$SURFTAB1
 70
     6
  9
$SURFTAB2
 70
     6
  9
$SURFTYPE
 70
     6
  9
$SURFU
 70
     6
  9
$SURFV
 70
     6
  9
$UCSNAME
  2

  9
$UCSORG
 10
0.0
 20
0.0
 30
0.0
  9
$UCSXDIR
 10
1.0
 20
0.0
 30
0.0
  9
$UCSYDIR
 10
0.0
 20
1.0
 30
0.0
  9
$PUCSNAME
  2

  9
$PUCSORG
 10
0.0
 20
0.0
 30
0.0
  9
$PUCSXDIR
 10
1.0
 20
0.0
 30
0.0
  9
$PUCSYDIR
 10
0.0
 20
1.0
 30
0.0
  9
$USERI1
 70
     0
  9
$USERI2
 70
     0
  9
$USERI3
 70
     0
  9
$USERI4
 70
     0
  9
$USERI5
 70
     0
  9
$USERR1
 40
20.0
  9
$USERR2
 40
0.0
  9
$USERR3
 40
0.0
  9
$USERR4
 40
0.0
  9
$USERR5
 40
0.0
  9
$WORLDVIEW
 70
     1
  9
$SHADEDGE
 70
     3
  9
$SHADEDIF
 70
    70
  9
$TILEMODE
 70
     1
  9
$MAXACTVP
 70
    48
  9
$PINSBASE
 10
0.0
 20
0.0
 30
0.0
  9
$PLIMCHECK
 70
     0
  9
$PEXTMIN
 10
-100000000000000000000.0
 20
-100000000000000000000.0
 30
-100000000000000000000.0
  9
$PEXTMAX
 10
100000000000000000000.0
 20
100000000000000000000.0
 30
100000000000000000000.0
  9
$PLIMMIN
 10
0.0
 20
0.0
  9
$PLIMMAX
 10
12.0
 20
9.0
  9
$UNITMODE
 70
     0
  9
$VISRETAIN
 70
     0
  9
$PLINEGEN
 70
     0
  9
$PSLTSCALE
 70
     0
  9
$TREEDEPTH
 70
  3020
  9
$ATTDIA
 70
     0
  9
$ATTREQ
 70
     1
  9
$BLIPMODE
 70
     1
  9
$COORDS
 70
     1
  9
$DRAGMODE
 70
     2
  9
$OSMODE
 70
     0
  9
$HANDLING
 70
     0
  9
$HANDSEED
  5
E9DF
  0
ENDSEC
  0
SECTION
  2
TABLES
  0
TABLE
  2
LTYPE
 70
     2
  0
LTYPE
  2
CONTINUOUS
 70
     0
  3
実線
 72
    65
 73
     0
 40
0.0
  0
LTYPE
  2
DASHDOT
 70
     0
  3
____ _ ____ _ ____ _ ____ _ ____ _ ____ _ ____
 72
    65
 73
     4
 40
5.5
 49
4.0
 49
-0.6
 49
0.3
 49
-0.6
  0
ENDTAB
  0
TABLE
  2
LAYER
 70
    12
  0
LAYER
  2
0
 70
     0
 62
     7
  6
CONTINUOUS
  0
LAYER
  2
BASIS
 70
     0
 62
     6
  6
DASHDOT
  0
LAYER
  2
OUTLINE
 70
     0
 62
     3
  6
CONTINUOUS
  0
LAYER
  2
DETAIL
 70
     0
 62
     5
  6
CONTINUOUS
  0
LAYER
  2
SIZE
 70
     0
 62
    30
  6
CONTINUOUS
  0
LAYER
  2
ARRANGE
 70
     0
 62
     1
  6
CONTINUOUS
  0
LAYER
  2
ETC
 70
     0
 62
    61
  6
CONTINUOUS
  0
LAYER
  2
FIX
 70
     0
 62
    11
  6
CONTINUOUS
  0
LAYER
  2
NOTE
 70
     0
 62
     4
  6
CONTINUOUS
  0
LAYER
  2
DEFPOINTS
 70
    64
 62
     7
  6
CONTINUOUS
  0
LAYER
  2
SERVICESPACE
 70
    64
 62
     2
  6
DASHDOT
  0
LAYER
  2
SYMBOLLINE
 70
    64
 62
    15
  6
CONTINUOUS
  0
ENDTAB
  0
TABLE
  2
STYLE
 70
     1
  0
STYLE
  2
STANDARD
 70
     0
 40
64.0
 41
0.9
 50
0.0
 71
     0
 42
64.0
  3
SIMPLEX.shx
  4
BIGFONT.shx
  0
ENDTAB
  0
TABLE
  2
APPID
 70
    17
  0
APPID
  2
ACAD
 70
     0
  0
APPID
  2
AUTOCAD_POSTSCRIPT_FIGURE
 70
     0
  0
APPID
  2
ACAD_EXEMPT_FROM_CAD_STANDARDS
 70
     0
  0
APPID
  2
ACAD_PSEXT
 70
     0
  0
APPID
  2
ACAUTHENVIRON
 70
     0
  0
APPID
  2
GENIUS_GENOENT_13
 70
     0
  0
APPID
  2
GENIUS_GENCFG_13
 70
     0
  0
APPID
  2
GENIUS_GENCFG0_13
 70
     0
  0
APPID
  2
GENIUS_GENCFG1_13
 70
     0
  0
APPID
  2
GENIUS_GENCFG2_13
 70
     0
  0
APPID
  2
GENIUS_GENCFG3_13
 70
     0
  0
APPID
  2
GENIUS_GENCFG4_13
 70
     0
  0
APPID
  2
GENIUS_GEVCFG0_13
 70
     0
  0
APPID
  2
CONTENTBLOCKICON
 70
     0
  0
APPID
  2
CONTENTBLOCKDESCRIPTION
 70
     0
  0
APPID
  2
ACAD_NAV_VCDISPLAY
 70
     0
  0
APPID
  2
ACAD_MLEADERVER
 70
     0
  0
ENDTAB
  0
TABLE
  2
DIMSTYLE
 70
     1
  0
DIMSTYLE
  2
STANDARD
 70
     0
  3

  4

  5
_ORIGIN
  6

  7

 40
1.0
 41
12.0
 42
20.0
 43
200.0
 44
20.0
 45
0.0
 46
0.0
 47
0.0
 48
0.0
140
64.0
141
0.09
142
0.0
143
25.399999999999999
144
1.0
145
0.0
146
1.0
147
25.0
 71
     0
 72
     0
 73
     0
 74
     0
 75
     0
 76
     0
 77
     1
 78
     8
170
     0
171
     2
172
     1
173
     0
174
     1
175
     0
176
     7
177
     7
178
     7
  0
ENDTAB
  0
TABLE
  2
VIEW
 70
     1
  0
VIEW
  2
ALL
 70
     0
 40
4282.6198079999986
 10
0.0
 20
41.309904000000003
 41
5940.0
 11
0.0
 21
0.0
 31
1.0
 12
0.0
 22
0.0
 32
0.0
 42
50.0
 43
0.0
 44
0.0
 50
0.0
 71
     0
  0
ENDTAB
  0
TABLE
  2
UCS
 70
     0
  0
ENDTAB
  0
TABLE
  2
VPORT
 70
     1
  0
VPORT
  2
*ACTIVE
 70
     0
 10
0.0
 20
0.0
 11
1.0
 21
1.0
 12
319.26957596939599
 22
116.15754165239289
 13
0.0
 23
0.0
 14
1.0
 24
1.0
 15
0.0
 25
0.0
 16
0.0
 26
0.0
 36
1.0
 17
0.0
 27
0.0
 37
0.0
 40
728.35878627032901
 41
2.1592039800995031
 42
50.0
 43
0.0
 44
0.0
 50
0.0
 51
0.0
 71
     0
 72
  1000
 73
     1
 74
     3
 75
     0
 76
     0
 77
     0
 78
     0
  0
ENDTAB
  0
ENDSEC
  0
SECTION
  2
BLOCKS
  0
BLOCK
  8
0
  2
_ORIGIN
 70
     0
 10
0.0
 20
0.0
 30
0.0
  3
_ORIGIN
  1
_ORIGIN
  0
CIRCLE
  8
0
  6
CONTINUOUS
 62
     7
 10
0.0
 20
0.0
 30
0.0
 40
0.5
  0
LINE
  8
0
  6
CONTINUOUS
 62
     7
 10
0.0
 20
0.0
 30
0.0
 11
-1.0
 21
0.0
 31
0.0
  0
ENDBLK
  8
0
  0
ENDSEC
  0
SECTION
  2
ENTITIES
  0
CIRCLE
  8
ARRANGE
  6
CONTINUOUS
 62
     1
 10
0.0
 20
0.0
 30
0.0
 40
46.756756800000012
  0
POINT
  8
ARRANGE
  6
CONTINUOUS
 62
     1
 10
0.0
 20
0.0
 30
0.0
  0
LINE
  8
BASIS
  6
DASHDOT
 62
     6
 10
266.26147146246967
 20
0.0
 30
0.0
 11
-269.65371858722852
 21
0.0
 31
0.0
  0
LINE
  8
DETAIL
  6
CONTINUOUS
 62
     5
 10
-165.98648664000001
 20
173.00000016000001
 30
0.0
 11
165.98648664000009
 21
173.00000016000001
 31
0.0
  0
LINE
  8
DETAIL
  6
CONTINUOUS
 62
     5
 10
173.00000016000001
 20
128.5810812
 30
0.0
 11
173.00000016000001
 21
-128.5810812
 31
0.0
  0
LINE
  8
DETAIL
  6
CONTINUOUS
 62
     5
 10
173.00000016000001
 20
165.98648664000001
 30
0.0
 11
173.00000016000001
 21
-190.99999983999999
 31
0.0
  0
LINE
  8
DETAIL
  6
CONTINUOUS
 62
     5
 10
173.00000016000001
 20
165.98648664000001
 30
0.0
 11
173.00000016000001
 21
-190.99999983999999
 31
0.0
  0
LINE
  8
DETAIL
  6
CONTINUOUS
 62
     5
 10
173.00000016000001
 20
128.5810812
 30
0.0
 11
173.00000016000001
 21
-128.5810812
 31
0.0
  0
ARC
  8
DETAIL
  6
CONTINUOUS
 62
     5
 10
165.98648664000009
 20
165.98648664000001
 30
0.0
 40
7.0135135200000001
 50
0.0
 51
90.0
  0
LINE
  8
DETAIL
  6
CONTINUOUS
 62
     5
 10
-173.00000016000001
 20
165.98648664000001
 30
0.0
 11
-173.00000016000001
 21
-190.99999983999999
 31
0.0
  0
ARC
  8
DETAIL
  6
CONTINUOUS
 62
     5
 10
-165.98648664000001
 20
165.98648664000001
 30
0.0
 40
7.0135135200000001
 50
90.0
 51
180.0
  0
LINE
  8
NOTE
  6
CONTINUOUS
 62
     4
 10
254.67801184072661
 20
19.283394754320909
 30
0.0
 11
179.16395104832841
 21
-109.595984587524
 31
0.0
  0
LINE
  8
NOTE
  6
CONTINUOUS
 62
     4
 10
394.72218877430151
 20
19.283394754320909
 30
0.0
 11
254.67801184072661
 21
19.283394754320909
 31
0.0
  0
TEXT
  8
NOTE
  6
CONTINUOUS
 62
     4
 10
275.44591959642048
 20
44.169966115174986
 30
0.0
 40
64.0
  1
EL
 41
0.9
  0
LINE
  8
NOTE
  6
CONTINUOUS
 62
     4
 10
173.00000016000001
 20
-140.27027039999999
 30
0.0
 11
173.00000016000001
 21
-93.51351360000001
 31
0.0
  0
LINE
  8
OUTLINE
  6
CONTINUOUS
 62
     3
 10
-165.98648664000001
 20
173.00000016000001
 30
0.0
 11
165.98648664000009
 21
173.00000016000001
 31
0.0
  0
LINE
  8
OUTLINE
  6
CONTINUOUS
 62
     3
 10
173.00000016000001
 20
128.5810812
 30
0.0
 11
173.00000016000001
 21
-128.5810812
 31
0.0
  0
LINE
  8
OUTLINE
  6
CONTINUOUS
 62
     3
 10
173.00000016000001
 20
165.98648664000001
 30
0.0
 11
173.00000016000001
 21
-190.99999983999999
 31
0.0
  0
LINE
  8
OUTLINE
  6
CONTINUOUS
 62
     3
 10
173.00000016000001
 20
165.98648664000001
 30
0.0
 11
173.00000016000001
 21
-190.99999983999999
 31
0.0
  0
LINE
  8
OUTLINE
  6
CONTINUOUS
 62
     3
 10
173.00000016000001
 20
128.5810812
 30
0.0
 11
173.00000016000001
 21
-128.5810812
 31
0.0
  0
ARC
  8
OUTLINE
  6
CONTINUOUS
 62
     3
 10
165.98648664000009
 20
165.98648664000001
 30
0.0
 40
7.0135135200000001
 50
0.0
 51
90.0
  0
LINE
  8
OUTLINE
  6
CONTINUOUS
 62
     3
 10
-173.00000016000001
 20
165.98648664000001
 30
0.0
 11
-173.00000016000001
 21
-190.99999983999999
 31
0.0
  0
ARC
  8
OUTLINE
  6
CONTINUOUS
 62
     3
 10
-165.98648664000001
 20
165.98648664000001
 30
0.0
 40
7.0135135200000001
 50
90.0
 51
180.0
  0
LINE
  8
DETAIL
  6
CONTINUOUS
 62
     5
 10
145.27027039999999
 20
144.77027039999999
 30
0.0
 11
-145.27027039999999
 21
144.77027039999999
 31
0.0
  0
LINE
  8
DETAIL
  6
CONTINUOUS
 62
     5
 10
145.27027039999999
 20
-144.77027039999999
 30
0.0
 11
-145.27027039999999
 21
-144.77027039999999
 31
0.0
  0
LINE
  8
DETAIL
  6
CONTINUOUS
 62
     5
 10
-145.27027039999999
 20
144.77027039999999
 30
0.0
 11
-145.27027039999999
 21
-144.77027039999999
 31
0.0
  0
LINE
  8
DETAIL
  6
CONTINUOUS
 62
     5
 10
145.27027039999999
 20
144.77027039999999
 30
0.0
 11
145.27027039999999
 21
-144.77027039999999
 31
0.0
  0
LINE
  8
DETAIL
  6
CONTINUOUS
 62
     5
 10
145.27027039999999
 20
116.891892
 30
0.0
 11
-145.27027039999999
 21
116.891892
 31
0.0
  0
LINE
  8
DETAIL
  6
CONTINUOUS
 62
     5
 10
145.27027039999999
 20
31.210135164000061
 30
0.0
 11
-145.27027039999999
 21
31.210135164000061
 31
0.0
  0
LINE
  8
DETAIL
  6
CONTINUOUS
 62
     5
 10
145.27027039999999
 20
-54.471621671999912
 30
0.0
 11
-145.27027039999999
 21
-54.471621671999912
 31
0.0
  0
CIRCLE
  8
FIX
  6
CONTINUOUS
 62
    11
 10
-85.135135200000036
 20
157.3817569
 30
0.0
 40
2.9222972999999999
  0
CIRCLE
  8
DETAIL
  6
CONTINUOUS
 62
     5
 10
-85.135135200000036
 20
157.3817569
 30
0.0
 40
2.9222972999999999
  0
LINE
  8
BASIS
  6
DASHDOT
 62
     6
 10
-85.135135200000036
 20
178.5101353
 30
0.0
 11
-85.135135200000036
 21
136.25337850000011
 31
0.0
  0
LINE
  8
BASIS
  6
DASHDOT
 62
     6
 10
-108.5135136
 20
157.3817569
 30
0.0
 11
-61.756756800000062
 21
157.3817569
 31
0.0
  0
CIRCLE
  8
FIX
  6
CONTINUOUS
 62
    11
 10
85.135135200000036
 20
157.3817569
 30
0.0
 40
2.9222972999999999
  0
LINE
  8
BASIS
  6
DASHDOT
 62
     6
 10
85.135135200000036
 20
178.5101353
 30
0.0
 11
85.135135200000036
 21
136.25337850000011
 31
0.0
  0
LINE
  8
BASIS
  6
DASHDOT
 62
     6
 10
108.5135136
 20
157.3817569
 30
0.0
 11
61.756756800000062
 21
157.3817569
 31
0.0
  0
CIRCLE
  8
DETAIL
  6
CONTINUOUS
 62
     5
 10
85.135135200000036
 20
157.3817569
 30
0.0
 40
2.9222972999999999
  0
CIRCLE
  8
FIX
  6
CONTINUOUS
 62
    11
 10
-85.135135200000036
 20
-157.38175689999969
 30
0.0
 40
2.9222972999999999
  0
LINE
  8
BASIS
  6
DASHDOT
 62
     6
 10
-85.135135200000036
 20
-178.2601353
 30
0.0
 11
-85.135135200000036
 21
-136.0033785
 31
0.0
  0
LINE
  8
BASIS
  6
DASHDOT
 62
     6
 10
-108.5135136
 20
-157.38175689999969
 30
0.0
 11
-61.756756800000062
 21
-157.38175689999969
 31
0.0
  0
CIRCLE
  8
DETAIL
  6
CONTINUOUS
 62
     5
 10
-85.135135200000036
 20
-157.38175689999969
 30
0.0
 40
2.9222972999999999
  0
CIRCLE
  8
FIX
  6
CONTINUOUS
 62
    11
 10
85.135135200000036
 20
-157.38175689999969
 30
0.0
 40
2.9222972999999999
  0
CIRCLE
  8
DETAIL
  6
CONTINUOUS
 62
     5
 10
85.135135200000036
 20
-157.38175689999969
 30
0.0
 40
2.9222972999999999
  0
LINE
  8
BASIS
  6
DASHDOT
 62
     6
 10
85.135135200000036
 20
-178.2601353
 30
0.0
 11
85.135135200000036
 21
-136.0033785
 31
0.0
  0
LINE
  8
BASIS
  6
DASHDOT
 62
     6
 10
108.5135136
 20
-157.38175689999969
 30
0.0
 11
61.756756800000062
 21
-157.38175689999969
 31
0.0
  0
LINE
  8
NOTE
  6
CONTINUOUS
 62
     4
 10
632.77543841217948
 20
399.12502535283431
 30
0.0
 11
252.68772888874571
 21
399.12502535283431
 31
0.0
  0
TEXT
  8
NOTE
  6
CONTINUOUS
 62
     4
 10
271.48428185243517
 20
427.11328916925982
 30
0.0
 40
64.0
  1
4-φ5×8
 41
0.9
  0
LINE
  8
NOTE
  6
CONTINUOUS
 62
     4
 10
252.68772888874571
 20
399.12502535283431
 30
0.0
 11
91.966752979720354
 21
167.2473029321165
 31
0.0
  0
LINE
  8
NOTE
  6
CONTINUOUS
 62
     4
 10
-100.168919
 20
143.03488292509971
 30
0.0
 11
-100.168919
 21
153.45185250644499
 31
0.0
  0
LINE
  8
DETAIL
  6
CONTINUOUS
 62
     5
 10
-102.5031417591974
 20
152.28884933227519
 30
0.0
 11
-100.168919
 21
152.28884933227519
 31
0.0
  0
LINE
  8
DETAIL
  6
CONTINUOUS
 62
     5
 10
-103.6702531387958
 20
148.6217379526766
 30
0.0
 11
-100.168919
 21
148.6217379526766
 31
0.0
  0
LINE
  8
DETAIL
  6
CONTINUOUS
 62
     5
 10
-103.6702531387958
 20
144.77027039999999
 30
0.0
 11
-103.6702531387958
 21
148.6217379526766
 31
0.0
  0
LINE
  8
DETAIL
  6
CONTINUOUS
 62
     5
 10
-102.5031417591974
 20
144.77027039999999
 30
0.0
 11
-102.5031417591974
 21
152.28884933227519
 31
0.0
  0
LINE
  8
DETAIL
  6
CONTINUOUS
 62
     5
 10
-102.50318128254401
 20
152.28880736977089
 30
0.0
 11
-103.6701679745677
 21
148.62182067774759
 31
0.0
  0
LINE
  8
DETAIL
  6
CONTINUOUS
 62
     5
 10
-97.8346962408026
 20
152.28884933227519
 30
0.0
 11
-100.168919
 21
152.28884933227519
 31
0.0
  0
LINE
  8
DETAIL
  6
CONTINUOUS
 62
     5
 10
-96.667584861203977
 20
148.6217379526766
 30
0.0
 11
-100.168919
 21
148.6217379526766
 31
0.0
  0
LINE
  8
DETAIL
  6
CONTINUOUS
 62
     5
 10
-96.667584861203977
 20
144.77027039999999
 30
0.0
 11
-96.667584861203977
 21
148.6217379526766
 31
0.0
  0
LINE
  8
DETAIL
  6
CONTINUOUS
 62
     5
 10
-97.8346962408026
 20
144.77027039999999
 30
0.0
 11
-97.8346962408026
 21
152.28884933227519
 31
0.0
  0
LINE
  8
DETAIL
  6
CONTINUOUS
 62
     5
 10
-97.834655252235962
 20
152.28863107257601
 30
0.0
 11
-96.667668560212178
 21
148.621644380552
 31
0.0
  0
LINE
  8
DETAIL
  6
CONTINUOUS
 62
     5
 10
204.12744704045139
 20
-251.08361047838591
 30
0.0
 11
204.12744704045139
 21
-237.07827392320229
 31
0.0
  0
LINE
  8
DETAIL
  6
CONTINUOUS
 62
     5
 10
219.06647269931361
 20
-248.3956106370496
 30
0.0
 11
219.06647269931361
 21
-239.7662737645386
 31
0.0
  0
LINE
  8
DETAIL
  6
CONTINUOUS
 62
     5
 10
217.31557834413431
 20
-237.9025321296827
 30
0.0
 11
204.12744704045139
 21
-237.07827392320229
 31
0.0
  0
LINE
  8
DETAIL
  6
CONTINUOUS
 62
     5
 10
189.08887764983061
 20
-241.1398215242059
 30
0.0
 11
204.12744704045139
 21
-241.1398215242059
 31
0.0
  0
ARC
  8
DETAIL
  6
CONTINUOUS
 62
     5
 10
217.19909449195569
 20
-239.7662737645386
 30
0.0
 40
1.8673782073577501
 50
0.0
 51
86.423665624995337
  0
LINE
  8
DETAIL
  6
CONTINUOUS
 62
     5
 10
217.19909449195569
 20
-237.12540217761401
 30
0.0
 11
217.19909449195569
 21
-234.27720661216611
 31
0.0
  0
LINE
  8
DETAIL
  6
CONTINUOUS
 62
     5
 10
207.86220345516699
 20
-236.3178296923335
 30
0.0
 11
207.86220345516699
 21
-234.27720661216549
 31
0.0
  0
LINE
  8
DETAIL
  6
CONTINUOUS
 62
     5
 10
210.14472298166399
 20
-218.40449184962441
 30
0.0
 11
214.91657496545869
 21
-218.40449184962441
 31
0.0
  0
LINE
  8
DETAIL
  6
CONTINUOUS
 62
     5
 10
217.19909449195569
 20
-234.27720661216611
 30
0.0
 11
215.38022191424281
 21
-218.81678970160729
 31
0.0
  0
LINE
  8
DETAIL
  6
CONTINUOUS
 62
     5
 10
207.86220345516699
 20
-234.27720661216549
 30
0.0
 11
209.6810760328793
 21
-218.81678970160729
 31
0.0
  0
ARC
  8
DETAIL
  6
CONTINUOUS
 62
     5
 10
218.13278359563449
 20
-237.12540217761401
 30
0.0
 40
0.9336891036788424
 50
180.0
 51
250.528779365514
  0
ARC
  8
DETAIL
  6
CONTINUOUS
 62
     5
 10
206.92851435148819
 20
-236.3178296923335
 30
0.0
 40
0.9336891036788052
 50
266.42366562499529
 51
0.0
  0
ARC
  8
DETAIL
  6
CONTINUOUS
 62
     5
 10
214.91657496545869
 20
-218.87133640146411
 30
0.0
 40
0.4668445518394048
 50
6.709836807745897
 51
90.0
  0
ARC
  8
DETAIL
  6
CONTINUOUS
 62
     5
 10
210.14472298166399
 20
-218.87133640146411
 30
0.0
 40
0.4668445518396148
 50
90.0
 51
173.29016319225411
  0
LINE
  8
DETAIL
  6
CONTINUOUS
 62
     5
 10
209.50989010871751
 20
-220.27187005698249
 30
0.0
 11
212.53064897356131
 21
-220.27187005698249
 31
0.0
  0
LINE
  8
DETAIL
  6
CONTINUOUS
 62
     5
 10
209.34512144336259
 20
-221.6724037125004
 30
0.0
 11
212.53064897356131
 21
-221.6724037125004
 31
0.0
  0
LINE
  8
DETAIL
  6
CONTINUOUS
 62
     5
 10
212.53064897356131
 20
-223.07293736801881
 30
0.0
 11
215.88094516911499
 21
-223.07293736801881
 31
0.0
  0
LINE
  8
DETAIL
  6
CONTINUOUS
 62
     5
 10
212.53064897356131
 20
-224.4734710235372
 30
0.0
 11
216.04571383446989
 21
-224.4734710235372
 31
0.0
  0
LINE
  8
DETAIL
  6
CONTINUOUS
 62
     5
 10
208.85081544729749
 20
-225.87400467905559
 30
0.0
 11
212.53064897356131
 21
-225.87400467905559
 31
0.0
  0
LINE
  8
DETAIL
  6
CONTINUOUS
 62
     5
 10
208.68604678194239
 20
-227.274538334574
 30
0.0
 11
212.53064897356131
 21
-227.274538334574
 31
0.0
  0
LINE
  8
DETAIL
  6
CONTINUOUS
 62
     5
 10
212.53064897356131
 20
-228.6750719900929
 30
0.0
 11
216.54001983053561
 21
-228.6750719900929
 31
0.0
  0
LINE
  8
DETAIL
  6
CONTINUOUS
 62
     5
 10
212.53064897356131
 20
-230.07560564561081
 30
0.0
 11
216.70478849589099
 21
-230.07560564561081
 31
0.0
  0
LINE
  8
DETAIL
  6
CONTINUOUS
 62
     5
 10
208.19174078587679
 20
-231.47613930112919
 30
0.0
 11
212.53064897356131
 21
-231.47613930112919
 31
0.0
  0
LINE
  8
DETAIL
  6
CONTINUOUS
 62
     5
 10
208.02697212052189
 20
-232.8766729566471
 30
0.0
 11
212.53064897356131
 21
-232.8766729566471
 31
0.0
  0
LINE
  8
DETAIL
  6
CONTINUOUS
 62
     5
 10
213.46433807724071
 20
-230.07560564561081
 30
0.0
 11
213.46433807724071
 21
-228.6750719900929
 31
0.0
  0
LINE
  8
DETAIL
  6
CONTINUOUS
 62
     5
 10
211.59695986988251
 20
-232.8766729566471
 30
0.0
 11
211.59695986988251
 21
-231.47613930112919
 31
0.0
  0
LINE
  8
DETAIL
  6
CONTINUOUS
 62
     5
 10
213.46433807724071
 20
-224.4734710235372
 30
0.0
 11
213.46433807724071
 21
-223.07293736801881
 31
0.0
  0
LINE
  8
DETAIL
  6
CONTINUOUS
 62
     5
 10
211.59695986988251
 20
-221.6724037125004
 30
0.0
 11
211.59695986988251
 21
-220.27187005698249
 31
0.0
  0
LINE
  8
DETAIL
  6
CONTINUOUS
 62
     5
 10
211.59695986988251
 20
-227.274538334574
 30
0.0
 11
211.59695986988251
 21
-225.87400467905559
 31
0.0
  0
LINE
  8
DETAIL
  6
CONTINUOUS
 62
     5
 10
204.12744704045139
 20
-239.87934123423909
 30
0.0
 11
214.39802718091889
 21
-239.87934123423909
 31
0.0
  0
LINE
  8
DETAIL
  6
CONTINUOUS
 62
     5
 10
214.39802718091889
 20
-248.2825431673491
 30
0.0
 11
214.39802718091889
 21
-239.87934123423909
 31
0.0
  0
LINE
  8
DETAIL
  6
CONTINUOUS
 62
     5
 10
213.93118262907981
 20
-218.40449184962441
 30
0.0
 11
213.93118262907981
 21
-218.2988542332894
 31
0.0
  0
LINE
  8
DETAIL
  6
CONTINUOUS
 62
     5
 10
211.13011531804301
 20
-218.40449184962441
 30
0.0
 11
211.13011531804301
 21
-218.2988542332894
 31
0.0
  0
LINE
  8
DETAIL
  6
CONTINUOUS
 62
     5
 10
204.12744704045139
 20
-251.08361047838591
 30
0.0
 11
217.31557834413431
 21
-250.2593522719055
 31
0.0
  0
LINE
  8
DETAIL
  6
CONTINUOUS
 62
     5
 10
189.08887764983061
 20
-247.0220628773823
 30
0.0
 11
204.12744704045139
 21
-247.0220628773823
 31
0.0
  0
CIRCLE
  8
DETAIL
  6
CONTINUOUS
 62
     5
 10
193.20328452740799
 20
-244.0809422007938
 30
0.0
 40
1.447218110702269
  0
CIRCLE
  8
DETAIL
  6
CONTINUOUS
 62
     5
 10
193.20328452740799
 20
-244.0809422007938
 30
0.0
 40
1.8206937521738169
  0
ARC
  8
DETAIL
  6
CONTINUOUS
 62
     5
 10
217.19909449195569
 20
-248.3956106370496
 30
0.0
 40
1.867378207357876
 50
273.57633437500471
 51
0.0
  0
LINE
  8
DETAIL
  6
CONTINUOUS
 62
     5
 10
204.12744704045139
 20
-248.2825431673491
 30
0.0
 11
214.39802718091889
 21
-248.2825431673491
 31
0.0
  0
LINE
  8
DETAIL
  6
CONTINUOUS
 62
     5
 10
211.13011531804301
 20
-218.40449184962441
 30
0.0
 11
211.13011531804301
 21
-201.40587837568449
 31
0.0
  0
LINE
  8
DETAIL
  6
CONTINUOUS
 62
     5
 10
213.93118262907981
 20
-218.40449184962441
 30
0.0
 11
213.93118262907981
 21
-202.25401052726519
 31
0.0
  0
ARC
  8
DETAIL
  6
CONTINUOUS
 62
     5
 10
193.856866899984
 20
-244.0809422007938
 30
0.0
 40
5.602134622073315
 50
148.33175674645909
 51
211.66824325354079
  0
LINE
  8
DETAIL
  6
CONTINUOUS
 62
     5
 10
189.08887764983061
 20
-247.0220628773823
 30
0.0
 11
189.08887764983061
 21
-241.1398215242059
 31
0.0
  0
LINE
  8
DETAIL
  6
CONTINUOUS
 62
     5
 10
208.5919358808292
 20
-199.10847999415591
 30
0.0
 11
210.18185489772941
 21
-198.70734020536341
 31
0.0
  0
LINE
  8
DETAIL
  6
CONTINUOUS
 62
     5
 10
210.18185489772941
 20
-198.70734020536341
 30
0.0
 11
211.63708464247941
 21
-198.63999556929321
 31
0.0
  0
LINE
  8
DETAIL
  6
CONTINUOUS
 62
     5
 10
211.63708464247941
 20
-198.63999556929321
 30
0.0
 11
211.63708464247941
 21
-198.63999556929321
 31
0.0
  0
LINE
  8
DETAIL
  6
CONTINUOUS
 62
     5
 10
211.63708464247941
 20
-198.63999556929321
 30
0.0
 11
212.86978428541511
 21
-199.06748760699239
 31
0.0
  0
LINE
  8
DETAIL
  6
CONTINUOUS
 62
     5
 10
212.86978428541511
 20
-199.06748760699239
 30
0.0
 11
213.979506766821
 21
-199.45984331282381
 31
0.0
  0
LINE
  8
DETAIL
  6
CONTINUOUS
 62
     5
 10
213.979506766821
 20
-199.45984331282381
 30
0.0
 11
213.979506766821
 21
-199.45984331282381
 31
0.0
  0
LINE
  8
DETAIL
  6
CONTINUOUS
 62
     5
 10
213.979506766821
 20
-199.45984331282381
 30
0.0
 11
215.08630122056999
 21
-199.2929457364576
 31
0.0
  0
LINE
  8
DETAIL
  6
CONTINUOUS
 62
     5
 10
215.08630122056999
 20
-199.2929457364576
 30
0.0
 11
216.20480778494061
 21
-198.75711667550189
 31
0.0
  0
LINE
  8
DETAIL
  6
CONTINUOUS
 62
     5
 10
208.5919358808292
 20
-201.90954730519269
 30
0.0
 11
210.18185489772941
 21
-201.5084075164003
 31
0.0
  0
LINE
  8
DETAIL
  6
CONTINUOUS
 62
     5
 10
210.18185489772941
 20
-201.5084075164003
 30
0.0
 11
211.63708464247941
 21
-201.4410628803295
 31
0.0
  0
LINE
  8
DETAIL
  6
CONTINUOUS
 62
     5
 10
211.63708464247941
 20
-201.4410628803295
 30
0.0
 11
211.63708464247941
 21
-201.4410628803295
 31
0.0
  0
LINE
  8
DETAIL
  6
CONTINUOUS
 62
     5
 10
211.63708464247941
 20
-201.4410628803295
 30
0.0
 11
212.86978428541511
 21
-201.86855491802919
 31
0.0
  0
LINE
  8
DETAIL
  6
CONTINUOUS
 62
     5
 10
212.86978428541511
 20
-201.86855491802919
 30
0.0
 11
213.979506766821
 21
-202.2609106238601
 31
0.0
  0
LINE
  8
DETAIL
  6
CONTINUOUS
 62
     5
 10
213.979506766821
 20
-202.2609106238601
 30
0.0
 11
213.979506766821
 21
-202.2609106238601
 31
0.0
  0
LINE
  8
DETAIL
  6
CONTINUOUS
 62
     5
 10
213.979506766821
 20
-202.2609106238601
 30
0.0
 11
215.08630122056999
 21
-202.09401304749451
 31
0.0
  0
LINE
  8
DETAIL
  6
CONTINUOUS
 62
     5
 10
215.08630122056999
 20
-202.09401304749451
 30
0.0
 11
216.20480778494061
 21
-201.55818398653869
 31
0.0
  0
LINE
  8
DETAIL
  6
CONTINUOUS
 62
     5
 10
193.54537780284801
 20
-122.98256139756479
 30
0.0
 11
172.99360979587991
 21
-122.98256139756479
 31
0.0
  0
LINE
  8
DETAIL
  6
CONTINUOUS
 62
     5
 10
193.54537780284801
 20
-117.2041080583932
 30
0.0
 11
173.00000016000001
 21
-117.2041080583932
 31
0.0
  0
LINE
  8
DETAIL
  6
CONTINUOUS
 62
     5
 10
193.54537780284801
 20
-117.2041080583932
 30
0.0
 11
193.54537780284801
 21
-122.98256139756479
 31
0.0
  0
LINE
  8
DETAIL
  6
DASHDOT
 62
     4
 10
162.18840016281601
 20
-119.891892
 30
0.0
 11
220.44183815261161
 21
-119.891892
 31
0.0
  0
ARC
  8
DETAIL
  6
CONTINUOUS
 62
     5
 10
202.07333101235761
 20
-130.34920996120371
 30
0.0
 40
11.57774488561823
 50
0.0
 51
90.0
  0
ARC
  8
DETAIL
  6
CONTINUOUS
 62
     5
 10
202.07333136853191
 20
-130.34920996120371
 30
0.0
 40
9.336891036788904
 50
0.0
 51
90.0
  0
LINE
  8
DETAIL
  6
CONTINUOUS
 62
     5
 10
213.6510758979764
 20
-199.38772371775201
 30
0.0
 11
213.6510758979764
 21
-130.34920996120371
 31
0.0
  0
LINE
  8
DETAIL
  6
CONTINUOUS
 62
     5
 10
211.4102224053205
 20
-198.6139194304088
 30
0.0
 11
211.4102224053205
 21
-130.34920996120371
 31
0.0
  0
LINE
  8
DETAIL
  6
CONTINUOUS
 62
     5
 10
202.07333136853191
 20
-121.0123189244151
 30
0.0
 11
193.54537780284801
 21
-121.0123189244151
 31
0.0
  0
LINE
  8
DETAIL
  6
CONTINUOUS
 62
     5
 10
202.07333101235761
 20
-118.7714650755855
 30
0.0
 11
193.54537780284801
 21
-118.7714650755855
 31
0.0
  0
LINE
  8
SIZE
  6
CONTINUOUS
 62
    30
 10
-173.00000016000001
 20
185.98648664000009
 30
0.0
 11
-173.00000016000001
 21
422.73614642266892
 31
0.0
  0
LINE
  8
SIZE
  6
CONTINUOUS
 62
    30
 10
173.00000016000001
 20
185.98648664000009
 30
0.0
 11
173.00000016000001
 21
422.73614642266892
 31
0.0
  0
LINE
  8
SIZE
  6
CONTINUOUS
 62
    30
 10
-161.00000016000001
 20
402.73614642266892
 30
0.0
 11
161.00000016000001
 21
402.73614642266892
 31
0.0
  0
CIRCLE
  8
SIZE
  6
CONTINUOUS
 62
    30
 10
-173.00000016000001
 20
402.73614642266892
 30
0.0
 40
6.0
  0
LINE
  8
SIZE
  6
CONTINUOUS
 62
    30
 10
-173.00000016000001
 20
402.73614642266892
 30
0.0
 11
-161.00000016000001
 21
402.73614642266892
 31
0.0
  0
CIRCLE
  8
SIZE
  6
CONTINUOUS
 62
    30
 10
173.00000016000001
 20
402.73614642266892
 30
0.0
 40
6.0
  0
LINE
  8
SIZE
  6
CONTINUOUS
 62
    30
 10
173.00000016000001
 20
402.73614642266892
 30
0.0
 11
161.00000016000001
 21
402.73614642266892
 31
0.0
  0
TEXT
  8
SIZE
  6
CONTINUOUS
 62
    30
 10
-72.685714285714297
 20
427.73614642266892
 30
0.0
 40
64.0
  1
346
 41
0.9
 72
     1
 11
0.0
 21
427.73614642266892
 31
0.0
  0
LINE
  8
SIZE
  6
CONTINUOUS
 62
    30
 10
-85.135135200000036
 20
198.2601353
 30
0.0
 11
-85.135135199999922
 21
306.0455109669515
 31
0.0
  0
LINE
  8
SIZE
  6
CONTINUOUS
 62
    30
 10
85.135135200000036
 20
198.2601353
 30
0.0
 11
85.135135200000036
 21
306.0455109669515
 31
0.0
  0
LINE
  8
SIZE
  6
CONTINUOUS
 62
    30
 10
-97.135135200000036
 20
286.0455109669515
 30
0.0
 11
-109.13513519999999
 21
286.0455109669515
 31
0.0
  0
LINE
  8
SIZE
  6
CONTINUOUS
 62
    30
 10
97.135135200000036
 20
286.0455109669515
 30
0.0
 11
109.13513519999999
 21
286.0455109669515
 31
0.0
  0
LINE
  8
SIZE
  6
CONTINUOUS
 62
    30
 10
-85.135135200000036
 20
286.0455109669515
 30
0.0
 11
85.135135200000036
 21
286.0455109669515
 31
0.0
  0
CIRCLE
  8
SIZE
  6
CONTINUOUS
 62
    30
 10
-85.135135200000036
 20
286.0455109669515
 30
0.0
 40
6.0
  0
LINE
  8
SIZE
  6
CONTINUOUS
 62
    30
 10
-85.135135200000036
 20
286.0455109669515
 30
0.0
 11
-97.135135200000036
 21
286.0455109669515
 31
0.0
  0
CIRCLE
  8
SIZE
  6
CONTINUOUS
 62
    30
 10
85.135135200000036
 20
286.0455109669515
 30
0.0
 40
6.0
  0
LINE
  8
SIZE
  6
CONTINUOUS
 62
    30
 10
85.135135200000036
 20
286.0455109669515
 30
0.0
 11
97.135135200000036
 21
286.0455109669515
 31
0.0
  0
TEXT
  8
SIZE
  6
CONTINUOUS
 62
    30
 10
-68.571428571428569
 20
311.0455109669515
 30
0.0
 40
64.0
  1
170
 41
0.9
 72
     1
 11
0.0
 21
311.0455109669515
 31
0.0
  0
LINE
  8
SIZE
  6
CONTINUOUS
 62
    30
 10
-128.51351360000001
 20
157.3817569
 30
0.0
 11
-413.42431143573322
 21
157.38175690000011
 31
0.0
  0
LINE
  8
SIZE
  6
CONTINUOUS
 62
    30
 10
-128.51351360000001
 20
-157.38175689999969
 30
0.0
 11
-413.42431143573327
 21
-157.38175689999969
 31
0.0
  0
LINE
  8
SIZE
  6
CONTINUOUS
 62
    30
 10
-393.42431143573322
 20
145.38175690000011
 30
0.0
 11
-393.42431143573327
 21
-145.38175689999969
 31
0.0
  0
CIRCLE
  8
SIZE
  6
CONTINUOUS
 62
    30
 10
-393.42431143573322
 20
157.38175690000011
 30
0.0
 40
6.0
  0
LINE
  8
SIZE
  6
CONTINUOUS
 62
    30
 10
-393.42431143573322
 20
157.38175690000011
 30
0.0
 11
-393.42431143573322
 21
145.38175690000011
 31
0.0
  0
CIRCLE
  8
SIZE
  6
CONTINUOUS
 62
    30
 10
-393.42431143573327
 20
-157.38175689999969
 30
0.0
 40
6.0
  0
LINE
  8
SIZE
  6
CONTINUOUS
 62
    30
 10
-393.42431143573327
 20
-157.38175689999969
 30
0.0
 11
-393.42431143573327
 21
-145.38175689999969
 31
0.0
  0
TEXT
  8
SIZE
  6
CONTINUOUS
 62
    30
 10
-418.42431143573322
 20
-73.386329419894665
 30
0.0
 40
64.0
  1
315
 50
90.0
 41
0.9
 72
     1
 11
-418.42431143573322
 21
-4.8149008484660953
 31
0.0
  0
LINE
  8
SIZE
  6
CONTINUOUS
 62
    30
 10
-185.98648664000001
 20
173.00000016000001
 30
0.0
 11
-561.61222863682406
 21
173.0000001600001
 31
0.0
  0
LINE
  8
SIZE
  6
CONTINUOUS
 62
    30
 10
-187.00000016000001
 20
-196.99999983999999
 30
0.0
 11
-561.61222863682406
 21
-196.9999998399997
 31
0.0
  0
LINE
  8
SIZE
  6
CONTINUOUS
 62
    30
 10
-541.61222863682406
 20
161.0000001600001
 30
0.0
 11
-541.61222863682406
 21
-184.9999998399997
 31
0.0
  0
CIRCLE
  8
SIZE
  6
CONTINUOUS
 62
    30
 10
-541.61222863682406
 20
173.0000001600001
 30
0.0
 40
6.0
  0
LINE
  8
SIZE
  6
CONTINUOUS
 62
    30
 10
-541.61222863682406
 20
173.0000001600001
 30
0.0
 11
-541.61222863682406
 21
161.0000001600001
 31
0.0
  0
CIRCLE
  8
SIZE
  6
CONTINUOUS
 62
    30
 10
-541.61222863682406
 20
-196.9999998399997
 30
0.0
 40
6.0
  0
LINE
  8
SIZE
  6
CONTINUOUS
 62
    30
 10
-541.61222863682406
 20
-196.9999998399997
 30
0.0
 11
-541.61222863682406
 21
-184.9999998399997
 31
0.0
  0
TEXT
  8
SIZE
  6
CONTINUOUS
 62
    30
 10
-566.61222863682406
 20
-80.464968336431326
 30
0.0
 40
64.0
  1
370
 50
90.0
 41
0.9
 72
     1
 11
-566.61222863682406
 21
-6.4078254792884763
 31
0.0
  0
LINE
  8
BASIS
  6
DASHDOT
 62
     6
 10
0.0
 20
219.7620483590872
 30
0.0
 11
0.0
 21
-257.92935683999991
 31
0.0
  0
LINE
  8
DETAIL
  6
CONTINUOUS
 62
     5
 10
-167.00000016000001
 20
-196.99999983999999
 30
0.0
 11
167.00000016000001
 21
-196.99999983999999
 31
0.0
  0
ARC
  8
DETAIL
  6
CONTINUOUS
 62
     5
 10
167.00000016000001
 20
-190.99999983999999
 30
0.0
 40
6.0
 50
270.0
 51
0.0
  0
ARC
  8
DETAIL
  6
CONTINUOUS
 62
     5
 10
-167.00000016000001
 20
-190.99999983999999
 30
0.0
 40
6.0
 50
180.0
 51
270.0
  0
LINE
  8
OUTLINE
  6
CONTINUOUS
 62
     3
 10
-167.00000016000001
 20
-196.99999983999999
 30
0.0
 11
167.00000016000001
 21
-196.99999983999999
 31
0.0
  0
ARC
  8
OUTLINE
  6
CONTINUOUS
 62
     3
 10
167.00000016000001
 20
-190.99999983999999
 30
0.0
 40
6.0
 50
270.0
 51
0.0
  0
ARC
  8
OUTLINE
  6
CONTINUOUS
 62
     3
 10
-167.00000016000001
 20
-190.99999983999999
 30
0.0
 40
6.0
 50
180.0
 51
270.0
  0
LINE
  8
SIZE
  6
CONTINUOUS
 62
    30
 10
286.26147146246967
 20
0.0
 30
0.0
 11
473.10274745487459
 21
-0.0000000000000568
 31
0.0
  0
LINE
  8
SIZE
  6
CONTINUOUS
 62
    30
 10
240.44183815261161
 20
-119.891892
 30
0.0
 11
473.10274745487459
 21
-119.8918920000001
 31
0.0
  0
LINE
  8
SIZE
  6
CONTINUOUS
 62
    30
 10
453.10274745487459
 20
-12.00000000000006
 30
0.0
 11
453.10274745487459
 21
-107.8918920000001
 31
0.0
  0
LINE
  8
SIZE
  6
CONTINUOUS
 62
    30
 10
453.10274745487459
 20
-119.8918920000001
 30
0.0
 11
453.10274745487459
 21
-339.85284338560342
 31
0.0
  0
CIRCLE
  8
SIZE
  6
CONTINUOUS
 62
    30
 10
453.10274745487459
 20
-0.0000000000000568
 30
0.0
 40
6.0
  0
LINE
  8
SIZE
  6
CONTINUOUS
 62
    30
 10
453.10274745487459
 20
-0.0000000000000568
 30
0.0
 11
453.10274745487459
 21
-12.00000000000006
 31
0.0
  0
CIRCLE
  8
SIZE
  6
CONTINUOUS
 62
    30
 10
453.10274745487459
 20
-119.8918920000001
 30
0.0
 40
6.0
  0
LINE
  8
SIZE
  6
CONTINUOUS
 62
    30
 10
453.10274745487459
 20
-119.8918920000001
 30
0.0
 11
453.10274745487459
 21
-107.8918920000001
 31
0.0
  0
TEXT
  8
SIZE
  6
CONTINUOUS
 62
    30
 10
428.10274745487459
 20
-314.85284338560331
 30
0.0
 40
64.0
  1
120
 50
90.0
 41
0.9
 72
     1
 11
428.10274745487459
 21
-246.2814148141747
 31
0.0
  0
LINE
  8
SIZE
  6
CONTINUOUS
 62
    30
 10
-165.27027039999999
 20
144.77027039999999
 30
0.0
 11
-298.69818390801908
 21
144.77027039999999
 31
0.0
  0
LINE
  8
SIZE
  6
CONTINUOUS
 62
    30
 10
-165.27027039999999
 20
-144.77027039999999
 30
0.0
 11
-298.69818390801908
 21
-144.77027039999999
 31
0.0
  0
LINE
  8
SIZE
  6
CONTINUOUS
 62
    30
 10
-278.69818390801902
 20
132.77027039999999
 30
0.0
 11
-278.69818390801908
 21
-132.77027039999999
 31
0.0
  0
CIRCLE
  8
SIZE
  6
CONTINUOUS
 62
    30
 10
-278.69818390801902
 20
144.77027039999999
 30
0.0
 40
6.0
  0
LINE
  8
SIZE
  6
CONTINUOUS
 62
    30
 10
-278.69818390801902
 20
144.77027039999999
 30
0.0
 11
-278.69818390801902
 21
132.77027039999999
 31
0.0
  0
CIRCLE
  8
SIZE
  6
CONTINUOUS
 62
    30
 10
-278.69818390801908
 20
-144.77027039999999
 30
0.0
 40
6.0
  0
LINE
  8
SIZE
  6
CONTINUOUS
 62
    30
 10
-278.69818390801908
 20
-144.77027039999999
 30
0.0
 11
-278.69818390801908
 21
-132.77027039999999
 31
0.0
  0
TEXT
  8
SIZE
  6
CONTINUOUS
 62
    30
 10
-303.69818390801908
 20
-110.5371428571428
 30
0.0
 40
64.0
  1
□290
 50
90.0
 41
0.9
 72
     1
 11
-303.69818390801908
 21
0.0000000000000568
 31
0.0
  0
LINE
  8
NOTE
  6
CONTINUOUS
 62
     4
 10
174.70258140857791
 20
-113.9181229734983
 30
0.0
 11
173.00000016000041
 21
-119.8918920000001
 31
0.0
  0
LINE
  8
NOTE
  6
CONTINUOUS
 62
     4
 10
173.00000016000041
 20
-119.8918920000001
 30
0.0
 11
177.46136979975091
 21
-115.5697536140258
 31
0.0
  0
LINE
  8
NOTE
  6
CONTINUOUS
 62
     4
 10
173.00000016000041
 20
-119.8918920000001
 30
0.0
 11
179.1639510483285
 21
-109.5959845875241
 31
0.0
  0
LINE
  8
NOTE
  6
CONTINUOUS
 62
     4
 10
87.229207560207328
 20
163.22979590809641
 30
0.0
 11
85.135135199999922
 21
157.38175690000011
 31
0.0
  0
LINE
  8
NOTE
  6
CONTINUOUS
 62
     4
 10
85.135135199999922
 20
157.38175690000011
 30
0.0
 11
89.872680619512948
 21
161.39926392402029
 31
0.0
  0
LINE
  8
NOTE
  6
CONTINUOUS
 62
     4
 10
85.135135199999922
 20
157.38175690000011
 30
0.0
 11
91.966752979720354
 21
167.24730293211641
 31
0.0
  0
LINE
  8
NOTE
  6
CONTINUOUS
 62
     4
 10
100.168919
 20
143.03488292509971
 30
0.0
 11
100.168919
 21
153.45185250644499
 31
0.0
  0
LINE
  8
DETAIL
  6
CONTINUOUS
 62
     5
 10
102.5031417591974
 20
152.28884933227519
 30
0.0
 11
100.168919
 21
152.28884933227519
 31
0.0
  0
LINE
  8
DETAIL
  6
CONTINUOUS
 62
     5
 10
103.6702531387958
 20
148.6217379526766
 30
0.0
 11
100.168919
 21
148.6217379526766
 31
0.0
  0
LINE
  8
DETAIL
  6
CONTINUOUS
 62
     5
 10
103.6702531387958
 20
144.77027039999999
 30
0.0
 11
103.6702531387958
 21
148.6217379526766
 31
0.0
  0
LINE
  8
DETAIL
  6
CONTINUOUS
 62
     5
 10
102.5031417591974
 20
144.77027039999999
 30
0.0
 11
102.5031417591974
 21
152.28884933227519
 31
0.0
  0
LINE
  8
DETAIL
  6
CONTINUOUS
 62
     5
 10
102.50318128254401
 20
152.28880736977089
 30
0.0
 11
103.6701679745677
 21
148.62182067774759
 31
0.0
  0
LINE
  8
DETAIL
  6
CONTINUOUS
 62
     5
 10
97.8346962408026
 20
152.28884933227519
 30
0.0
 11
100.168919
 21
152.28884933227519
 31
0.0
  0
LINE
  8
DETAIL
  6
CONTINUOUS
 62
     5
 10
96.667584861203977
 20
148.6217379526766
 30
0.0
 11
100.168919
 21
148.6217379526766
 31
0.0
  0
LINE
  8
DETAIL
  6
CONTINUOUS
 62
     5
 10
96.667584861203977
 20
144.77027039999999
 30
0.0
 11
96.667584861203977
 21
148.6217379526766
 31
0.0
  0
LINE
  8
DETAIL
  6
CONTINUOUS
 62
     5
 10
97.8346962408026
 20
144.77027039999999
 30
0.0
 11
97.8346962408026
 21
152.28884933227519
 31
0.0
  0
LINE
  8
DETAIL
  6
CONTINUOUS
 62
     5
 10
97.834655252235962
 20
152.28863107257601
 30
0.0
 11
96.667668560212178
 21
148.621644380552
 31
0.0
  0
LINE
  8
SIZE
  6
CONTINUOUS
 62
    30
 10
185.98648664000009
 20
173.00000016000001
 30
0.0
 11
473.10274745487459
 21
173.0000001599999
 31
0.0
  0
LINE
  8
SIZE
  6
CONTINUOUS
 62
    30
 10
286.26147146246967
 20
0.0
 30
0.0
 11
473.10274745487459
 21
-0.0000000000000568
 31
0.0
  0
LINE
  8
SIZE
  6
CONTINUOUS
 62
    30
 10
453.10274745487459
 20
11.99999999999994
 30
0.0
 11
453.10274745487459
 21
161.0000001599999
 31
0.0
  0
LINE
  8
SIZE
  6
CONTINUOUS
 62
    30
 10
453.10274745487459
 20
173.0000001599999
 30
0.0
 11
453.10274745487459
 21
372.1428573028569
 31
0.0
  0
CIRCLE
  8
SIZE
  6
CONTINUOUS
 62
    30
 10
453.10274745487459
 20
-0.0000000000000568
 30
0.0
 40
6.0
  0
LINE
  8
SIZE
  6
CONTINUOUS
 62
    30
 10
453.10274745487459
 20
-0.0000000000000568
 30
0.0
 11
453.10274745487459
 21
11.99999999999994
 31
0.0
  0
CIRCLE
  8
SIZE
  6
CONTINUOUS
 62
    30
 10
453.10274745487459
 20
173.0000001599999
 30
0.0
 40
6.0
  0
LINE
  8
SIZE
  6
CONTINUOUS
 62
    30
 10
453.10274745487459
 20
173.0000001599999
 30
0.0
 11
453.10274745487459
 21
161.0000001599999
 31
0.0
  0
TEXT
  8
SIZE
  6
CONTINUOUS
 62
    30
 10
428.10274745487459
 20
210.00000016000001
 30
0.0
 40
64.0
  1
173
 50
90.0
 41
0.9
 72
     1
 11
428.10274745487459
 21
278.57142873142863
 31
0.0
  0
TEXT
  8
ETC
  6
CONTINUOUS
 62
    61
 10
707.01398384862591
 20
508.15998741910772
 30
0.0
 40
64.0
  1
EX-25SH8_3
 41
0.9
  0
TEXT
  8
ETC
  6
CONTINUOUS
 62
    61
 10
702.82798984862552
 20
390.20467740427648
 30
0.0
 40
64.0
  1
換気扇
 41
0.9
  0
TEXT
  8
ETC
  6
CONTINUOUS
 62
    61
 10
753.52938809718148
 20
282.05590451805119
 30
0.0
 40
40.0
  1
EX-25SH8
 50
0.0
 41
0.9
 51
0.0
  7
STANDARD
 71
     0
 11
0.0
 21
0.0
 31
0.0
210
0.0
220
0.0
230
1.0
  0
ENDSEC
  0
EOF
