  0
SECTION
  2
HEADER
  9
$ACADVER
  1
AC1009
  9
$DWGCODEPAGE
  3
dos932
  9
$INSBASE
 10
0.0
 20
0.0
 30
0.0
  9
$EXTMIN
 10
-411.49290311324148
 20
-262.11546659715901
 30
-0.0060906925610311
  9
$EXTMAX
 10
925.85908127466428
 20
452.77405571282537
 30
0.0091369682783125
  9
$LIMMIN
 10
-2970.0
 20
-2100.0
  9
$LIMMAX
 10
2970.0
 20
2100.0
  9
$ORTHOMODE
 70
     1
  9
$REGENMODE
 70
     1
  9
$FILLMODE
 70
     1
  9
$QTEXTMODE
 70
     0
  9
$MIRRTEXT
 70
     0
  9
$LTSCALE
 40
20.0
  9
$ATTMODE
 70
     1
  9
$TEXTSIZE
 40
64.0
  9
$TRACEWID
 40
0.05
  9
$TEXTSTYLE
  7
STANDARD
  9
$CLAYER
  8
NOTE
  9
$CELTYPE
  6
CONTINUOUS
  9
$CECOLOR
 62
     7
  9
$DIMSCALE
 40
1.0
  9
$DIMASZ
 40
12.0
  9
$DIMEXO
 40
20.0
  9
$DIMDLI
 40
200.0
  9
$DIMRND
 40
0.0
  9
$DIMDLE
 40
0.0
  9
$DIMEXE
 40
20.0
  9
$DIMTP
 40
0.0
  9
$DIMTM
 40
0.0
  9
$DIMTXT
 40
64.0
  9
$DIMCEN
 40
0.09
  9
$DIMTSZ
 40
0.0
  9
$DIMTOL
 70
     0
  9
$DIMLIM
 70
     0
  9
$DIMTIH
 70
     0
  9
$DIMTOH
 70
     0
  9
$DIMSE1
 70
     0
  9
$DIMSE2
 70
     0
  9
$DIMTAD
 70
     1
  9
$DIMZIN
 70
     8
  9
$DIMBLK
  1

  9
$DIMASO
 70
     1
  9
$DIMSHO
 70
     0
  9
$DIMPOST
  1

  9
$DIMAPOST
  1

  9
$DIMALT
 70
     0
  9
$DIMALTD
 70
     2
  9
$DIMALTF
 40
25.399999999999999
  9
$DIMLFAC
 40
1.0
  9
$DIMTOFL
 70
     1
  9
$DIMTVP
 40
0.0
  9
$DIMTIX
 70
     1
  9
$DIMSOXD
 70
     0
  9
$DIMSAH
 70
     0
  9
$DIMBLK1
  1

  9
$DIMBLK2
  1

  9
$DIMSTYLE
  2
STANDARD
  9
$DIMCLRD
 70
     7
  9
$DIMCLRE
 70
     7
  9
$DIMCLRT
 70
     7
  9
$DIMTFAC
 40
1.0
  9
$DIMGAP
 40
25.0
  9
$LUNITS
 70
     2
  9
$LUPREC
 70
     4
  9
$SKETCHINC
 40
0.1
  9
$FILLETRAD
 40
3.0
  9
$AUNITS
 70
     1
  9
$AUPREC
 70
     3
  9
$MENU
  1
ACAD
  9
$ELEVATION
 40
0.0
  9
$PELEVATION
 40
0.0
  9
$THICKNESS
 40
50.0
  9
$LIMCHECK
 70
     0
  9
$CHAMFERA
 40
0.0
  9
$CHAMFERB
 40
0.0
  9
$SKPOLY
 70
     0
  9
$TDCREATE
 40
2453019.62301037
  9
$TDUPDATE
 40
2459017.513829734
  9
$TDINDWG
 40
1.7109240741
  9
$TDUSRTIMER
 40
1.7109240741
  9
$USRTIMER
 70
     1
  9
$ANGBASE
 50
0.0
  9
$ANGDIR
 70
     0
  9
$PDMODE
 70
     3
  9
$PDSIZE
 40
-2.0
  9
$PLINEWID
 40
0.0
  9
$SPLFRAME
 70
     0
  9
$SPLINETYPE
 70
     6
  9
$SPLINESEGS
 70
     8
  9
$SURFTAB1
 70
     6
  9
$SURFTAB2
 70
     6
  9
$SURFTYPE
 70
     6
  9
$SURFU
 70
     6
  9
$SURFV
 70
     6
  9
$UCSNAME
  2

  9
$UCSORG
 10
0.0
 20
0.0
 30
0.0
  9
$UCSXDIR
 10
1.0
 20
0.0
 30
0.0
  9
$UCSYDIR
 10
0.0
 20
1.0
 30
0.0
  9
$PUCSNAME
  2

  9
$PUCSORG
 10
0.0
 20
0.0
 30
0.0
  9
$PUCSXDIR
 10
1.0
 20
0.0
 30
0.0
  9
$PUCSYDIR
 10
0.0
 20
1.0
 30
0.0
  9
$USERI1
 70
     0
  9
$USERI2
 70
     0
  9
$USERI3
 70
     0
  9
$USERI4
 70
     0
  9
$USERI5
 70
     0
  9
$USERR1
 40
20.0
  9
$USERR2
 40
0.0
  9
$USERR3
 40
0.0
  9
$USERR4
 40
0.0
  9
$USERR5
 40
0.0
  9
$WORLDVIEW
 70
     1
  9
$SHADEDGE
 70
     3
  9
$SHADEDIF
 70
    70
  9
$TILEMODE
 70
     1
  9
$MAXACTVP
 70
    48
  9
$PINSBASE
 10
0.0
 20
0.0
 30
0.0
  9
$PLIMCHECK
 70
     0
  9
$PEXTMIN
 10
-100000000000000000000.0
 20
-100000000000000000000.0
 30
-100000000000000000000.0
  9
$PEXTMAX
 10
100000000000000000000.0
 20
100000000000000000000.0
 30
100000000000000000000.0
  9
$PLIMMIN
 10
0.0
 20
0.0
  9
$PLIMMAX
 10
12.0
 20
9.0
  9
$UNITMODE
 70
     0
  9
$VISRETAIN
 70
     0
  9
$PLINEGEN
 70
     0
  9
$PSLTSCALE
 70
     0
  9
$TREEDEPTH
 70
  3020
  9
$ATTDIA
 70
     0
  9
$ATTREQ
 70
     1
  9
$BLIPMODE
 70
     1
  9
$COORDS
 70
     1
  9
$DRAGMODE
 70
     2
  9
$OSMODE
 70
     0
  9
$HANDLING
 70
     0
  9
$HANDSEED
  5
F22F
  0
ENDSEC
  0
SECTION
  2
TABLES
  0
TABLE
  2
LTYPE
 70
     2
  0
LTYPE
  2
CONTINUOUS
 70
     0
  3
実線
 72
    65
 73
     0
 40
0.0
  0
LTYPE
  2
DASHDOT
 70
     0
  3
____ _ ____ _ ____ _ ____ _ ____ _ ____ _ ____
 72
    65
 73
     4
 40
5.5
 49
4.0
 49
-0.6
 49
0.3
 49
-0.6
  0
ENDTAB
  0
TABLE
  2
LAYER
 70
    12
  0
LAYER
  2
0
 70
     0
 62
     7
  6
CONTINUOUS
  0
LAYER
  2
BASIS
 70
     0
 62
     6
  6
DASHDOT
  0
LAYER
  2
OUTLINE
 70
     0
 62
     3
  6
CONTINUOUS
  0
LAYER
  2
DETAIL
 70
     0
 62
     5
  6
CONTINUOUS
  0
LAYER
  2
SIZE
 70
     0
 62
    30
  6
CONTINUOUS
  0
LAYER
  2
ARRANGE
 70
     0
 62
     1
  6
CONTINUOUS
  0
LAYER
  2
ETC
 70
     0
 62
    61
  6
CONTINUOUS
  0
LAYER
  2
NOTE
 70
     0
 62
     4
  6
CONTINUOUS
  0
LAYER
  2
DEFPOINTS
 70
    64
 62
     7
  6
CONTINUOUS
  0
LAYER
  2
FIX
 70
    64
 62
    11
  6
CONTINUOUS
  0
LAYER
  2
SERVICESPACE
 70
    64
 62
     2
  6
DASHDOT
  0
LAYER
  2
SYMBOLLINE
 70
    64
 62
    15
  6
CONTINUOUS
  0
ENDTAB
  0
TABLE
  2
STYLE
 70
     1
  0
STYLE
  2
STANDARD
 70
     0
 40
64.0
 41
0.9
 50
0.0
 71
     0
 42
64.0
  3
SIMPLEX.shx
  4
BIGFONT.shx
  0
ENDTAB
  0
TABLE
  2
APPID
 70
    17
  0
APPID
  2
ACAD
 70
     0
  0
APPID
  2
AUTOCAD_POSTSCRIPT_FIGURE
 70
     0
  0
APPID
  2
ACAD_EXEMPT_FROM_CAD_STANDARDS
 70
     0
  0
APPID
  2
ACAD_PSEXT
 70
     0
  0
APPID
  2
ACAUTHENVIRON
 70
     0
  0
APPID
  2
GENIUS_GENOENT_13
 70
     0
  0
APPID
  2
GENIUS_GENCFG_13
 70
     0
  0
APPID
  2
GENIUS_GENCFG0_13
 70
     0
  0
APPID
  2
GENIUS_GENCFG1_13
 70
     0
  0
APPID
  2
GENIUS_GENCFG2_13
 70
     0
  0
APPID
  2
GENIUS_GENCFG3_13
 70
     0
  0
APPID
  2
GENIUS_GENCFG4_13
 70
     0
  0
APPID
  2
GENIUS_GEVCFG0_13
 70
     0
  0
APPID
  2
CONTENTBLOCKICON
 70
     0
  0
APPID
  2
CONTENTBLOCKDESCRIPTION
 70
     0
  0
APPID
  2
ACAD_NAV_VCDISPLAY
 70
     0
  0
APPID
  2
ACAD_MLEADERVER
 70
     0
  0
ENDTAB
  0
TABLE
  2
DIMSTYLE
 70
     1
  0
DIMSTYLE
  2
STANDARD
 70
     0
  3

  4

  5
_ORIGIN
  6

  7

 40
1.0
 41
12.0
 42
20.0
 43
200.0
 44
20.0
 45
0.0
 46
0.0
 47
0.0
 48
0.0
140
64.0
141
0.09
142
0.0
143
25.399999999999999
144
1.0
145
0.0
146
1.0
147
25.0
 71
     0
 72
     0
 73
     0
 74
     0
 75
     0
 76
     0
 77
     1
 78
     8
170
     0
171
     2
172
     1
173
     0
174
     1
175
     0
176
     7
177
     7
178
     7
  0
ENDTAB
  0
TABLE
  2
VIEW
 70
     1
  0
VIEW
  2
ALL
 70
     0
 40
4282.6198079999986
 10
0.0
 20
41.309904000000003
 41
5940.0
 11
0.0
 21
0.0
 31
1.0
 12
0.0
 22
0.0
 32
0.0
 42
50.0
 43
0.0
 44
0.0
 50
0.0
 71
     0
  0
ENDTAB
  0
TABLE
  2
UCS
 70
     0
  0
ENDTAB
  0
TABLE
  2
VPORT
 70
     1
  0
VPORT
  2
*ACTIVE
 70
     0
 10
0.0
 20
0.0
 11
1.0
 21
1.0
 12
257.18308908071151
 22
95.329294557833236
 13
0.0
 23
0.0
 14
1.0
 24
1.0
 15
0.0
 25
0.0
 16
0.0
 26
0.0
 36
1.0
 17
0.0
 27
0.0
 37
0.0
 40
667.0760022394204
 41
1.890445859872611
 42
50.0
 43
0.0
 44
0.0
 50
0.0
 51
0.0
 71
     0
 72
  1000
 73
     1
 74
     3
 75
     0
 76
     0
 77
     0
 78
     0
  0
ENDTAB
  0
ENDSEC
  0
SECTION
  2
BLOCKS
  0
BLOCK
  8
0
  2
_ORIGIN
 70
     0
 10
0.0
 20
0.0
 30
0.0
  3
_ORIGIN
  1
_ORIGIN
  0
CIRCLE
  8
0
  6
CONTINUOUS
 62
     7
 10
0.0
 20
0.0
 30
0.0
 40
0.5
  0
LINE
  8
0
  6
CONTINUOUS
 62
     7
 10
0.0
 20
0.0
 30
0.0
 11
-1.0
 21
0.0
 31
0.0
  0
ENDBLK
  8
0
  0
ENDSEC
  0
SECTION
  2
ENTITIES
  0
TEXT
  8
ETC
  6
CONTINUOUS
 62
    61
 10
237.27752029897371
 20
388.51994181355423
 30
0.0
 40
64.0
  1
EX-25SK8-C_2
 41
0.9
  0
TEXT
  8
ETC
  6
CONTINUOUS
 62
    61
 10
233.09152629897329
 20
270.56463179872293
 30
0.0
 40
64.0
  1
換気扇
 41
0.9
  0
TEXT
  8
ETC
  6
CONTINUOUS
 62
    61
 10
283.79292454752931
 20
162.4158589124977
 30
0.0
 40
40.0
  1
EX-25SK8-C
 41
0.9
  0
CIRCLE
  8
ARRANGE
  6
CONTINUOUS
 62
     1
 10
0.0
 20
0.0
 30
0.0
 40
40.0
  0
POINT
  8
ARRANGE
  6
CONTINUOUS
 62
     1
 10
0.0
 20
0.0
 30
0.0
  0
LINE
  8
BASIS
  6
DASHDOT
 62
     6
 10
0.0
 20
-205.89329871544541
 30
0.0
 11
0.0
 21
205.89329871544541
 31
0.0
  0
LINE
  8
BASIS
  6
DASHDOT
 62
     6
 10
214.61957650493451
 20
0.0
 30
0.0
 11
-214.61957650493451
 21
0.0
 31
0.0
  0
LINE
  8
SIZE
  6
CONTINUOUS
 62
    30
 10
-234.61957650493451
 20
0.0
 30
0.0
 11
-342.18528570395478
 21
0.0000000000000568
 31
0.0
  0
LINE
  8
SIZE
  6
CONTINUOUS
 62
    30
 10
-217.67049465761241
 20
-119.7531651559802
 30
0.0
 11
-342.18528570395478
 21
-119.7531651559801
 31
0.0
  0
LINE
  8
SIZE
  6
CONTINUOUS
 62
    30
 10
-322.18528570395478
 20
-11.99999999999997
 30
0.0
 11
-322.18528570395478
 21
-107.7531651559801
 31
0.0
  0
CIRCLE
  8
SIZE
  6
CONTINUOUS
 62
    30
 10
-322.18528570395478
 20
0.0000000000000568
 30
0.0
 40
6.0
  0
LINE
  8
SIZE
  6
CONTINUOUS
 62
    30
 10
-322.18528570395478
 20
0.0000000000000568
 30
0.0
 11
-322.18528570395478
 21
-11.99999999999997
 31
0.0
  0
CIRCLE
  8
SIZE
  6
CONTINUOUS
 62
    30
 10
-322.18528570395478
 20
-119.7531651559801
 30
0.0
 40
6.0
  0
LINE
  8
SIZE
  6
CONTINUOUS
 62
    30
 10
-322.18528570395478
 20
-119.7531651559801
 30
0.0
 11
-322.18528570395478
 21
-107.7531651559801
 31
0.0
  0
TEXT
  8
SIZE
  6
CONTINUOUS
 62
    30
 10
-347.18528570395478
 20
-128.4480111494187
 30
0.0
 40
64.0
  1
120
 50
90.0
 41
0.9
 72
     1
 11
-347.18528570395478
 21
-59.876582577990121
 31
0.0
  0
LINE
  8
SIZE
  6
CONTINUOUS
 62
    30
 10
-172.99990390012999
 20
191.01933304525849
 30
0.0
 11
-172.99990390012999
 21
244.49996767248561
 31
0.0
  0
LINE
  8
SIZE
  6
CONTINUOUS
 62
    30
 10
172.99990390013019
 20
191.01933304525849
 30
0.0
 11
172.99990390013019
 21
244.49996767248561
 31
0.0
  0
LINE
  8
SIZE
  6
CONTINUOUS
 62
    30
 10
-160.99990390012999
 20
224.49996767248561
 30
0.0
 11
160.99990390013019
 21
224.49996767248561
 31
0.0
  0
CIRCLE
  8
SIZE
  6
CONTINUOUS
 62
    30
 10
-172.99990390012999
 20
224.49996767248561
 30
0.0
 40
6.0
  0
LINE
  8
SIZE
  6
CONTINUOUS
 62
    30
 10
-172.99990390012999
 20
224.49996767248561
 30
0.0
 11
-160.99990390012999
 21
224.49996767248561
 31
0.0
  0
CIRCLE
  8
SIZE
  6
CONTINUOUS
 62
    30
 10
172.99990390013019
 20
224.49996767248561
 30
0.0
 40
6.0
  0
LINE
  8
SIZE
  6
CONTINUOUS
 62
    30
 10
172.99990390013019
 20
224.49996767248561
 30
0.0
 11
160.99990390013019
 21
224.49996767248561
 31
0.0
  0
TEXT
  8
SIZE
  6
CONTINUOUS
 62
    30
 10
-109.1657142857141
 20
249.49996767248561
 30
0.0
 40
64.0
  1
□346
 41
0.9
 72
     1
 11
0.0000000000001137
 21
249.49996767248561
 31
0.0
  0
TEXT
  8
NOTE
  6
CONTINUOUS
 62
     4
 10
-343.24267384704592
 20
101.85123312992221
 30
0.0
 40
64.0
  1
EL
 41
0.9
 72
     2
 11
-258.21410241847451
 21
101.85123312992221
 31
0.0
  0
LINE
  8
NOTE
  6
CONTINUOUS
 62
     4
 10
-172.6930839708688
 20
-113.54289307626939
 30
0.0
 11
-172.82430891501099
 21
-119.7531651559802
 31
0.0
  0
LINE
  8
NOTE
  6
CONTINUOUS
 62
     4
 10
-172.82430891501099
 20
-119.7531651559802
 30
0.0
 11
-175.81580902322511
 21
-114.3093038064825
 31
0.0
  0
LINE
  8
NOTE
  6
CONTINUOUS
 62
     4
 10
-172.82430891501099
 20
-119.7531651559802
 30
0.0
 11
-175.6845840790829
 21
-108.0990317267718
 31
0.0
  0
LINE
  8
NOTE
  6
CONTINUOUS
 62
     4
 10
-175.68458407908301
 20
-108.0990317267718
 30
0.0
 11
-221.81800302752771
 21
79.870652702243774
 31
0.0
  0
LINE
  8
NOTE
  6
CONTINUOUS
 62
     4
 10
-221.81800302752771
 20
79.870652702243774
 30
0.0
 11
-343.84657445609912
 21
79.870652702243774
 31
0.0
  0
LINE
  8
DETAIL
  6
CONTINUOUS
 62
     5
 10
-143.25884187689761
 20
144.7947179623994
 30
0.0
 11
-143.25884187689761
 21
-144.7947179623126
 31
0.0
  0
LINE
  8
DETAIL
  6
CONTINUOUS
 62
     5
 10
-143.75800160469129
 20
145.81565330101179
 30
0.0
 11
-143.75800160469129
 21
-145.81565330092499
 31
0.0
  0
LINE
  8
DETAIL
  6
CONTINUOUS
 62
     5
 10
72.01598632477976
 20
173.06725154753551
 30
0.0
 11
-171.0035619140256
 21
173.06725154753551
 31
0.0
  0
LINE
  8
DETAIL
  6
CONTINUOUS
 62
     5
 10
-168.95689914357561
 20
169.9550223881034
 30
0.0
 11
72.636665685273101
 21
169.9550223881034
 31
0.0
  0
LINE
  8
DETAIL
  6
CONTINUOUS
 62
     5
 10
72.25950032500532
 20
171.4700924674394
 30
0.0
 11
-170.47192506065269
 21
171.4700924674394
 31
0.0
  0
LINE
  8
DETAIL
  6
CONTINUOUS
 62
     5
 10
72.01598632477976
 20
172.46825987418251
 30
0.0
 11
-170.47192506065269
 21
172.46825987418251
 31
0.0
  0
LINE
  8
DETAIL
  6
CONTINUOUS
 62
     5
 10
154.6895996433816
 20
168.82549232036911
 30
0.0
 11
-154.6895996433814
 21
168.82600993902361
 31
0.0
  0
LINE
  8
DETAIL
  6
CONTINUOUS
 62
     5
 10
154.56702142748921
 20
169.82417734556699
 30
0.0
 11
-154.56702142748901
 21
169.82417734556699
 31
0.0
  0
LINE
  8
DETAIL
  6
CONTINUOUS
 62
     5
 10
171.47009246739589
 20
-170.47192506060941
 30
0.0
 11
171.47009246739589
 21
92.113001550695003
 31
0.0
  0
LINE
  8
DETAIL
  6
CONTINUOUS
 62
     5
 10
172.46825987413879
 20
-170.47192506060941
 30
0.0
 11
172.46825987413879
 21
92.025874950360276
 31
0.0
  0
LINE
  8
DETAIL
  6
CONTINUOUS
 62
     5
 10
172.99991763334009
 20
91.981668867072358
 30
0.0
 11
172.9999756299101
 21
-127.23830420473369
 31
0.0
  0
LINE
  8
DETAIL
  6
CONTINUOUS
 62
     5
 10
169.12985216106699
 20
-168.88833682591351
 30
0.0
 11
169.12985216106699
 21
92.343767697938858
 31
0.0
  0
LINE
  8
DETAIL
  6
CONTINUOUS
 62
     5
 10
169.95502238786031
 20
92.257582589941421
 30
0.0
 11
169.95502238786031
 21
-168.95685498127361
 31
0.0
  0
ARC
  8
DETAIL
  6
CONTINUOUS
 62
     5
 10
0.0
 20
0.0000000000433715
 30
0.0
 40
39.852403837628337
 50
114.42174262820291
 51
126.0748456857031
  0
ARC
  8
DETAIL
  6
CONTINUOUS
 62
     5
 10
0.0
 20
0.0000000000433715
 30
0.0
 40
38.654876507276867
 50
115.2271219295021
 51
127.3837090230016
  0
LINE
  8
DETAIL
  6
CONTINUOUS
 62
     5
 10
-171.00587623429601
 20
-172.99963428244459
 30
0.0
 11
-32.652536471604208
 21
-172.99997275198299
 31
0.0
  0
LINE
  8
DETAIL
  6
CONTINUOUS
 62
     5
 10
-143.25884187689761
 20
143.39327738757859
 30
0.0
 11
-136.1217437492073
 21
143.39327738757859
 31
0.0
  0
LINE
  8
DETAIL
  6
CONTINUOUS
 62
     5
 10
-143.25884187689761
 20
143.25884187694061
 30
0.0
 11
-136.12947630582721
 21
143.25884187694061
 31
0.0
  0
LINE
  8
DETAIL
  6
CONTINUOUS
 62
     5
 10
-136.09568693535451
 20
-144.8282187763335
 30
0.0
 11
-136.09568693535451
 21
144.82821877642041
 31
0.0
  0
LINE
  8
DETAIL
  6
CONTINUOUS
 62
     5
 10
-136.27060568778049
 20
87.852112091799086
 30
0.0
 11
-136.27060568778049
 21
143.25884187694061
 31
0.0
  0
LINE
  8
DETAIL
  6
CONTINUOUS
 62
     5
 10
33.443070208543077
 20
-39.587988849740782
 30
0.0
 11
33.441568676965737
 21
-39.590393747603571
 31
0.0
  0
LINE
  8
DETAIL
  6
CONTINUOUS
 62
     5
 10
33.441568676965737
 20
-39.590393747603571
 30
0.0
 11
33.440070117899722
 21
-39.592815613845353
 31
0.0
  0
LINE
  8
DETAIL
  6
CONTINUOUS
 62
     5
 10
33.440070117899722
 20
-39.592815613845353
 30
0.0
 11
33.440070117899722
 21
-39.592815613845353
 31
0.0
  0
LINE
  8
DETAIL
  6
CONTINUOUS
 62
     5
 10
33.440070117899722
 20
-39.592815613845353
 30
0.0
 11
33.438581512826197
 21
-39.595259132894803
 31
0.0
  0
LINE
  8
DETAIL
  6
CONTINUOUS
 62
     5
 10
33.438581512826197
 20
-39.595259132894803
 30
0.0
 11
33.437125879103412
 21
-39.597679853382147
 31
0.0
  0
LINE
  8
DETAIL
  6
CONTINUOUS
 62
     5
 10
33.437125879103412
 20
-39.597679853382147
 30
0.0
 11
33.437125879103412
 21
-39.597679853382147
 31
0.0
  0
LINE
  8
DETAIL
  6
CONTINUOUS
 62
     5
 10
33.437125879103412
 20
-39.597679853382147
 30
0.0
 11
33.435707433194693
 21
-39.600065585784137
 31
0.0
  0
LINE
  8
DETAIL
  6
CONTINUOUS
 62
     5
 10
33.435707433194693
 20
-39.600065585784137
 30
0.0
 11
33.434239152108148
 21
-39.6025823237635
 31
0.0
  0
LINE
  8
DETAIL
  6
CONTINUOUS
 62
     5
 10
33.434239152108148
 20
-39.6025823237635
 30
0.0
 11
33.434239152108148
 21
-39.6025823237635
 31
0.0
  0
LINE
  8
DETAIL
  6
CONTINUOUS
 62
     5
 10
33.434239152108148
 20
-39.6025823237635
 30
0.0
 11
33.432698433473888
 21
-39.605274707543629
 31
0.0
  0
LINE
  8
DETAIL
  6
CONTINUOUS
 62
     5
 10
33.432698433473888
 20
-39.605274707543629
 30
0.0
 11
33.43141159686752
 21
-39.607523780401493
 31
0.0
  0
LINE
  8
DETAIL
  6
CONTINUOUS
 62
     5
 10
33.43141159686752
 20
-39.607523780401493
 30
0.0
 11
33.43141159686752
 21
-39.607523780401493
 31
0.0
  0
LINE
  8
DETAIL
  6
CONTINUOUS
 62
     5
 10
33.43141159686752
 20
-39.607523780401493
 30
0.0
 11
33.430466080268623
 21
-39.609163737527133
 31
0.0
  0
LINE
  8
DETAIL
  6
CONTINUOUS
 62
     5
 10
33.430466080268623
 20
-39.609163737527133
 30
0.0
 11
33.428644873335543
 21
-39.612504978707989
 31
0.0
  0
LINE
  8
DETAIL
  6
CONTINUOUS
 62
     5
 10
33.428644873335543
 20
-39.612504978707989
 30
0.0
 11
33.428644873335543
 21
-39.612504978707989
 31
0.0
  0
LINE
  8
DETAIL
  6
CONTINUOUS
 62
     5
 10
33.428644873335543
 20
-39.612504978707989
 30
0.0
 11
33.424939154837602
 21
-39.619509516557343
 31
0.0
  0
LINE
  8
DETAIL
  6
CONTINUOUS
 62
     5
 10
33.424939154837602
 20
-39.619509516557343
 30
0.0
 11
33.420477308310183
 21
-39.628269610392863
 31
0.0
  0
LINE
  8
DETAIL
  6
CONTINUOUS
 62
     5
 10
33.420477308310183
 20
-39.628269610392863
 30
0.0
 11
33.420477308310183
 21
-39.628269610392863
 31
0.0
  0
LINE
  8
DETAIL
  6
CONTINUOUS
 62
     5
 10
33.420477308310183
 20
-39.628269610392863
 30
0.0
 11
33.41657741084282
 21
-39.636521464425194
 31
0.0
  0
LINE
  8
DETAIL
  6
CONTINUOUS
 62
     5
 10
33.41657741084282
 20
-39.636521464425194
 30
0.0
 11
33.413179108982597
 21
-39.644446815729623
 31
0.0
  0
LINE
  8
DETAIL
  6
CONTINUOUS
 62
     5
 10
33.413179108982597
 20
-39.644446815729623
 30
0.0
 11
33.413179108982597
 21
-39.644446815729623
 31
0.0
  0
LINE
  8
DETAIL
  6
CONTINUOUS
 62
     5
 10
33.413179108982597
 20
-39.644446815729623
 30
0.0
 11
33.409970805581679
 21
-39.652659588397398
 31
0.0
  0
LINE
  8
DETAIL
  6
CONTINUOUS
 62
     5
 10
33.409970805581679
 20
-39.652659588397398
 30
0.0
 11
33.407014359265531
 21
-39.661056921719023
 31
0.0
  0
LINE
  8
DETAIL
  6
CONTINUOUS
 62
     5
 10
33.407014359265531
 20
-39.661056921719023
 30
0.0
 11
33.407014359265531
 21
-39.661056921719023
 31
0.0
  0
LINE
  8
DETAIL
  6
CONTINUOUS
 62
     5
 10
33.407014359265531
 20
-39.661056921719023
 30
0.0
 11
33.404436144466217
 21
-39.669462160369051
 31
0.0
  0
LINE
  8
DETAIL
  6
CONTINUOUS
 62
     5
 10
33.404436144466217
 20
-39.669462160369051
 30
0.0
 11
33.402247143071463
 21
-39.678120255361478
 31
0.0
  0
LINE
  8
DETAIL
  6
CONTINUOUS
 62
     5
 10
33.402247143071463
 20
-39.678120255361478
 30
0.0
 11
33.402247143071463
 21
-39.678120255361478
 31
0.0
  0
LINE
  8
DETAIL
  6
CONTINUOUS
 62
     5
 10
33.402247143071463
 20
-39.678120255361478
 30
0.0
 11
33.400451517433787
 21
-39.687139149156003
 31
0.0
  0
LINE
  8
DETAIL
  6
CONTINUOUS
 62
     5
 10
33.400451517433787
 20
-39.687139149156003
 30
0.0
 11
33.399141544313117
 21
-39.695657143657463
 31
0.0
  0
LINE
  8
DETAIL
  6
CONTINUOUS
 62
     5
 10
33.399141544313117
 20
-39.695657143657463
 30
0.0
 11
33.399141544313117
 21
-39.695657143657463
 31
0.0
  0
LINE
  8
DETAIL
  6
CONTINUOUS
 62
     5
 10
33.399141544313117
 20
-39.695657143657463
 30
0.0
 11
33.398382667957783
 21
-39.70292688945699
 31
0.0
  0
LINE
  8
DETAIL
  6
CONTINUOUS
 62
     5
 10
33.398382667957783
 20
-39.70292688945699
 30
0.0
 11
33.398044888172542
 21
-39.709628072443543
 31
0.0
  0
LINE
  8
DETAIL
  6
CONTINUOUS
 62
     5
 10
33.398044888172542
 20
-39.709628072443543
 30
0.0
 11
33.398044888172542
 21
-39.709628072443543
 31
0.0
  0
LINE
  8
DETAIL
  6
CONTINUOUS
 62
     5
 10
33.398044888172542
 20
-39.709628072443543
 30
0.0
 11
33.397991641695853
 21
-39.716571543349119
 31
0.0
  0
LINE
  8
DETAIL
  6
CONTINUOUS
 62
     5
 10
33.397991641695853
 20
-39.716571543349119
 30
0.0
 11
33.398255557457787
 21
-39.723665776975963
 31
0.0
  0
LINE
  8
DETAIL
  6
CONTINUOUS
 62
     5
 10
33.398255557457787
 20
-39.723665776975963
 30
0.0
 11
33.398255557457787
 21
-39.723665776975963
 31
0.0
  0
LINE
  8
DETAIL
  6
CONTINUOUS
 62
     5
 10
33.398255557457787
 20
-39.723665776975963
 30
0.0
 11
33.398896089067883
 21
-39.730656015203863
 31
0.0
  0
LINE
  8
DETAIL
  6
CONTINUOUS
 62
     5
 10
33.398896089067883
 20
-39.730656015203863
 30
0.0
 11
33.399910796660834
 21
-39.737536944149333
 31
0.0
  0
LINE
  8
DETAIL
  6
CONTINUOUS
 62
     5
 10
33.399910796660834
 20
-39.737536944149333
 30
0.0
 11
33.399910796660834
 21
-39.737536944149333
 31
0.0
  0
LINE
  8
DETAIL
  6
CONTINUOUS
 62
     5
 10
33.399910796660834
 20
-39.737536944149333
 30
0.0
 11
33.401301362430097
 21
-39.744341760733221
 31
0.0
  0
LINE
  8
DETAIL
  6
CONTINUOUS
 62
     5
 10
33.401301362430097
 20
-39.744341760733221
 30
0.0
 11
33.403147850274543
 21
-39.751008260857823
 31
0.0
  0
LINE
  8
DETAIL
  6
CONTINUOUS
 62
     5
 10
33.403147850274543
 20
-39.751008260857823
 30
0.0
 11
33.403147850274543
 21
-39.751008260857823
 31
0.0
  0
LINE
  8
DETAIL
  6
CONTINUOUS
 62
     5
 10
33.403147850274543
 20
-39.751008260857823
 30
0.0
 11
33.405487011182458
 21
-39.75748343012981
 31
0.0
  0
LINE
  8
DETAIL
  6
CONTINUOUS
 62
     5
 10
33.405487011182458
 20
-39.75748343012981
 30
0.0
 11
33.408103962790847
 21
-39.763846413995743
 31
0.0
  0
LINE
  8
DETAIL
  6
CONTINUOUS
 62
     5
 10
-36.788439414223831
 20
-32.284070270161457
 30
0.0
 11
-36.761002656931169
 21
-32.275366189179863
 31
0.0
  0
LINE
  8
DETAIL
  6
CONTINUOUS
 62
     5
 10
103.3264396580153
 20
-78.498058818134325
 30
0.0
 11
103.22503948037659
 21
-78.631299651859649
 31
0.0
  0
LINE
  8
DETAIL
  6
CONTINUOUS
 62
     5
 10
33.443721475617387
 20
-39.840346429504848
 30
0.0
 11
33.407802384859217
 21
-39.763987392476281
 31
0.0
  0
LINE
  8
DETAIL
  6
CONTINUOUS
 62
     5
 10
33.40780324281468
 20
-39.76398921420963
 30
0.0
 11
33.443714181496027
 21
-39.840330901244727
 31
0.0
  0
ARC
  8
DETAIL
  6
CONTINUOUS
 62
     5
 10
50.972118768746213
 20
112.62977462248929
 30
0.0
 40
5.571209434856085
 50
347.21939972260378
 51
12.79345378520139
  0
ARC
  8
DETAIL
  6
CONTINUOUS
 62
     5
 10
51.137183118411492
 20
112.7677103503548
 30
0.0
 40
5.9899167335287391
 50
331.58249344060209
 51
28.419591552201439
  0
ARC
  8
DETAIL
  6
CONTINUOUS
 62
     5
 10
52.50918412342071
 20
43.053440610929101
 30
0.0
 40
56.711948043250253
 50
133.49269919059549
 51
144.24200096559829
  0
ARC
  8
DETAIL
  6
CONTINUOUS
 62
     5
 10
58.08742532858173
 20
61.536246109276867
 30
0.0
 40
114.92811342984351
 50
147.07220887830289
 51
152.04458110609801
  0
ARC
  8
DETAIL
  6
CONTINUOUS
 62
     5
 10
48.799371717328093
 20
14.5548501900563
 30
0.0
 40
4.9915972779406852
 50
97.223505931800958
 51
118.44519994899321
  0
ARC
  8
DETAIL
  6
CONTINUOUS
 62
     5
 10
64.339348902303811
 20
8.2888397670549807
 30
0.0
 40
66.565404248759535
 50
139.8285145818875
 51
144.81199853320979
  0
ARC
  8
DETAIL
  6
CONTINUOUS
 62
     5
 10
67.55482048005797
 20
5.2919774360174756
 30
0.0
 40
70.963621453388569
 50
128.4170579215963
 51
136.0424988669032
  0
ARC
  8
DETAIL
  6
CONTINUOUS
 62
     5
 10
71.334135677201402
 20
0.2246414535969166
 30
0.0
 40
77.290768489198342
 50
119.35622174349569
 51
125.49889640619681
  0
ARC
  8
DETAIL
  6
CONTINUOUS
 62
     5
 10
7.4892665740962912
 20
48.372653764021663
 30
0.0
 40
2.9949583667644322
 50
261.19244276690341
 51
324.83827671720059
  0
ARC
  8
DETAIL
  6
CONTINUOUS
 62
     5
 10
1.267779784838694
 20
50.930198864241788
 30
0.0
 40
4.9915972779406008
 50
197.44796848689759
 51
268.57206153579989
  0
ARC
  8
DETAIL
  6
CONTINUOUS
 62
     5
 10
1.4102783796950009
 20
57.333147392236242
 30
0.0
 40
11.39544860259126
 50
262.93784182270417
 51
263.23771051210002
  0
ARC
  8
DETAIL
  6
CONTINUOUS
 62
     5
 10
1.431127841066427
 20
57.524255664654788
 30
0.0
 40
11.58768038612105
 50
263.24660779869828
 51
268.57666604759908
  0
ARC
  8
DETAIL
  6
CONTINUOUS
 62
     5
 10
0.3436117269600345
 20
0.2693886946817656
 30
0.0
 40
129.36381880347039
 50
34.690548182900109
 51
34.992513656798778
  0
ARC
  8
DETAIL
  6
CONTINUOUS
 62
     5
 10
0.0
 20
0.0000000000433715
 30
0.0
 40
22.961347436398011
 50
261.24176819330069
 51
278.75821274189991
  0
ARC
  8
DETAIL
  6
CONTINUOUS
 62
     5
 10
0.0
 20
0.0000000000433715
 30
0.0
 40
22.961347436398128
 50
234.06200944360191
 51
253.58073812670079
  0
ARC
  8
DETAIL
  6
CONTINUOUS
 62
     5
 10
0.0
 20
0.0000000000433715
 30
0.0
 40
22.96134743639816
 50
135.8385200341001
 51
224.16136111150229
  0
ARC
  8
DETAIL
  6
CONTINUOUS
 62
     5
 10
0.0
 20
0.0000000000433715
 30
0.0
 40
22.96134743639805
 50
106.4192766318983
 51
125.93806158970141
  0
ARC
  8
DETAIL
  6
CONTINUOUS
 62
     5
 10
0.0
 20
0.0000000000433715
 30
0.0
 40
22.961347436397961
 50
81.241768193300743
 51
98.758212741899897
  0
ARC
  8
DETAIL
  6
CONTINUOUS
 62
     5
 10
0.0
 20
0.0000000000433715
 30
0.0
 40
22.961347436397819
 50
54.062009443601873
 51
73.580738126700737
  0
ARC
  8
DETAIL
  6
CONTINUOUS
 62
     5
 10
0.0
 20
0.0000000000433715
 30
0.0
 40
22.961347436397809
 50
315.8385200340997
 51
44.161361111502259
  0
ARC
  8
DETAIL
  6
CONTINUOUS
 62
     5
 10
0.0
 20
0.0000000000433715
 30
0.0
 40
22.961347436397979
 50
286.41927663189819
 51
305.93806158970131
  0
ARC
  8
DETAIL
  6
CONTINUOUS
 62
     5
 10
0.0
 20
0.0000000000433715
 30
0.0
 40
24.758322466839228
 50
261.88588962659742
 51
278.11420245099589
  0
ARC
  8
DETAIL
  6
CONTINUOUS
 62
     5
 10
0.0
 20
0.0000000000433715
 30
0.0
 40
24.758322466839211
 50
237.02436709060109
 51
254.80323778679721
  0
ARC
  8
DETAIL
  6
CONTINUOUS
 62
     5
 10
0.0
 20
0.0000000000433715
 30
0.0
 40
24.75832246683936
 50
198.60248665359671
 51
228.303172998701
  0
ARC
  8
DETAIL
  6
CONTINUOUS
 62
     5
 10
0.0
 20
0.0000000000433715
 30
0.0
 40
24.758322466839289
 50
131.69674551570071
 51
161.39349230440479
  0
ARC
  8
DETAIL
  6
CONTINUOUS
 62
     5
 10
0.0
 20
0.0000000000433715
 30
0.0
 40
24.758322466839211
 50
105.19682976689781
 51
122.9758155240051
  0
ARC
  8
DETAIL
  6
CONTINUOUS
 62
     5
 10
0.0
 20
0.0000000000433715
 30
0.0
 40
24.758322466839161
 50
81.88588962659739
 51
98.114202451002484
  0
ARC
  8
DETAIL
  6
CONTINUOUS
 62
     5
 10
0.0
 20
0.0000000000433715
 30
0.0
 40
24.75832246683898
 50
57.02436709060116
 51
74.803237786803592
  0
ARC
  8
DETAIL
  6
CONTINUOUS
 62
     5
 10
0.0
 20
0.0000000000433715
 30
0.0
 40
24.75832246683893
 50
18.60248665359666
 51
48.303172998700838
  0
ARC
  8
DETAIL
  6
CONTINUOUS
 62
     5
 10
0.0
 20
0.0000000000433715
 30
0.0
 40
24.75832246683898
 50
311.69674551570068
 51
341.39349230440479
  0
ARC
  8
DETAIL
  6
CONTINUOUS
 62
     5
 10
0.0
 20
0.0000000000433715
 30
0.0
 40
24.758322466839079
 50
285.19682976689779
 51
302.97581552400499
  0
ARC
  8
DETAIL
  6
CONTINUOUS
 62
     5
 10
0.0
 20
0.0000000000433715
 30
0.0
 40
38.654876507276711
 50
264.85195558709393
 51
275.14786264779929
  0
ARC
  8
DETAIL
  6
CONTINUOUS
 62
     5
 10
0.0
 20
0.0000000000433715
 30
0.0
 40
38.654876507276761
 50
249.5893638043022
 51
260.3376058103965
  0
ARC
  8
DETAIL
  6
CONTINUOUS
 62
     5
 10
0.0
 20
0.0000000000433715
 30
0.0
 40
38.654876507276811
 50
232.61690525710409
 51
244.77378856779839
  0
ARC
  8
DETAIL
  6
CONTINUOUS
 62
     5
 10
0.0
 20
0.0000000000433715
 30
0.0
 40
38.654876507276782
 50
210.06165999610451
 51
226.7903862384002
  0
ARC
  8
DETAIL
  6
CONTINUOUS
 62
     5
 10
0.0
 20
0.0000000000433715
 30
0.0
 40
38.654876507276931
 50
160.5220837807002
 51
199.4845097013
  0
ARC
  8
DETAIL
  6
CONTINUOUS
 62
     5
 10
0.0
 20
0.0000000000433715
 30
0.0
 40
38.654876507277031
 50
133.2092949938023
 51
149.93982096570241
  0
ARC
  8
DETAIL
  6
CONTINUOUS
 62
     5
 10
0.0
 20
0.0000000000433715
 30
0.0
 40
38.65487650727669
 50
99.662284046599453
 51
110.4108321506004
  0
ARC
  8
DETAIL
  6
CONTINUOUS
 62
     5
 10
0.0
 20
0.0000000000433715
 30
0.0
 40
38.65487650727669
 50
84.851955586001665
 51
95.147862649499714
  0
ARC
  8
DETAIL
  6
CONTINUOUS
 62
     5
 10
0.0
 20
0.0000000000433715
 30
0.0
 40
38.654876507276732
 50
69.589363800500593
 51
80.337605812695898
  0
ARC
  8
DETAIL
  6
CONTINUOUS
 62
     5
 10
0.0
 20
0.0000000000433715
 30
0.0
 40
38.65487650727647
 50
52.616905243503759
 51
64.773788548903454
  0
ARC
  8
DETAIL
  6
CONTINUOUS
 62
     5
 10
0.0
 20
0.0000000000433715
 30
0.0
 40
38.654876507276327
 50
30.061659966699011
 51
46.790386243305612
  0
ARC
  8
DETAIL
  6
CONTINUOUS
 62
     5
 10
0.0
 20
0.0000000000433715
 30
0.0
 40
38.65487650727647
 50
340.52208368940262
 51
19.484509581399621
  0
ARC
  8
DETAIL
  6
CONTINUOUS
 62
     5
 10
0.0
 20
0.0000000000433715
 30
0.0
 40
38.654876507276512
 50
313.20929499810188
 51
329.93982094740102
  0
ARC
  8
DETAIL
  6
CONTINUOUS
 62
     5
 10
0.0
 20
0.0000000000433715
 30
0.0
 40
38.65487650727669
 50
295.22712192089739
 51
307.38370901650092
  0
ARC
  8
DETAIL
  6
CONTINUOUS
 62
     5
 10
0.0
 20
0.0000000000433715
 30
0.0
 40
38.654876507276711
 50
279.66228404769629
 51
290.41083215049571
  0
ARC
  8
DETAIL
  6
CONTINUOUS
 62
     5
 10
0.0
 20
0.0000000000433715
 30
0.0
 40
39.854362434378572
 50
84.969852901198522
 51
95.030147098801478
  0
ARC
  8
DETAIL
  6
CONTINUOUS
 62
     5
 10
0.0
 20
0.0000000000433715
 30
0.0
 40
39.852403837628238
 50
70.231124010905745
 51
80.632573566395678
  0
ARC
  8
DETAIL
  6
CONTINUOUS
 62
     5
 10
0.0
 20
0.0000000000433715
 30
0.0
 40
39.852403837628238
 50
53.92400161170432
 51
65.578928178503077
  0
ARC
  8
DETAIL
  6
CONTINUOUS
 62
     5
 10
0.0
 20
0.0000000000433715
 30
0.0
 40
39.852403837627982
 50
32.921067208396593
 51
48.403689290498143
  0
ARC
  8
DETAIL
  6
CONTINUOUS
 62
     5
 10
0.0
 20
0.0000000000433715
 30
0.0
 40
39.852403837627932
 50
336.16268290569991
 51
23.83837250510356
  0
ARC
  8
DETAIL
  6
CONTINUOUS
 62
     5
 10
0.0
 20
0.0000000000433715
 30
0.0
 40
39.852403837628117
 50
311.59842733089818
 51
327.08115260680518
  0
ARC
  8
DETAIL
  6
CONTINUOUS
 62
     5
 10
0.0
 20
0.0000000000433715
 30
0.0
 40
39.852403837628167
 50
294.42174262310232
 51
306.07484569929829
  0
ARC
  8
DETAIL
  6
CONTINUOUS
 62
     5
 10
0.0
 20
0.0000000000433715
 30
0.0
 40
39.852403837628223
 50
279.36736581810129
 51
289.76859848929729
  0
ARC
  8
DETAIL
  6
CONTINUOUS
 62
     5
 10
0.0
 20
0.0000000000433715
 30
0.0
 40
39.852403837628273
 50
265.00390223909898
 51
274.99611824590312
  0
ARC
  8
DETAIL
  6
CONTINUOUS
 62
     5
 10
0.0
 20
0.0000000000433715
 30
0.0
 40
39.852403837628287
 50
250.23112400529871
 51
260.63257356599962
  0
ARC
  8
DETAIL
  6
CONTINUOUS
 62
     5
 10
0.0
 20
0.0000000000433715
 30
0.0
 40
39.852403837628323
 50
233.92400158909859
 51
245.57892819229571
  0
ARC
  8
DETAIL
  6
CONTINUOUS
 62
     5
 10
0.0
 20
0.0000000000433715
 30
0.0
 40
39.852403837628401
 50
212.92106725240211
 51
228.40368933479789
  0
ARC
  8
DETAIL
  6
CONTINUOUS
 62
     5
 10
0.0
 20
0.0000000000433715
 30
0.0
 40
39.852403837628628
 50
156.1626829185029
 51
203.83837252690179
  0
ARC
  8
DETAIL
  6
CONTINUOUS
 62
     5
 10
0.0
 20
0.0000000000433715
 30
0.0
 40
39.852403837628493
 50
131.59842735490321
 51
147.08115263459729
  0
ARC
  8
DETAIL
  6
CONTINUOUS
 62
     5
 10
0.0
 20
0.0000000000433715
 30
0.0
 40
39.852403837628252
 50
99.367365817592955
 51
109.7685984851997
  0
ARC
  8
DETAIL
  6
CONTINUOUS
 62
     5
 10
0.0004307003703161
 20
0.0316828663491719
 30
0.0
 40
45.922694957054183
 50
85.630064151499695
 51
94.379588941903293
  0
ARC
  8
DETAIL
  6
CONTINUOUS
 62
     5
 10
0.0004307003703161
 20
0.0316828663491719
 30
0.0
 40
45.922694957054112
 50
72.934231869600126
 51
81.875476437601051
  0
ARC
  8
DETAIL
  6
CONTINUOUS
 62
     5
 10
0.0004307003703161
 20
0.0316828663491719
 30
0.0
 40
45.922694957054063
 50
59.278068459901966
 51
68.978192864697917
  0
ARC
  8
DETAIL
  6
CONTINUOUS
 62
     5
 10
0.0004307003703161
 20
0.0316828663491719
 30
0.0
 40
45.922694957054183
 50
43.250014021803672
 51
54.833571330402201
  0
ARC
  8
DETAIL
  6
CONTINUOUS
 62
     5
 10
0.0004307003703161
 20
0.0316828663491719
 30
0.0
 40
45.922694957054233
 50
18.92986808859742
 51
37.479837912602001
  0
ARC
  8
DETAIL
  6
CONTINUOUS
 62
     5
 10
0.0004307003703161
 20
0.0316828663491719
 30
0.0
 40
45.922694957054148
 50
322.52016208739798
 51
341.06905205550117
  0
ARC
  8
DETAIL
  6
CONTINUOUS
 62
     5
 10
0.0004307003703161
 20
0.0316828663491719
 30
0.0
 40
45.922694957054148
 50
305.16651430170151
 51
316.74998597819638
  0
ARC
  8
DETAIL
  6
CONTINUOUS
 62
     5
 10
0.0004307003703161
 20
0.0316828663491719
 30
0.0
 40
45.922694957054112
 50
291.02176558250062
 51
300.7219315400979
  0
ARC
  8
DETAIL
  6
CONTINUOUS
 62
     5
 10
0.0004307003703161
 20
0.0316828663491719
 30
0.0
 40
45.922694957054148
 50
278.12452356239891
 51
287.06578074459929
  0
ARC
  8
DETAIL
  6
CONTINUOUS
 62
     5
 10
0.0004307003703161
 20
0.0316828663491719
 30
0.0
 40
45.922694957054148
 50
265.62898238350232
 51
274.36993526699911
  0
ARC
  8
DETAIL
  6
CONTINUOUS
 62
     5
 10
0.0004307003703161
 20
0.0316828663491719
 30
0.0
 40
45.922694957054112
 50
223.248461596596
 51
234.83224711829959
  0
ARC
  8
DETAIL
  6
CONTINUOUS
 62
     5
 10
0.0003677153974877
 20
0.0316828663491719
 30
0.0
 40
45.922694957054077
 50
239.27683226470199
 51
248.98058851519869
  0
ARC
  8
DETAIL
  6
CONTINUOUS
 62
     5
 10
0.0003677153974877
 20
0.0316828663491719
 30
0.0
 40
45.922694957054112
 50
252.93310920980241
 51
261.87979143820439
  0
ARC
  8
DETAIL
  6
CONTINUOUS
 62
     5
 10
0.0004307003703161
 20
0.0316828663491719
 30
0.0
 40
45.922694957054183
 50
198.92664780740211
 51
217.4877217159989
  0
ARC
  8
DETAIL
  6
CONTINUOUS
 62
     5
 10
0.0004307003703161
 20
0.0316828663491719
 30
0.0
 40
45.922694957054333
 50
142.51168847150171
 51
161.07226648160011
  0
ARC
  8
DETAIL
  6
CONTINUOUS
 62
     5
 10
0.0004307003703161
 20
0.0316828663491719
 30
0.0
 40
45.922694957054233
 50
125.1678386019022
 51
136.75153840340391
  0
ARC
  8
DETAIL
  6
CONTINUOUS
 62
     5
 10
0.0004307003703161
 20
0.0316828663491719
 30
0.0
 40
45.922694957054183
 50
111.0229183962018
 51
120.7233162288006
  0
ARC
  8
DETAIL
  6
CONTINUOUS
 62
     5
 10
0.000312430662234
 20
0.0316828663491719
 30
0.0
 40
45.922694957054141
 50
98.125609719601798
 51
107.0723273645995
  0
ARC
  8
DETAIL
  6
CONTINUOUS
 62
     5
 10
0.0328022248074831
 20
0.1347519298298039
 30
0.0
 40
129.67342734908169
 50
70.449100534004231
 51
73.694889113602159
  0
ARC
  8
DETAIL
  6
CONTINUOUS
 62
     5
 10
0.022868871350056
 20
0.0419855562750513
 30
0.0
 40
129.7565078393946
 50
18.1923712157046
 51
26.34352237170123
  0
ARC
  8
DETAIL
  6
CONTINUOUS
 62
     5
 10
0.0130597144241165
 20
0.0168680102837584
 30
0.0
 40
129.76185454728889
 50
311.71182546320063
 51
315.99199155879762
  0
ARC
  8
DETAIL
  6
CONTINUOUS
 62
     5
 10
0.0028160834797291
 20
0.0500151225167542
 30
0.0
 40
129.76308185567061
 50
84.039650437202638
 51
87.13482446120392
  0
ARC
  8
DETAIL
  6
CONTINUOUS
 62
     5
 10
0.0000854505547068
 20
0.0390705642950024
 30
0.0
 40
129.7742779901956
 50
97.292276723997659
 51
100.4152010796039
  0
ARC
  8
DETAIL
  6
CONTINUOUS
 62
     5
 10
0.0017765384222912
 20
0.032555478816505
 30
0.0
 40
129.78252861471381
 50
145.00964564910021
 51
150.81974694170339
  0
ARC
  8
DETAIL
  6
CONTINUOUS
 62
     5
 10
0.0037607093220231
 20
0.0312140495428821
 30
0.0
 40
129.7853393547891
 50
166.67701403639421
 51
178.6901667928019
  0
ARC
  8
DETAIL
  6
CONTINUOUS
 62
     5
 10
0.0083844294745177
 20
0.0284141094875281
 30
0.0
 40
129.79032051583491
 50
145.00988558830051
 51
150.8202384140032
  0
ARC
  8
DETAIL
  6
CONTINUOUS
 62
     5
 10
0.0005853142972683
 20
0.0200356130255273
 30
0.0
 40
129.79312748286111
 50
88.457625284203132
 51
91.542886090900197
  0
ARC
  8
DETAIL
  6
CONTINUOUS
 62
     5
 10
0.0144778889066401
 20
0.0299048578014549
 30
0.0
 40
129.79609743053021
 50
166.67596610549859
 51
179.19966177439929
  0
ARC
  8
DETAIL
  6
CONTINUOUS
 62
     5
 10
0.0082912549219145
 20
0.0443710026780195
 30
0.0
 40
129.79661495833781
 50
230.03609461020241
 51
233.95227423850119
  0
ARC
  8
DETAIL
  6
CONTINUOUS
 62
     5
 10
0.0121080051064837
 20
0.049238524421412
 30
0.0
 40
129.80279755751491
 50
230.03629326309789
 51
233.95217030589899
  0
ARC
  8
DETAIL
  6
CONTINUOUS
 62
     5
 10
0.0217232480620169
 20
0.0501958764404549
 30
0.0
 40
129.80989457198939
 50
224.00740035830191
 51
228.28607318589849
  0
ARC
  8
DETAIL
  6
CONTINUOUS
 62
     5
 10
0.0227775854184529
 20
0.063794240116863
 30
0.0
 40
129.82083135629759
 50
235.57054453020109
 51
239.23214380820289
  0
ARC
  8
DETAIL
  6
CONTINUOUS
 62
     5
 10
0.0581694191473616
 20
0.0675555957508891
 30
0.0
 40
129.84978058873
 50
209.6024343977038
 51
214.98924164629551
  0
ARC
  8
DETAIL
  6
CONTINUOUS
 62
     5
 10
0.0481087462164851
 20
0.1449771303991838
 30
0.0
 40
129.9045546333605
 50
245.69942158249779
 51
249.03939753900221
  0
ARC
  8
DETAIL
  6
CONTINUOUS
 62
     5
 10
0.0
 20
0.0000000000433715
 30
0.0
 40
133.77480704880961
 50
340.7555734795996
 51
355.07530796809812
  0
ARC
  8
DETAIL
  6
CONTINUOUS
 62
     5
 10
0.0
 20
0.0000000000433715
 30
0.0
 40
133.77480704880961
 50
330.40005811369957
 51
337.18186286619971
  0
ARC
  8
DETAIL
  6
CONTINUOUS
 62
     5
 10
0.0
 20
0.0000000000433715
 30
0.0
 40
133.77480704880961
 50
322.63426341149739
 51
327.89192414880102
  0
ARC
  8
DETAIL
  6
CONTINUOUS
 62
     5
 10
0.0
 20
0.0000000000433715
 30
0.0
 40
133.77480704880969
 50
316.06970165319979
 51
318.94697316900408
  0
ARC
  8
DETAIL
  6
CONTINUOUS
 62
     5
 10
0.0
 20
0.0000000000433715
 30
0.0
 40
133.77480704880969
 50
310.2093739600997
 51
314.24907066100099
  0
ARC
  8
DETAIL
  6
CONTINUOUS
 62
     5
 10
0.0
 20
0.0000000000433715
 30
0.0
 40
133.77480704880981
 50
304.81719390989548
 51
308.54980551419692
  0
ARC
  8
DETAIL
  6
CONTINUOUS
 62
     5
 10
0.0
 20
0.0000000000433715
 30
0.0
 40
133.77480704880989
 50
299.75679052359959
 51
303.26854503770289
  0
ARC
  8
DETAIL
  6
CONTINUOUS
 62
     5
 10
0.0
 20
0.0000000000433715
 30
0.0
 40
133.77480704880989
 50
294.94103157029639
 51
298.28963179629602
  0
ARC
  8
DETAIL
  6
CONTINUOUS
 62
     5
 10
0.0
 20
0.0000000000433715
 30
0.0
 40
133.77480704880989
 50
290.30519912959892
 51
293.53276321509873
  0
ARC
  8
DETAIL
  6
CONTINUOUS
 62
     5
 10
0.0
 20
0.0000000000433715
 30
0.0
 40
133.77480704880989
 50
285.80771726720081
 51
288.94405338419932
  0
ARC
  8
DETAIL
  6
CONTINUOUS
 62
     5
 10
0.0
 20
0.0000000000433715
 30
0.0
 40
133.77480704880989
 50
281.40732073160183
 51
284.47924401239828
  0
ARC
  8
DETAIL
  6
CONTINUOUS
 62
     5
 10
0.0
 20
0.0000000000433715
 30
0.0
 40
133.77480704880989
 50
277.07353084910091
 51
280.10055238789943
  0
ARC
  8
DETAIL
  6
CONTINUOUS
 62
     5
 10
0.0
 20
0.0000000000433715
 30
0.0
 40
133.77480704880989
 50
272.78041326090357
 51
275.78265525690051
  0
ARC
  8
DETAIL
  6
CONTINUOUS
 62
     5
 10
0.0
 20
0.0000000000433715
 30
0.0
 40
133.77480704881
 50
268.50319057639842
 51
271.4968094235951
  0
ARC
  8
DETAIL
  6
CONTINUOUS
 62
     5
 10
0.0
 20
0.0000000000433715
 30
0.0
 40
133.77480704881
 50
264.21734474309949
 51
267.21958673909643
  0
ARC
  8
DETAIL
  6
CONTINUOUS
 62
     5
 10
0.0
 20
0.0000000000433715
 30
0.0
 40
133.77480704881
 50
259.89944761210057
 51
262.92646915089909
  0
ARC
  8
DETAIL
  6
CONTINUOUS
 62
     5
 10
0.0
 20
0.0000000000433715
 30
0.0
 40
133.77480704881
 50
255.52075598760169
 51
258.59267926839817
  0
ARC
  8
DETAIL
  6
CONTINUOUS
 62
     5
 10
0.0
 20
0.0000000000433715
 30
0.0
 40
133.77480704881
 50
251.05594661580071
 51
254.19228273279921
  0
ARC
  8
DETAIL
  6
CONTINUOUS
 62
     5
 10
0.0
 20
0.0000000000433715
 30
0.0
 40
133.77480704881
 50
246.4672367849013
 51
249.69480087040111
  0
ARC
  8
DETAIL
  6
CONTINUOUS
 62
     5
 10
0.0
 20
0.0000000000433715
 30
0.0
 40
133.77480704881
 50
241.71036820370361
 51
245.05896842970361
  0
ARC
  8
DETAIL
  6
CONTINUOUS
 62
     5
 10
0.0
 20
0.0000000000433715
 30
0.0
 40
133.77480704881
 50
236.73145496229711
 51
240.24320947640041
  0
ARC
  8
DETAIL
  6
CONTINUOUS
 62
     5
 10
0.0
 20
0.0000000000433715
 30
0.0
 40
133.77480704880989
 50
231.45019448580311
 51
235.18280609010449
  0
ARC
  8
DETAIL
  6
CONTINUOUS
 62
     5
 10
0.0
 20
0.0000000000433715
 30
0.0
 40
133.7748070488102
 50
225.75092933899899
 51
229.7906260399003
  0
ARC
  8
DETAIL
  6
CONTINUOUS
 62
     5
 10
0.0
 20
0.0000000000433715
 30
0.0
 40
133.7748070488102
 50
221.05302683099589
 51
223.93029834680021
  0
ARC
  8
DETAIL
  6
CONTINUOUS
 62
     5
 10
0.0
 20
0.0000000000433715
 30
0.0
 40
133.77480704881009
 50
212.10807585119889
 51
217.36573658850261
  0
ARC
  8
DETAIL
  6
CONTINUOUS
 62
     5
 10
0.0
 20
0.0000000000433715
 30
0.0
 40
133.77480704881009
 50
202.81813713380029
 51
209.5999418863004
  0
ARC
  8
DETAIL
  6
CONTINUOUS
 62
     5
 10
0.0
 20
0.0000000000433715
 30
0.0
 40
133.77480704881049
 50
184.92469203190191
 51
199.2444265204004
  0
ARC
  8
DETAIL
  6
CONTINUOUS
 62
     5
 10
0.0
 20
0.0000000000433715
 30
0.0
 40
133.7748070488104
 50
160.7555734795996
 51
175.07530796809809
  0
ARC
  8
DETAIL
  6
CONTINUOUS
 62
     5
 10
0.0
 20
0.0000000000433715
 30
0.0
 40
133.77480704881
 50
150.4000581136996
 51
157.18186286619971
  0
ARC
  8
DETAIL
  6
CONTINUOUS
 62
     5
 10
0.0
 20
0.0000000000433715
 30
0.0
 40
133.77480704881
 50
142.63426341149739
 51
147.89192414880119
  0
ARC
  8
DETAIL
  6
CONTINUOUS
 62
     5
 10
0.0
 20
0.0000000000433715
 30
0.0
 40
133.77480704880989
 50
136.0697016531999
 51
138.94697316900411
  0
ARC
  8
DETAIL
  6
CONTINUOUS
 62
     5
 10
0.0
 20
0.0000000000433715
 30
0.0
 40
133.7748070488102
 50
130.2093739600995
 51
134.2490706610011
  0
ARC
  8
DETAIL
  6
CONTINUOUS
 62
     5
 10
0.0
 20
0.0000000000433715
 30
0.0
 40
133.77480704881
 50
124.81719390989549
 51
128.54980551419689
  0
ARC
  8
DETAIL
  6
CONTINUOUS
 62
     5
 10
0.0
 20
0.0000000000433715
 30
0.0
 40
133.77480704881
 50
119.75679052359951
 51
123.26854503770291
  0
ARC
  8
DETAIL
  6
CONTINUOUS
 62
     5
 10
0.0
 20
0.0000000000433715
 30
0.0
 40
133.77480704880989
 50
114.9410315702965
 51
118.2896317962964
  0
ARC
  8
DETAIL
  6
CONTINUOUS
 62
     5
 10
0.0
 20
0.0000000000433715
 30
0.0
 40
133.77480704881
 50
110.3051991295989
 51
113.5327632150988
  0
ARC
  8
DETAIL
  6
CONTINUOUS
 62
     5
 10
0.0
 20
0.0000000000433715
 30
0.0
 40
133.77480704881
 50
105.8077172672008
 51
108.94405338419929
  0
ARC
  8
DETAIL
  6
CONTINUOUS
 62
     5
 10
0.0
 20
0.0000000000433715
 30
0.0
 40
133.77480704880989
 50
101.4073207316018
 51
104.4792440123983
  0
ARC
  8
DETAIL
  6
CONTINUOUS
 62
     5
 10
0.0
 20
0.0000000000433715
 30
0.0
 40
133.77480704880989
 50
97.073530849100891
 51
100.1005523878994
  0
ARC
  8
DETAIL
  6
CONTINUOUS
 62
     5
 10
0.0
 20
0.0000000000433715
 30
0.0
 40
133.77480704881
 50
92.780413260903629
 51
95.782655256900512
  0
ARC
  8
DETAIL
  6
CONTINUOUS
 62
     5
 10
0.0
 20
0.0000000000433715
 30
0.0
 40
133.77480704880989
 50
84.217344743099503
 51
87.219586739096371
  0
ARC
  8
DETAIL
  6
CONTINUOUS
 62
     5
 10
0.0
 20
0.0000000000433715
 30
0.0
 40
133.77480704880989
 50
79.899447612100587
 51
82.926469150899123
  0
ARC
  8
DETAIL
  6
CONTINUOUS
 62
     5
 10
0.0
 20
0.0000000000433715
 30
0.0
 40
133.77480704880981
 50
75.520755987601675
 51
78.592679268398228
  0
ARC
  8
DETAIL
  6
CONTINUOUS
 62
     5
 10
0.0
 20
0.0000000000433715
 30
0.0
 40
133.77480704880989
 50
71.055946615800693
 51
74.192282732799214
  0
ARC
  8
DETAIL
  6
CONTINUOUS
 62
     5
 10
0.0
 20
0.0000000000433715
 30
0.0
 40
133.77480704880981
 50
66.467236784901175
 51
69.694800870401124
  0
ARC
  8
DETAIL
  6
CONTINUOUS
 62
     5
 10
0.0
 20
0.0000000000433715
 30
0.0
 40
133.77480704880981
 50
61.710368203703602
 51
65.058968429703498
  0
ARC
  8
DETAIL
  6
CONTINUOUS
 62
     5
 10
0.0
 20
0.0000000000433715
 30
0.0
 40
133.77480704880969
 50
56.73145496229705
 51
60.243209476400487
  0
ARC
  8
DETAIL
  6
CONTINUOUS
 62
     5
 10
0.0
 20
0.0000000000433715
 30
0.0
 40
133.77480704880969
 50
51.450194485803102
 51
55.182806090104492
  0
ARC
  8
DETAIL
  6
CONTINUOUS
 62
     5
 10
0.0
 20
0.0000000000433715
 30
0.0
 40
133.77480704880981
 50
45.750929338999043
 51
49.790626039900467
  0
ARC
  8
DETAIL
  6
CONTINUOUS
 62
     5
 10
0.0
 20
0.0000000000433715
 30
0.0
 40
133.77480704880981
 50
41.053026830995911
 51
43.930298346800093
  0
ARC
  8
DETAIL
  6
CONTINUOUS
 62
     5
 10
0.0
 20
0.0000000000433715
 30
0.0
 40
133.77480704880969
 50
32.108075851198777
 51
37.365736588502557
  0
ARC
  8
DETAIL
  6
CONTINUOUS
 62
     5
 10
0.0
 20
0.0000000000433715
 30
0.0
 40
133.77480704880969
 50
22.818137133800342
 51
29.599941886300439
  0
ARC
  8
DETAIL
  6
CONTINUOUS
 62
     5
 10
0.0
 20
0.0000000000433715
 30
0.0
 40
133.77480704880981
 50
4.9246920319019409
 51
19.244426520400399
  0
ARC
  8
DETAIL
  6
CONTINUOUS
 62
     5
 10
0.0
 20
0.0000000000433715
 30
0.0
 40
133.97576008940769
 50
160.5098172476022
 51
174.19925460610011
  0
ARC
  8
DETAIL
  6
CONTINUOUS
 62
     5
 10
0.0
 20
0.0000000000433715
 30
0.0
 40
133.9757600894076
 50
150.24378615410239
 51
156.972601721796
  0
ARC
  8
DETAIL
  6
CONTINUOUS
 62
     5
 10
0.0
 20
0.0000000000433715
 30
0.0
 40
133.97576008940791
 50
142.52960975869971
 51
147.76043996130181
  0
ARC
  8
DETAIL
  6
CONTINUOUS
 62
     5
 10
0.0
 20
0.0000000000433715
 30
0.0
 40
133.97576008940769
 50
135.98373284180579
 51
139.01977802600189
  0
ARC
  8
DETAIL
  6
CONTINUOUS
 62
     5
 10
0.0
 20
0.0000000000433715
 30
0.0
 40
133.97576008940791
 50
130.13377902980099
 51
134.16989356980139
  0
ARC
  8
DETAIL
  6
CONTINUOUS
 62
     5
 10
0.0
 20
0.0000000000433715
 30
0.0
 40
133.9757600894078
 50
124.75504877049799
 51
128.4784922691039
  0
ARC
  8
DETAIL
  6
CONTINUOUS
 62
     5
 10
0.0
 20
0.0000000000433715
 30
0.0
 40
133.9757600894078
 50
119.7063141641957
 51
123.20939972100329
  0
ARC
  8
DETAIL
  6
CONTINUOUS
 62
     5
 10
0.0
 20
0.0000000000433715
 30
0.0
 40
133.97576008940769
 50
114.8989580994981
 51
118.24092440610229
  0
ARC
  8
DETAIL
  6
CONTINUOUS
 62
     5
 10
0.0
 20
0.0000000000433715
 30
0.0
 40
133.97576008940769
 50
110.2743008934017
 51
113.4950554056055
  0
ARC
  8
DETAIL
  6
CONTINUOUS
 62
     5
 10
0.0
 20
0.0000000000433715
 30
0.0
 40
133.97576008940769
 50
105.78380299530269
 51
108.91538123680471
  0
ARC
  8
DETAIL
  6
CONTINUOUS
 62
     5
 10
0.0
 20
0.0000000000433715
 30
0.0
 40
133.97576008940769
 50
101.38938833399661
 51
104.45667904970109
  0
ARC
  8
DETAIL
  6
CONTINUOUS
 62
     5
 10
0.0
 20
0.0000000000433715
 30
0.0
 40
133.97576008940769
 50
97.062931883293871
 51
100.0852842025981
  0
ARC
  8
DETAIL
  6
CONTINUOUS
 62
     5
 10
0.0
 20
0.0000000000433715
 30
0.0
 40
133.97576008940769
 50
92.776434576100783
 51
95.774057141800142
  0
ARC
  8
DETAIL
  6
CONTINUOUS
 62
     5
 10
0.0
 20
0.0000000000433715
 30
0.0
 40
133.9757600894076
 50
88.505502368299773
 51
91.494497629302359
  0
ARC
  8
DETAIL
  6
CONTINUOUS
 62
     5
 10
0.0
 20
0.0000000000433715
 30
0.0
 40
133.9757600894076
 50
84.225942864799208
 51
87.223565427205571
  0
ARC
  8
DETAIL
  6
CONTINUOUS
 62
     5
 10
0.0
 20
0.0000000000433715
 30
0.0
 40
133.97576008940769
 50
79.914715795198759
 51
82.937068124300168
  0
ARC
  8
DETAIL
  6
CONTINUOUS
 62
     5
 10
0.0
 20
0.0000000000433715
 30
0.0
 40
133.97576008940749
 50
75.543320956104097
 51
78.610611661106276
  0
ARC
  8
DETAIL
  6
CONTINUOUS
 62
     5
 10
0.0
 20
0.0000000000433715
 30
0.0
 40
133.9757600894076
 50
71.084618762802435
 51
74.216197000304177
  0
ARC
  8
DETAIL
  6
CONTINUOUS
 62
     5
 10
0.0
 20
0.0000000000433715
 30
0.0
 40
133.9757600894076
 50
66.504944598102512
 51
69.725699105396885
  0
ARC
  8
DETAIL
  6
CONTINUOUS
 62
     5
 10
0.0
 20
0.0000000000433715
 30
0.0
 40
133.97576008940749
 50
61.759075591598098
 51
65.101041900796247
  0
ARC
  8
DETAIL
  6
CONTINUOUS
 62
     5
 10
0.0
 20
0.0000000000433715
 30
0.0
 40
133.9757600894074
 50
56.790600271398979
 51
60.293685845298477
  0
ARC
  8
DETAIL
  6
CONTINUOUS
 62
     5
 10
0.0
 20
0.0000000000433715
 30
0.0
 40
133.9757600894076
 50
51.521507727601133
 51
55.244951222097441
  0
ARC
  8
DETAIL
  6
CONTINUOUS
 62
     5
 10
0.0
 20
0.0000000000433715
 30
0.0
 40
133.97576008940729
 50
45.830106447099382
 51
49.866220965598202
  0
ARC
  8
DETAIL
  6
CONTINUOUS
 62
     5
 10
0.0
 20
0.0000000000433715
 30
0.0
 40
133.9757600894074
 50
40.980221984595907
 51
44.016267140598039
  0
ARC
  8
DETAIL
  6
CONTINUOUS
 62
     5
 10
0.0
 20
0.0000000000433715
 30
0.0
 40
133.9757600894074
 50
32.239560039494222
 51
37.470390232305618
  0
ARC
  8
DETAIL
  6
CONTINUOUS
 62
     5
 10
0.0
 20
0.0000000000433715
 30
0.0
 40
133.97576008940749
 50
23.027398288601759
 51
29.756213850203949
  0
ARC
  8
DETAIL
  6
CONTINUOUS
 62
     5
 10
0.0
 20
0.0000000000433715
 30
0.0
 40
133.9757600894074
 50
5.8007453842033616
 51
19.49018274139851
  0
ARC
  8
DETAIL
  6
CONTINUOUS
 62
     5
 10
0.0
 20
0.0000000000433715
 30
0.0
 40
133.9757600894076
 50
185.80073956489579
 51
199.4902227099048
  0
ARC
  8
DETAIL
  6
CONTINUOUS
 62
     5
 10
0.0
 20
0.0000000000433715
 30
0.0
 40
133.97576008940769
 50
203.02744657359949
 51
209.7562332656986
  0
ARC
  8
DETAIL
  6
CONTINUOUS
 62
     5
 10
0.0
 20
0.0000000000433715
 30
0.0
 40
133.9757600894076
 50
212.23958039829921
 51
217.47030958940201
  0
ARC
  8
DETAIL
  6
CONTINUOUS
 62
     5
 10
0.0
 20
0.0000000000433715
 30
0.0
 40
133.97576008940749
 50
220.98028305159821
 51
224.01618083450049
  0
ARC
  8
DETAIL
  6
CONTINUOUS
 62
     5
 10
0.0
 20
0.0000000000433715
 30
0.0
 40
133.97576008940769
 50
225.8301782504011
 51
229.86617654419749
  0
ARC
  8
DETAIL
  6
CONTINUOUS
 62
     5
 10
0.0
 20
0.0000000000433715
 30
0.0
 40
133.97576008940791
 50
231.52146723540011
 51
235.24495546659779
  0
ARC
  8
DETAIL
  6
CONTINUOUS
 62
     5
 10
0.0
 20
0.0000000000433715
 30
0.0
 40
133.97576008940791
 50
236.790608438297
 51
240.2937394766989
  0
ARC
  8
DETAIL
  6
CONTINUOUS
 62
     5
 10
0.0
 20
0.0000000000433715
 30
0.0
 40
133.97576008940769
 50
241.75910005409801
 51
245.10106966329479
  0
ARC
  8
DETAIL
  6
CONTINUOUS
 62
     5
 10
0.0
 20
0.0000000000433715
 30
0.0
 40
133.9757600894078
 50
246.5049326289959
 51
249.72568242200359
  0
ARC
  8
DETAIL
  6
CONTINUOUS
 62
     5
 10
0.0
 20
0.0000000000433715
 30
0.0
 40
133.9757600894078
 50
251.0846163798029
 51
254.21618812320509
  0
ARC
  8
DETAIL
  6
CONTINUOUS
 62
     5
 10
0.0
 20
0.0000000000433715
 30
0.0
 40
133.97576008940769
 50
255.543347303601
 51
258.61060697020139
  0
ARC
  8
DETAIL
  6
CONTINUOUS
 62
     5
 10
0.0
 20
0.0000000000433715
 30
0.0
 40
133.97576008940769
 50
259.91470104959802
 51
262.93710684409882
  0
ARC
  8
DETAIL
  6
CONTINUOUS
 62
     5
 10
0.0
 20
0.0000000000433715
 30
0.0
 40
133.97576008940769
 50
264.22598589450342
 51
267.22357258640011
  0
ARC
  8
DETAIL
  6
CONTINUOUS
 62
     5
 10
0.0
 20
0.0000000000433715
 30
0.0
 40
133.97576008940769
 50
268.5055053058004
 51
271.49449654369238
  0
ARC
  8
DETAIL
  6
CONTINUOUS
 62
     5
 10
0.0
 20
0.0000000000433715
 30
0.0
 40
133.97576008940769
 50
272.77643193799929
 51
275.77407033799813
  0
ARC
  8
DETAIL
  6
CONTINUOUS
 62
     5
 10
0.0
 20
0.0000000000433715
 30
0.0
 40
133.97576008940769
 50
277.06294542040069
 51
280.08528448300422
  0
ARC
  8
DETAIL
  6
CONTINUOUS
 62
     5
 10
0.0
 20
0.0000000000433715
 30
0.0
 40
133.9757600894076
 50
281.38937904250082
 51
284.45668307499898
  0
ARC
  8
DETAIL
  6
CONTINUOUS
 62
     5
 10
0.0
 20
0.0000000000433715
 30
0.0
 40
133.97576008940749
 50
285.78379896089649
 51
288.91538332930071
  0
ARC
  8
DETAIL
  6
CONTINUOUS
 62
     5
 10
0.0
 20
0.0000000000433715
 30
0.0
 40
133.9757600894076
 50
290.27430957379892
 51
293.49507738599402
  0
ARC
  8
DETAIL
  6
CONTINUOUS
 62
     5
 10
0.0
 20
0.0000000000433715
 30
0.0
 40
133.9757600894076
 50
294.89893605690219
 51
298.24089219149522
  0
ARC
  8
DETAIL
  6
CONTINUOUS
 62
     5
 10
0.0
 20
0.0000000000433715
 30
0.0
 40
133.97576008940749
 50
299.70629526990518
 51
303.20935343600542
  0
ARC
  8
DETAIL
  6
CONTINUOUS
 62
     5
 10
0.0
 20
0.0000000000433715
 30
0.0
 40
133.97576008940749
 50
304.75500546870131
 51
308.47854914380252
  0
ARC
  8
DETAIL
  6
CONTINUOUS
 62
     5
 10
0.0
 20
0.0000000000433715
 30
0.0
 40
133.97576008940749
 50
310.13384385590001
 51
314.16987950620279
  0
ARC
  8
DETAIL
  6
CONTINUOUS
 62
     5
 10
0.0
 20
0.0000000000433715
 30
0.0
 40
133.97576008940749
 50
315.98372730739572
 51
319.01973669969908
  0
ARC
  8
DETAIL
  6
CONTINUOUS
 62
     5
 10
0.0
 20
0.0000000000433715
 30
0.0
 40
133.97576008940749
 50
322.52963798350419
 51
327.7603494967002
  0
ARC
  8
DETAIL
  6
CONTINUOUS
 62
     5
 10
0.0
 20
0.0000000000433715
 30
0.0
 40
133.97576008940729
 50
330.24394299859819
 51
336.9727826330988
  0
ARC
  8
DETAIL
  6
CONTINUOUS
 62
     5
 10
0.0
 20
0.0000000000433715
 30
0.0
 40
133.97576008940729
 50
340.50986580790118
 51
354.19925688820149
  0
ARC
  8
DETAIL
  6
CONTINUOUS
 62
     5
 10
0.0
 20
0.0000000000433715
 30
0.0
 40
138.56159128218101
 50
268.55496772450277
 51
271.44503571859508
  0
ARC
  8
DETAIL
  6
CONTINUOUS
 62
     5
 10
0.0
 20
0.0000000000433715
 30
0.0
 40
138.5615912821809
 50
272.68449894020432
 51
275.58230293569932
  0
ARC
  8
DETAIL
  6
CONTINUOUS
 62
     5
 10
0.0
 20
0.0000000000433715
 30
0.0
 40
138.5615912821809
 50
276.82776734639589
 51
279.74848630960241
  0
ARC
  8
DETAIL
  6
CONTINUOUS
 62
     5
 10
0.0
 20
0.0000000000433715
 30
0.0
 40
138.5615912821809
 50
281.00813639950479
 51
283.96846070760711
  0
ARC
  8
DETAIL
  6
CONTINUOUS
 62
     5
 10
0.0
 20
0.0000000000433715
 30
0.0
 40
138.56159128218081
 50
285.24770101949582
 51
288.26529252160037
  0
ARC
  8
DETAIL
  6
CONTINUOUS
 62
     5
 10
0.0
 20
0.0000000000433715
 30
0.0
 40
138.5615912821809
 50
289.57578488899361
 51
292.67477195939568
  0
ARC
  8
DETAIL
  6
CONTINUOUS
 62
     5
 10
0.0
 20
0.0000000000433715
 30
0.0
 40
138.5615912821807
 50
294.02389494059668
 51
297.22934203610362
  0
ARC
  8
DETAIL
  6
CONTINUOUS
 62
     5
 10
0.0
 20
0.0000000000433715
 30
0.0
 40
138.56159128218081
 50
298.63019217910181
 51
301.97795592419561
  0
ARC
  8
DETAIL
  6
CONTINUOUS
 62
     5
 10
0.0
 20
0.0000000000433715
 30
0.0
 40
138.56159128218081
 50
303.44858172430219
 51
306.98796767300109
  0
ARC
  8
DETAIL
  6
CONTINUOUS
 62
     5
 10
0.0
 20
0.0000000000433715
 30
0.0
 40
138.5615912821807
 50
308.55404542559847
 51
312.35524771800499
  0
ARC
  8
DETAIL
  6
CONTINUOUS
 62
     5
 10
0.0
 20
0.0000000000433715
 30
0.0
 40
138.56159128218059
 50
314.05456451840558
 51
318.22137137650509
  0
ARC
  8
DETAIL
  6
CONTINUOUS
 62
     5
 10
0.0
 20
0.0000000000433715
 30
0.0
 40
138.56159128218059
 50
321.71115012810083
 51
324.86314269090337
  0
ARC
  8
DETAIL
  6
CONTINUOUS
 62
     5
 10
0.0
 20
0.0000000000433715
 30
0.0
 40
138.56159128218059
 50
327.08049031670288
 51
332.85805823960288
  0
ARC
  8
DETAIL
  6
CONTINUOUS
 62
     5
 10
0.0
 20
0.0000000000433715
 30
0.0
 40
138.5615912821807
 50
335.71509762500227
 51
344.14432949530232
  0
ARC
  8
DETAIL
  6
CONTINUOUS
 62
     5
 10
0.0
 20
0.0000000000433715
 30
0.0
 40
138.5615912821807
 50
349.59094550329928
 51
10.40905443689666
  0
ARC
  8
DETAIL
  6
CONTINUOUS
 62
     5
 10
0.0
 20
0.0000000000433715
 30
0.0
 40
138.5615912821807
 50
15.85567049950494
 51
24.284902383602041
  0
ARC
  8
DETAIL
  6
CONTINUOUS
 62
     5
 10
0.0
 20
0.0000000000433715
 30
0.0
 40
138.56159128218059
 50
27.141941754599859
 51
32.919509684396282
  0
ARC
  8
DETAIL
  6
CONTINUOUS
 62
     5
 10
0.0
 20
0.0000000000433715
 30
0.0
 40
138.56159128218081
 50
35.136857307296879
 51
38.288849871699703
  0
ARC
  8
DETAIL
  6
CONTINUOUS
 62
     5
 10
0.0
 20
0.0000000000433715
 30
0.0
 40
138.5615912821807
 50
41.778628620699408
 51
45.945435498796023
  0
ARC
  8
DETAIL
  6
CONTINUOUS
 62
     5
 10
0.0
 20
0.0000000000433715
 30
0.0
 40
138.5615912821807
 50
47.644752299102279
 51
51.445954567497083
  0
ARC
  8
DETAIL
  6
CONTINUOUS
 62
     5
 10
0.0
 20
0.0000000000433715
 30
0.0
 40
138.5615912821809
 50
53.012032340095928
 51
56.551418270599527
  0
ARC
  8
DETAIL
  6
CONTINUOUS
 62
     5
 10
0.0
 20
0.0000000000433715
 30
0.0
 40
138.56159128218081
 50
58.022044067403563
 51
61.369807827303042
  0
ARC
  8
DETAIL
  6
CONTINUOUS
 62
     5
 10
0.0
 20
0.0000000000433715
 30
0.0
 40
138.56159128218081
 50
62.770657953003642
 51
65.976105065999931
  0
ARC
  8
DETAIL
  6
CONTINUOUS
 62
     5
 10
0.0
 20
0.0000000000433715
 30
0.0
 40
138.5615912821809
 50
67.325228045594898
 51
70.424215111600574
  0
ARC
  8
DETAIL
  6
CONTINUOUS
 62
     5
 10
0.0
 20
0.0000000000433715
 30
0.0
 40
138.5615912821809
 50
71.734707477899192
 51
74.752298978397789
  0
ARC
  8
DETAIL
  6
CONTINUOUS
 62
     5
 10
0.0
 20
0.0000000000433715
 30
0.0
 40
138.5615912821809
 50
76.03153930050135
 51
78.991863592001224
  0
ARC
  8
DETAIL
  6
CONTINUOUS
 62
     5
 10
0.0
 20
0.0000000000433715
 30
0.0
 40
138.56159128218081
 50
80.2515136846079
 51
83.172232656805519
  0
ARC
  8
DETAIL
  6
CONTINUOUS
 62
     5
 10
0.0
 20
0.0000000000433715
 30
0.0
 40
138.56159128218101
 50
84.417697069202717
 51
87.315501059098011
  0
ARC
  8
DETAIL
  6
CONTINUOUS
 62
     5
 10
0.0
 20
0.0000000000433715
 30
0.0
 40
138.56159128218081
 50
88.554964281007415
 51
91.445034547495197
  0
ARC
  8
DETAIL
  6
CONTINUOUS
 62
     5
 10
0.0
 20
0.0000000000433715
 30
0.0
 40
138.5615912829798
 50
169.59085935189989
 51
190.40902054459531
  0
ARC
  8
DETAIL
  6
CONTINUOUS
 62
     5
 10
0.0
 20
0.0000000000433715
 30
0.0
 40
138.5615912829798
 50
195.855681838295
 51
204.28488996470259
  0
ARC
  8
DETAIL
  6
CONTINUOUS
 62
     5
 10
0.0
 20
0.0000000000433715
 30
0.0
 40
138.5615912829798
 50
207.14194161870051
 51
212.91956751339481
  0
ARC
  8
DETAIL
  6
CONTINUOUS
 62
     5
 10
0.0
 20
0.0000000000433715
 30
0.0
 40
138.56159128297989
 50
215.1368128836005
 51
218.28883466989981
  0
ARC
  8
DETAIL
  6
CONTINUOUS
 62
     5
 10
0.0
 20
0.0000000000433715
 30
0.0
 40
138.56159128297969
 50
221.77861187340079
 51
225.9455071592966
  0
ARC
  8
DETAIL
  6
CONTINUOUS
 62
     5
 10
0.0
 20
0.0000000000433715
 30
0.0
 40
138.5615912829798
 50
227.644817797299
 51
231.4459086350011
  0
ARC
  8
DETAIL
  6
CONTINUOUS
 62
     5
 10
0.0
 20
0.0000000000433715
 30
0.0
 40
138.56159128297961
 50
233.01206314189361
 51
236.5513733296047
  0
ARC
  8
DETAIL
  6
CONTINUOUS
 62
     5
 10
0.0
 20
0.0000000000433715
 30
0.0
 40
138.56159128297961
 50
238.02199903849231
 51
241.3698098383029
  0
ARC
  8
DETAIL
  6
CONTINUOUS
 62
     5
 10
0.0
 20
0.0000000000433715
 30
0.0
 40
138.56159128297969
 50
242.7706196681992
 51
245.97612406539901
  0
ARC
  8
DETAIL
  6
CONTINUOUS
 62
     5
 10
0.0
 20
0.0000000000433715
 30
0.0
 40
138.56159128297969
 50
247.32525246960091
 51
250.42422964829819
  0
ARC
  8
DETAIL
  6
CONTINUOUS
 62
     5
 10
0.0
 20
0.0000000000433715
 30
0.0
 40
138.56159128297969
 50
251.73472468290331
 51
254.75228544550509
  0
ARC
  8
DETAIL
  6
CONTINUOUS
 62
     5
 10
0.0
 20
0.0000000000433715
 30
0.0
 40
138.56159128297969
 50
256.03156202669612
 51
258.99184194979568
  0
ARC
  8
DETAIL
  6
CONTINUOUS
 62
     5
 10
0.0
 20
0.0000000000433715
 30
0.0
 40
138.56159128297961
 50
260.2514981650998
 51
263.17224993040071
  0
ARC
  8
DETAIL
  6
CONTINUOUS
 62
     5
 10
0.0
 20
0.0000000000433715
 30
0.0
 40
138.56159128297961
 50
264.41773419320413
 51
267.31550826180012
  0
ARC
  8
DETAIL
  6
CONTINUOUS
 62
     5
 10
0.0
 20
0.0000000000433715
 30
0.0
 40
138.56159128457691
 50
92.684496500104046
 51
95.582314425802537
  0
ARC
  8
DETAIL
  6
CONTINUOUS
 62
     5
 10
0.0
 20
0.0000000000433715
 30
0.0
 40
138.56159128457699
 50
96.827775189498979
 51
99.748474603899595
  0
ARC
  8
DETAIL
  6
CONTINUOUS
 62
     5
 10
0.0
 20
0.0000000000433715
 30
0.0
 40
138.56159128457691
 50
101.0081230793983
 51
103.968470967098
  0
ARC
  8
DETAIL
  6
CONTINUOUS
 62
     5
 10
0.0
 20
0.0000000000433715
 30
0.0
 40
138.56159128457691
 50
105.2477058317002
 51
108.2652801101995
  0
ARC
  8
DETAIL
  6
CONTINUOUS
 62
     5
 10
0.0
 20
0.0000000000433715
 30
0.0
 40
138.56159128457691
 50
109.5757753860004
 51
112.67477259990331
  0
ARC
  8
DETAIL
  6
CONTINUOUS
 62
     5
 10
0.0
 20
0.0000000000433715
 30
0.0
 40
138.5615912845771
 50
114.023905457501
 51
117.2293413391987
  0
ARC
  8
DETAIL
  6
CONTINUOUS
 62
     5
 10
0.0
 20
0.0000000000433715
 30
0.0
 40
138.56159128457699
 50
118.6302191907042
 51
121.9779788613
  0
ARC
  8
DETAIL
  6
CONTINUOUS
 62
     5
 10
0.0
 20
0.0000000000433715
 30
0.0
 40
138.5615912845771
 50
123.44862334559809
 51
126.98800770099881
  0
ARC
  8
DETAIL
  6
CONTINUOUS
 62
     5
 10
0.0
 20
0.0000000000433715
 30
0.0
 40
138.5615912845771
 50
128.55409553979649
 51
132.3552515537981
  0
ARC
  8
DETAIL
  6
CONTINUOUS
 62
     5
 10
0.0
 20
0.0000000000433715
 30
0.0
 40
138.56159128457699
 50
134.05456302379969
 51
138.2212763765022
  0
ARC
  8
DETAIL
  6
CONTINUOUS
 62
     5
 10
0.0
 20
0.0000000000433715
 30
0.0
 40
138.56159128457691
 50
140.1157811820986
 51
140.64721019319489
  0
ARC
  8
DETAIL
  6
CONTINUOUS
 62
     5
 10
0.0
 20
0.0000000000433715
 30
0.0
 40
138.56159128457699
 50
141.71107759360149
 51
144.8630258889996
  0
ARC
  8
DETAIL
  6
CONTINUOUS
 62
     5
 10
0.0
 20
0.0000000000433715
 30
0.0
 40
138.5615912845771
 50
147.08053248749749
 51
152.8579116946014
  0
ARC
  8
DETAIL
  6
CONTINUOUS
 62
     5
 10
0.0
 20
0.0000000000433715
 30
0.0
 40
138.56159128457719
 50
155.71518741769799
 51
164.14439202199779
  0
ARC
  8
DETAIL
  6
CONTINUOUS
 62
     5
 10
0.0
 20
0.0000000000433715
 30
0.0
 40
162.72607126086581
 50
146.87740648999969
 51
147.32164035729701
  0
ARC
  8
DETAIL
  6
CONTINUOUS
 62
     5
 10
123.0210693010376
 20
-13.764663287578569
 30
0.0
 40
5.9899167335289656
 50
303.04737910520248
 51
353.60125326870121
  0
ARC
  8
DETAIL
  6
CONTINUOUS
 62
     5
 10
168.95671970463809
 20
-168.9583786090391
 30
0.0
 40
0.9966437865649016
 50
270.01031529009049
 51
359.99080025169741
  0
ARC
  8
DETAIL
  6
CONTINUOUS
 62
     5
 10
170.47198469686259
 20
-170.47198469681959
 30
0.0
 40
0.9981051026241165
 50
269.99657661620307
 51
0.0034233825071691
  0
ARC
  8
DETAIL
  6
CONTINUOUS
 62
     5
 10
168.88797206877919
 20
-168.88797206853619
 30
0.0
 40
0.998534547907538
 50
270.02092976150362
 51
359.97907022279168
  0
ARC
  8
DETAIL
  6
CONTINUOUS
 62
     5
 10
171.0033938697986
 20
-171.00566886668631
 30
0.0
 40
1.994227867862526
 50
270.00482805000672
 51
359.99404230920038
  0
ARC
  8
DETAIL
  6
CONTINUOUS
 62
     5
 10
170.47162105181289
 20
-170.47162105176989
 30
0.0
 40
1.996638845486794
 50
270.00872387310358
 51
359.9912761269029
  0
ARC
  8
DETAIL
  6
CONTINUOUS
 62
     5
 10
73.798716295756776
 20
-4.5028078751739136
 30
0.0
 40
82.624039013685703
 50
111.56833984010051
 51
116.88517124399959
  0
ARC
  8
DETAIL
  6
CONTINUOUS
 62
     5
 10
75.696220674966753
 20
-9.763453052039381
 30
0.0
 40
88.218279022286566
 50
104.63431029989979
 51
109.38132507720169
  0
ARC
  8
DETAIL
  6
CONTINUOUS
 62
     5
 10
76.750731795001911
 20
-14.10290139235161
 30
0.0
 40
92.684997409987062
 50
98.286768089904641
 51
102.68148358289869
  0
ARC
  8
DETAIL
  6
CONTINUOUS
 62
     5
 10
77.538867987503181
 20
-19.959567397012339
 30
0.0
 40
98.595854619415391
 50
92.419839881301982
 51
96.494110374002858
  0
ARC
  8
DETAIL
  6
CONTINUOUS
 62
     5
 10
77.670137156675992
 20
-25.645953140933841
 30
0.0
 40
104.2850035312933
 50
86.872492285901458
 51
90.713550260096625
  0
ARC
  8
DETAIL
  6
CONTINUOUS
 62
     5
 10
77.302631594362538
 20
-30.789973028708118
 30
0.0
 40
109.4429435778428
 50
81.572177142797656
 51
85.255604449003798
  0
ARC
  8
DETAIL
  6
CONTINUOUS
 62
     5
 10
57.491138768512883
 20
-35.609157291132249
 30
0.0
 40
55.649158291044287
 50
73.413686597005253
 51
80.800013413097844
  0
ARC
  8
DETAIL
  6
CONTINUOUS
 62
     5
 10
57.485371543905558
 20
-35.633965238693349
 30
0.0
 40
55.674590081245221
 50
73.415462121802477
 51
80.798310652603391
  0
ARC
  8
DETAIL
  6
CONTINUOUS
 62
     5
 10
57.167541839973637
 20
-36.547343788742069
 30
0.0
 40
56.641922677687653
 50
62.456775999294713
 51
70.181369596999588
  0
ARC
  8
DETAIL
  6
CONTINUOUS
 62
     5
 10
57.071077951916322
 20
-36.768192059638352
 30
0.0
 40
56.882554424806393
 50
62.473794801096268
 51
70.165484764501329
  0
ARC
  8
DETAIL
  6
CONTINUOUS
 62
     5
 10
56.922048720359733
 20
-40.390576279414063
 30
0.0
 40
60.466474854702753
 50
83.856213960499431
 51
90.489901469396514
  0
ARC
  8
DETAIL
  6
CONTINUOUS
 62
     5
 10
57.239020335575788
 20
-51.330830349570988
 30
0.0
 40
71.41531930284593
 50
93.07341958219925
 51
97.294254143600426
  0
ARC
  8
DETAIL
  6
CONTINUOUS
 62
     5
 10
76.500342972683939
 20
-35.899526887478828
 30
0.0
 40
114.61580024275371
 50
76.464270074700579
 51
80.033148103300121
  0
ARC
  8
DETAIL
  6
CONTINUOUS
 62
     5
 10
0.0338915143263421
 20
-0.0706859383285519
 30
0.0
 40
129.67375631131549
 50
286.30456531060008
 51
289.55029803390011
  0
ARC
  8
DETAIL
  6
CONTINUOUS
 62
     5
 10
0.0645614505717731
 20
-0.0225404074343487
 30
0.0
 40
129.86575461667641
 50
138.6019778621984
 51
142.76335872670299
  0
ARC
  8
DETAIL
  6
CONTINUOUS
 62
     5
 10
0.0282100846939102
 20
-0.0904050417145186
 30
0.0
 40
129.9067745887466
 50
101.7632462194027
 51
104.9314714097975
  0
ARC
  8
DETAIL
  6
CONTINUOUS
 62
     5
 10
22.355417064266021
 20
-43.478994924632161
 30
0.0
 40
2.9949583667645281
 50
117.1945509104049
 51
180.83792947480001
  0
ARC
  8
DETAIL
  6
CONTINUOUS
 62
     5
 10
28.89241671237119
 20
-41.891022101036363
 30
0.0
 40
4.9915972779405688
 50
25.223231595200311
 51
119.2279039881
  0
ARC
  8
DETAIL
  6
CONTINUOUS
 62
     5
 10
102.8468552393695
 20
149.40871950577741
 30
0.0
 40
155.07496558502149
 50
248.6627866573003
 51
251.4103833236012
  0
ARC
  8
DETAIL
  6
CONTINUOUS
 62
     5
 10
26.21144419797611
 20
-61.979098541187909
 30
0.0
 40
70.2671171775565
 50
58.051519926905108
 51
64.551449122499079
  0
ARC
  8
DETAIL
  6
CONTINUOUS
 62
     5
 10
23.234253656527471
 20
-66.506196710370432
 30
0.0
 40
75.689908363344301
 50
48.507081310495458
 51
55.239238028999189
  0
ARC
  8
DETAIL
  6
CONTINUOUS
 62
     5
 10
29.949583667643989
 20
-178.69918255023251
 30
0.0
 40
1.49747860255994
 50
270.0
 51
0.0
  0
ARC
  8
DETAIL
  6
CONTINUOUS
 62
     5
 10
29.949583667643989
 20
-178.69918255023251
 30
0.0
 40
1.996638911176273
 50
270.0
 51
0.0
  0
ARC
  8
DETAIL
  6
CONTINUOUS
 62
     5
 10
24.894968106804068
 20
-121.23095546140731
 30
0.0
 40
5.9899167335288563
 50
149.21783784030089
 51
256.14359111639533
  0
ARC
  8
DETAIL
  6
CONTINUOUS
 62
     5
 10
-14.82563138475393
 20
77.442611792864113
 30
0.0
 40
73.977536389169146
 50
238.56204869730169
 51
241.24084094829979
  0
ARC
  8
DETAIL
  6
CONTINUOUS
 62
     5
 10
-43.93941851086015
 20
70.939839726758009
 30
0.0
 40
110.1642493341226
 50
223.9186087972013
 51
228.93643739870089
  0
ARC
  8
DETAIL
  6
CONTINUOUS
 62
     5
 10
-39.828667712989272
 20
74.898141450544301
 30
0.0
 40
115.8719349018873
 50
219.7558648991027
 51
221.74081062800079
  0
ARC
  8
DETAIL
  6
CONTINUOUS
 62
     5
 10
-39.676114844229907
 20
75.030578580802683
 30
0.0
 40
116.0739361571484
 50
219.08899505109821
 51
221.73828744890119
  0
ARC
  8
DETAIL
  6
CONTINUOUS
 62
     5
 10
-39.229259039003857
 20
75.400861599819507
 30
0.0
 40
116.65424460414761
 50
219.09176767549951
 51
219.7574105360047
  0
ARC
  8
DETAIL
  6
CONTINUOUS
 62
     5
 10
-0.1295566136434445
 20
0.4639029289945711
 30
0.0
 40
129.3304146471387
 50
106.69039449980571
 51
107.2016633963992
  0
ARC
  8
DETAIL
  6
CONTINUOUS
 62
     5
 10
-0.4510976621966165
 20
0.0420271121209908
 30
0.0
 40
129.33041538110311
 50
178.69034961319889
 51
179.2017030697977
  0
ARC
  8
DETAIL
  6
CONTINUOUS
 62
     5
 10
-0.1121072454457135
 20
0.4067114801580374
 30
0.0
 40
129.3902083094782
 50
106.30523219770031
 51
107.2020009597952
  0
ARC
  8
DETAIL
  6
CONTINUOUS
 62
     5
 10
-0.0900301881765699
 20
0.3322721319763673
 30
0.0
 40
129.46785191210321
 50
106.3053286758968
 51
106.69041965699989
  0
ARC
  8
DETAIL
  6
CONTINUOUS
 62
     5
 10
-0.0060899665124907
 20
0.0842224937381957
 30
0.0
 40
129.7287156693944
 50
92.864488859091168
 51
95.960486758199565
  0
ARC
  8
DETAIL
  6
CONTINUOUS
 62
     5
 10
-0.0244584117604063
 20
0.0419254165126972
 30
0.0
 40
129.75504584088401
 50
153.65692217489999
 51
161.80819884410079
  0
ARC
  8
DETAIL
  6
CONTINUOUS
 62
     5
 10
-0.0059442635847518
 20
0.022741986388553
 30
0.0
 40
129.7708953474465
 50
240.76055474800361
 51
244.23964005860131
  0
ARC
  8
DETAIL
  6
CONTINUOUS
 62
     5
 10
-0.002030909421137
 20
0.0323240853381321
 30
0.0
 40
129.78033982945701
 50
217.23567830039809
 51
221.43711143530251
  0
ARC
  8
DETAIL
  6
CONTINUOUS
 62
     5
 10
-0.0003934776302685
 20
0.0318674380460493
 30
0.0
 40
129.78189305919111
 50
353.61148828120332
 51
13.32536976199393
  0
ARC
  8
DETAIL
  6
CONTINUOUS
 62
     5
 10
-0.0046096823832613
 20
0.0359356459331366
 30
0.0
 40
129.78761669317791
 50
300.76707807380171
 51
304.4296356950012
  0
ARC
  8
DETAIL
  6
CONTINUOUS
 62
     5
 10
-0.0081220487593328
 20
0.0313785186799009
 30
0.0
 40
129.78958483925319
 50
353.60176573430442
 51
13.324807591800379
  0
ARC
  8
DETAIL
  6
CONTINUOUS
 62
     5
 10
-0.0084572988084801
 20
0.0291511028524383
 30
0.0
 40
129.7903126920053
 50
18.193502725602951
 51
26.341454643501919
  0
ARC
  8
DETAIL
  6
CONTINUOUS
 62
     5
 10
-0.0005417829770522
 20
0.0221298654167867
 30
0.0
 40
129.79088398470631
 50
75.067552091802398
 51
78.2385414163994
  0
ARC
  8
DETAIL
  6
CONTINUOUS
 62
     5
 10
-0.0053337926353834
 20
0.0401131945589555
 30
0.0
 40
129.79129877785451
 50
290.95948895500089
 51
294.30236226009532
  0
ARC
  8
DETAIL
  6
CONTINUOUS
 62
     5
 10
-0.0475306719313267
 20
0.0034826650178275
 30
0.0
 40
129.83676279154301
 50
29.182384284902579
 51
34.989679923800757
  0
ARC
  8
DETAIL
  6
CONTINUOUS
 62
     5
 10
-0.0341792258009264
 20
0.0768143244532666
 30
0.0
 40
129.8380836686143
 50
306.0485439855014
 51
309.96326281639892
  0
ARC
  8
DETAIL
  6
CONTINUOUS
 62
     5
 10
-0.0264931942615476
 20
0.0889090217615376
 30
0.0
 40
129.84446144383691
 50
295.76040568440197
 51
299.23752245479858
  0
ARC
  8
DETAIL
  6
CONTINUOUS
 62
     5
 10
-0.0484757695792268
 20
0.074105811292327
 30
0.0
 40
129.8459017143241
 50
318.56399414679811
 51
322.76272149640062
  0
ARC
  8
DETAIL
  6
CONTINUOUS
 62
     5
 10
-0.0516661397946336
 20
0.0768353001433297
 30
0.0
 40
129.8500998512915
 50
318.56388458739849
 51
322.68863860709769
  0
ARC
  8
DETAIL
  6
CONTINUOUS
 62
     5
 10
-0.0176240834869077
 20
0.103913741016413
 30
0.0
 40
129.85579338614679
 50
281.76316986699942
 51
284.93260758730082
  0
ARC
  8
DETAIL
  6
CONTINUOUS
 62
     5
 10
-43.660604361980397
 20
22.092467508396229
 30
0.0
 40
2.9949583667643189
 50
333.19304610019913
 51
36.837158040400418
  0
ARC
  8
DETAIL
  6
CONTINUOUS
 62
     5
 10
-57.908693615393076
 20
39.802659178507497
 30
0.0
 40
75.287552175047253
 50
265.822289778894
 51
271.14442608939498
  0
ARC
  8
DETAIL
  6
CONTINUOUS
 62
     5
 10
-57.599995823443123
 20
43.905656427496183
 30
0.0
 40
79.40339742964521
 50
258.5395841478018
 51
263.6454728684057
  0
ARC
  8
DETAIL
  6
CONTINUOUS
 62
     5
 10
-56.425922483667591
 20
49.510256445732473
 30
0.0
 40
85.132187823107699
 50
251.55593029549959
 51
256.45003252339882
  0
ARC
  8
DETAIL
  6
CONTINUOUS
 62
     5
 10
-54.350564590331942
 20
55.337471522102362
 30
0.0
 40
91.319863784214149
 50
244.72174714919601
 51
249.48431078819931
  0
ARC
  8
DETAIL
  6
CONTINUOUS
 62
     5
 10
-51.83863157953374
 20
60.334326889315378
 30
0.0
 40
96.913685066687279
 50
237.90809559940541
 51
242.66675942610419
  0
ARC
  8
DETAIL
  6
CONTINUOUS
 62
     5
 10
-48.02071004986351
 20
66.108500069003014
 30
0.0
 40
103.8383892914229
 50
231.0411129385989
 51
235.84163947939939
  0
ARC
  8
DETAIL
  6
CONTINUOUS
 62
     5
 10
-48.01538455645732
 20
16.965528406281749
 30
0.0
 40
4.9915972779405964
 50
336.84362381940042
 51
340.57354207690332
  0
ARC
  8
DETAIL
  6
CONTINUOUS
 62
     5
 10
-48.01538455645732
 20
16.965528406281749
 30
0.0
 40
4.9915972779407483
 50
241.2241960350936
 51
288.61407130889643
  0
ARC
  8
DETAIL
  6
CONTINUOUS
 62
     5
 10
-54.217255991280808
 20
19.15302128137267
 30
0.0
 40
11.568020393829039
 50
338.88504404699711
 51
340.57463265099852
  0
ARC
  8
DETAIL
  6
CONTINUOUS
 62
     5
 10
-56.611541761913259
 20
30.249879355316072
 30
0.0
 40
65.600687749108843
 50
287.61362241889509
 51
287.90926342100488
  0
ARC
  8
DETAIL
  6
CONTINUOUS
 62
     5
 10
-57.027562783532403
 20
31.62292996275556
 30
0.0
 40
67.035265297663685
 50
281.70628110716592
 51
287.57281236073652
  0
ARC
  8
DETAIL
  6
CONTINUOUS
 62
     5
 10
-57.719105254196172
 20
35.340078301831063
 30
0.0
 40
70.817988354872114
 50
273.48845569029879
 51
279.17951525070168
  0
ARC
  8
DETAIL
  6
CONTINUOUS
 62
     5
 10
-168.95671970483801
 20
168.95837860932559
 30
0.0
 40
0.9966437865647621
 50
90.01031529009056
 51
179.99080025169741
  0
ARC
  8
DETAIL
  6
CONTINUOUS
 62
     5
 10
-170.47198465473369
 20
170.4719846547772
 30
0.0
 40
0.9981051026242402
 50
89.996579043405404
 51
180.0034209552984
  0
ARC
  8
DETAIL
  6
CONTINUOUS
 62
     5
 10
-168.88797214724701
 20
168.88797214689129
 30
0.0
 40
0.9985345479073984
 50
90.020925268313633
 51
179.97907471549959
  0
ARC
  8
DETAIL
  6
CONTINUOUS
 62
     5
 10
-171.00339386979911
 20
171.00566886677311
 30
0.0
 40
1.994227867862397
 50
90.00482805010445
 51
179.99404230920041
  0
ARC
  8
DETAIL
  6
CONTINUOUS
 62
     5
 10
-170.4716210518138
 20
170.47162105185669
 30
0.0
 40
1.996638845486794
 50
90.008723872979857
 51
179.99127612689639
  0
ARC
  8
DETAIL
  6
CONTINUOUS
 62
     5
 10
-91.415597815492902
 20
83.50272576203389
 30
0.0
 40
5.9899167335287196
 50
46.564192431106022
 51
108.7694975720979
  0
ARC
  8
DETAIL
  6
CONTINUOUS
 62
     5
 10
-0.3909583414300641
 20
-1.075761730711406
 30
0.0
 40
128.60720526684989
 50
250.4497062942115
 51
251.2062780765886
  0
ARC
  8
DETAIL
  6
CONTINUOUS
 62
     5
 10
-0.041421434060112
 20
-0.0155469616149162
 30
0.0
 40
129.71878630003059
 50
224.00619489469841
 51
228.28767917499999
  0
ARC
  8
DETAIL
  6
CONTINUOUS
 62
     5
 10
-0.0280336616799559
 20
-0.0366164941244733
 30
0.0
 40
129.8552721801311
 50
65.699502304000674
 51
69.040528401396685
  0
ARC
  8
DETAIL
  6
CONTINUOUS
 62
     5
 10
-0.0146662853658199
 20
-0.0447715361437417
 30
0.0
 40
129.85925191455209
 50
79.585138073295113
 51
82.706027715897491
  0
ARC
  8
DETAIL
  6
CONTINUOUS
 62
     5
 10
-67.534468012660454
 20
-4.7308639045213567
 30
0.0
 40
55.858468570887837
 50
284.64701525890422
 51
292.20805976750239
  0
ARC
  8
DETAIL
  6
CONTINUOUS
 62
     5
 10
-67.56868790300723
 20
-4.627603990313844
 30
0.0
 40
55.967092039829978
 50
284.65417548880441
 51
292.20043195380208
  0
ARC
  8
DETAIL
  6
CONTINUOUS
 62
     5
 10
-67.707293488052983
 20
-4.2800527274632714
 30
0.0
 40
56.336564659052378
 50
274.39182768570629
 51
281.57337712959622
  0
ARC
  8
DETAIL
  6
CONTINUOUS
 62
     5
 10
-67.750907622379373
 20
-3.966012182561713
 30
0.0
 40
56.653185840179567
 50
274.41144823630339
 51
281.55287098720271
  0
ARC
  8
DETAIL
  6
CONTINUOUS
 62
     5
 10
-68.0450381249168
 20
-1.8556572243536491
 30
0.0
 40
59.703577746797777
 50
294.35217531540133
 51
301.96448750599859
  0
ARC
  8
DETAIL
  6
CONTINUOUS
 62
     5
 10
-73.91087179297665
 20
-30.042841599678869
 30
0.0
 40
97.715691944446164
 50
308.20503135460098
 51
313.63006913980519
  0
ARC
  8
DETAIL
  6
CONTINUOUS
 62
     5
 10
-78.309892904670733
 20
-24.29289137770866
 30
0.0
 40
104.95798342783981
 50
301.50989916590339
 51
306.09983086080001
  0
ARC
  8
DETAIL
  6
CONTINUOUS
 62
     5
 10
-81.288175789697334
 20
-19.334787812343279
 30
0.0
 40
110.74282250204421
 50
295.5966854742959
 51
299.68254861790092
  0
ARC
  8
DETAIL
  6
CONTINUOUS
 62
     5
 10
-83.562088044903021
 20
-14.592662292082821
 30
0.0
 40
116.0027082199628
 50
291.08844709389848
 51
293.96823078179472
  0
ARC
  8
DETAIL
  6
CONTINUOUS
 62
     5
 10
-29.94958366764422
 20
-178.69918255023251
 30
0.0
 40
1.4974786025597691
 50
180.0
 51
270.0
  0
ARC
  8
DETAIL
  6
CONTINUOUS
 62
     5
 10
-29.94958366764422
 20
-178.69918255023251
 30
0.0
 40
1.996638911176158
 50
180.0
 51
270.0
  0
ARC
  8
DETAIL
  6
CONTINUOUS
 62
     5
 10
-107.6341806136959
 20
-61.116403031657107
 30
0.0
 40
5.9899167335288066
 50
77.334667865305576
 51
161.3414352336971
  0
ARC
  8
DETAIL
  6
CONTINUOUS
 62
     5
 10
-107.6341806136959
 20
-61.116403031657107
 30
0.0
 40
5.9899167335286956
 50
198.6527444205953
 51
209.6012773910951
  0
ARC
  8
DETAIL
  6
CONTINUOUS
 62
     5
 10
-172.59518454292859
 20
-127.2285807060336
 30
0.0
 40
0.4047878648773911
 50
170.5005250786983
 51
180.01493811599329
  0
ARC
  8
DETAIL
  6
CONTINUOUS
 62
     5
 10
-172.59518454292859
 20
-109.3731302682674
 30
0.0
 40
0.4047878648776745
 50
179.9850618841956
 51
189.4994749211036
  0
ARC
  8
DETAIL
  6
CONTINUOUS
 62
     5
 10
-168.95837860908301
 20
-168.95671970459489
 30
0.0
 40
0.9966437867639618
 50
180.0103152901948
 51
269.99080025159321
  0
ARC
  8
DETAIL
  6
CONTINUOUS
 62
     5
 10
-170.47198469686299
 20
-170.47198469681959
 30
0.0
 40
0.9981051026241165
 50
179.99657661619659
 51
270.0034233824876
  0
ARC
  8
DETAIL
  6
CONTINUOUS
 62
     5
 10
-168.8879721470478
 20
-168.88797214740359
 30
0.0
 40
0.9985345479070752
 50
180.0209252507004
 51
269.97907472089952
  0
ARC
  8
DETAIL
  6
CONTINUOUS
 62
     5
 10
-171.00566886692951
 20
-171.00339386975551
 30
0.0
 40
1.9942278676629539
 50
180.0048280499025
 51
269.99404230928508
  0
ARC
  8
DETAIL
  6
CONTINUOUS
 62
     5
 10
-170.4716210518138
 20
-170.47162105176989
 30
0.0
 40
1.9966388454863391
 50
180.0087238730971
 51
269.99127612691598
  0
LINE
  8
DETAIL
  6
CONTINUOUS
 62
     5
 10
-154.56702142748901
 20
169.82417734556699
 30
0.0
 11
-168.88833682595711
 21
169.88650423274331
 31
0.0
  0
LINE
  8
DETAIL
  6
CONTINUOUS
 62
     5
 10
-154.6895996433814
 20
168.82549232036911
 30
0.0
 11
-169.12985216106719
 21
168.8883368260002
 31
0.0
  0
LINE
  8
DETAIL
  6
CONTINUOUS
 62
     5
 10
-171.4700924673964
 20
170.47192506069629
 30
0.0
 11
-172.46825987413899
 21
170.47192506069629
 31
0.0
  0
LINE
  8
DETAIL
  6
CONTINUOUS
 62
     5
 10
-169.12985216106719
 20
168.8883368260002
 30
0.0
 11
-169.88650423270019
 21
168.8883368260002
 31
0.0
  0
LINE
  8
DETAIL
  6
CONTINUOUS
 62
     5
 10
-172.99990390012999
 20
171.01933304525861
 30
0.0
 11
-172.99997275202671
 21
-109.3730977753651
 31
0.0
  0
LINE
  8
DETAIL
  6
CONTINUOUS
 62
     5
 10
170.47192506065269
 20
-171.4700924673526
 30
0.0
 11
170.47192506065269
 21
-172.46825987409571
 31
0.0
  0
LINE
  8
DETAIL
  6
CONTINUOUS
 62
     5
 10
-31.946222578820429
 20
-172.76480142054569
 30
0.0
 11
-32.652082053160257
 21
-172.99989672736081
 31
0.0
  0
LINE
  8
DETAIL
  6
CONTINUOUS
 62
     5
 10
-143.75800160469129
 20
145.81565330101171
 30
0.0
 11
-135.5968312820896
 21
145.81565330101171
 31
0.0
  0
LINE
  8
DETAIL
  6
CONTINUOUS
 62
     5
 10
-125.6136367262081
 20
145.81565330101171
 30
0.0
 11
-133.9494217267063
 21
145.81565330101171
 31
0.0
  0
LINE
  8
DETAIL
  6
CONTINUOUS
 62
     5
 10
-115.6304421703273
 20
145.81565330101171
 30
0.0
 11
-123.96622717082511
 21
145.81565330101171
 31
0.0
  0
LINE
  8
DETAIL
  6
CONTINUOUS
 62
     5
 10
-105.6472476144456
 20
145.81565330101171
 30
0.0
 11
-113.98303261494399
 21
145.81565330101171
 31
0.0
  0
LINE
  8
DETAIL
  6
CONTINUOUS
 62
     5
 10
-95.664053058564377
 20
145.81565330101171
 30
0.0
 11
-103.9998380590625
 21
145.81565330101171
 31
0.0
  0
LINE
  8
DETAIL
  6
CONTINUOUS
 62
     5
 10
-85.680858502683122
 20
145.81565330101171
 30
0.0
 11
-94.016643503181058
 21
145.81565330101171
 31
0.0
  0
LINE
  8
DETAIL
  6
CONTINUOUS
 62
     5
 10
-75.69766394680164
 20
145.81565330101171
 30
0.0
 11
-84.033448947299803
 21
145.81565330101171
 31
0.0
  0
LINE
  8
DETAIL
  6
CONTINUOUS
 62
     5
 10
-65.714469390920613
 20
145.81565330101171
 30
0.0
 11
-74.050254391418775
 21
145.81565330101171
 31
0.0
  0
LINE
  8
DETAIL
  6
CONTINUOUS
 62
     5
 10
-55.731274835038903
 20
145.81565330101171
 30
0.0
 11
-64.06705983553752
 21
145.81565330101171
 31
0.0
  0
LINE
  8
DETAIL
  6
CONTINUOUS
 62
     5
 10
-45.748080279157648
 20
145.81565330101171
 30
0.0
 11
-54.083865279656038
 21
145.81565330101171
 31
0.0
  0
LINE
  8
DETAIL
  6
CONTINUOUS
 62
     5
 10
-35.764885723276173
 20
145.81565330101171
 30
0.0
 11
-44.100670723774783
 21
145.81565330101171
 31
0.0
  0
LINE
  8
DETAIL
  6
CONTINUOUS
 62
     5
 10
-25.781691167394911
 20
145.81565330101171
 30
0.0
 11
-34.117476167893301
 21
145.81565330101171
 31
0.0
  0
LINE
  8
DETAIL
  6
CONTINUOUS
 62
     5
 10
-15.798496611513659
 20
145.81565330101171
 30
0.0
 11
-24.13428161201205
 21
145.81565330101171
 31
0.0
  0
LINE
  8
DETAIL
  6
CONTINUOUS
 62
     5
 10
-5.8153020556321744
 20
145.81565330101171
 30
0.0
 11
-14.15108705613056
 21
145.81565330101171
 31
0.0
  0
LINE
  8
DETAIL
  6
CONTINUOUS
 62
     5
 10
4.1678925002490814
 20
145.81565330101171
 30
0.0
 11
-4.1678925002493088
 21
145.81565330101171
 31
0.0
  0
LINE
  8
DETAIL
  6
CONTINUOUS
 62
     5
 10
-143.59274792873271
 20
145.70050894775261
 30
0.0
 11
-135.7620849582477
 21
145.70050894775261
 31
0.0
  0
LINE
  8
DETAIL
  6
CONTINUOUS
 62
     5
 10
-125.7788904023664
 20
145.70050894775261
 30
0.0
 11
-133.7841680507486
 21
145.70050894775261
 31
0.0
  0
LINE
  8
DETAIL
  6
CONTINUOUS
 62
     5
 10
-115.7956958464852
 20
145.70050894775261
 30
0.0
 11
-123.80097349486731
 21
145.70050894775261
 31
0.0
  0
LINE
  8
DETAIL
  6
CONTINUOUS
 62
     5
 10
-105.81250129060371
 20
145.70050894775261
 30
0.0
 11
-113.8177789389858
 21
145.70050894775261
 31
0.0
  0
LINE
  8
DETAIL
  6
CONTINUOUS
 62
     5
 10
-95.829306734722422
 20
145.70050894775261
 30
0.0
 11
-103.8345843831048
 21
145.70050894775261
 31
0.0
  0
LINE
  8
DETAIL
  6
CONTINUOUS
 62
     5
 10
-85.84611217884094
 20
145.70050894775261
 30
0.0
 11
-93.851389827223329
 21
145.70050894775261
 31
0.0
  0
LINE
  8
DETAIL
  6
CONTINUOUS
 62
     5
 10
-75.862917622959685
 20
145.70050894775261
 30
0.0
 11
-83.868195271342074
 21
145.70050894775261
 31
0.0
  0
LINE
  8
DETAIL
  6
CONTINUOUS
 62
     5
 10
-65.879723067078203
 20
145.70050894775261
 30
0.0
 11
-73.885000715460592
 21
145.70050894775261
 31
0.0
  0
LINE
  8
DETAIL
  6
CONTINUOUS
 62
     5
 10
-55.896528511196948
 20
145.70050894775261
 30
0.0
 11
-63.901806159578882
 21
145.70050894775261
 31
0.0
  0
LINE
  8
DETAIL
  6
CONTINUOUS
 62
     5
 10
-45.913333955315693
 20
145.70050894775261
 30
0.0
 11
-53.918611603697848
 21
145.70050894775261
 31
0.0
  0
LINE
  8
DETAIL
  6
CONTINUOUS
 62
     5
 10
-35.930139399434211
 20
145.70050894775261
 30
0.0
 11
-43.935417047816372
 21
145.70050894775261
 31
0.0
  0
LINE
  8
DETAIL
  6
CONTINUOUS
 62
     5
 10
-25.946944843552959
 20
145.70050894775261
 30
0.0
 11
-33.952222491935117
 21
145.70050894775261
 31
0.0
  0
LINE
  8
DETAIL
  6
CONTINUOUS
 62
     5
 10
-15.96375028767147
 20
145.70050894775261
 30
0.0
 11
-23.969027936053639
 21
145.70050894775261
 31
0.0
  0
LINE
  8
DETAIL
  6
CONTINUOUS
 62
     5
 10
-5.9805557317902176
 20
145.70050894775261
 30
0.0
 11
-13.98583338017238
 21
145.70050894775261
 31
0.0
  0
LINE
  8
DETAIL
  6
CONTINUOUS
 62
     5
 10
4.0026388240912638
 20
145.70050894775261
 30
0.0
 11
-4.0026388242911253
 21
145.70050894775261
 31
0.0
  0
LINE
  8
DETAIL
  6
CONTINUOUS
 62
     5
 10
-3.6429800331316069
 20
143.39327738757859
 30
0.0
 11
3.64298003313138
 21
143.39327738757859
 31
0.0
  0
LINE
  8
DETAIL
  6
CONTINUOUS
 62
     5
 10
-13.62617458901286
 20
143.39327738757859
 30
0.0
 11
-6.340214522749875
 21
143.39327738757859
 31
0.0
  0
LINE
  8
DETAIL
  6
CONTINUOUS
 62
     5
 10
-23.609369144894341
 20
143.39327738757859
 30
0.0
 11
-16.323409078631361
 21
143.39327738757859
 31
0.0
  0
LINE
  8
DETAIL
  6
CONTINUOUS
 62
     5
 10
-33.5925637007756
 20
143.39327738757859
 30
0.0
 11
-26.306603634512609
 21
143.39327738757859
 31
0.0
  0
LINE
  8
DETAIL
  6
CONTINUOUS
 62
     5
 10
-43.575758256657082
 20
143.39327738757859
 30
0.0
 11
-36.289798190394087
 21
143.39327738757859
 31
0.0
  0
LINE
  8
DETAIL
  6
CONTINUOUS
 62
     5
 10
-53.558952812538109
 20
143.39327738757859
 30
0.0
 11
-46.272992746275349
 21
143.39327738757859
 31
0.0
  0
LINE
  8
DETAIL
  6
CONTINUOUS
 62
     5
 10
-63.542147368419357
 20
143.39327738757859
 30
0.0
 11
-56.256187302156597
 21
143.39327738757859
 31
0.0
  0
LINE
  8
DETAIL
  6
CONTINUOUS
 62
     5
 10
-73.525341924301074
 20
143.39327738757859
 30
0.0
 11
-66.239381858038087
 21
143.39327738757859
 31
0.0
  0
LINE
  8
DETAIL
  6
CONTINUOUS
 62
     5
 10
-83.508536480182329
 20
143.39327738757859
 30
0.0
 11
-76.222576413919342
 21
143.39327738757859
 31
0.0
  0
LINE
  8
DETAIL
  6
CONTINUOUS
 62
     5
 10
-93.491731036063584
 20
143.39327738757859
 30
0.0
 11
-86.205770969800369
 21
143.39327738757859
 31
0.0
  0
LINE
  8
DETAIL
  6
CONTINUOUS
 62
     5
 10
-103.4749255919448
 20
143.39327738757859
 30
0.0
 11
-96.188965525681851
 21
143.39327738757859
 31
0.0
  0
LINE
  8
DETAIL
  6
CONTINUOUS
 62
     5
 10
-113.45812014782609
 20
143.39327738757859
 30
0.0
 11
-106.17216008156331
 21
143.39327738757859
 31
0.0
  0
LINE
  8
DETAIL
  6
CONTINUOUS
 62
     5
 10
-123.44131470370731
 20
143.39327738757859
 30
0.0
 11
-116.1553546374446
 21
143.39327738757859
 31
0.0
  0
LINE
  8
DETAIL
  6
CONTINUOUS
 62
     5
 10
-133.4245092595888
 20
143.39327738757859
 30
0.0
 11
-126.1385491933258
 21
143.39327738757859
 31
0.0
  0
LINE
  8
DETAIL
  6
CONTINUOUS
 62
     5
 10
-3.6352474767113558
 20
143.25884187694061
 30
0.0
 11
3.6352474765114948
 21
143.25884187694061
 31
0.0
  0
LINE
  8
DETAIL
  6
CONTINUOUS
 62
     5
 10
-13.61844203259284
 20
143.25884187694061
 30
0.0
 11
-6.3479470793697601
 21
143.25884187694061
 31
0.0
  0
LINE
  8
DETAIL
  6
CONTINUOUS
 62
     5
 10
-23.60163658847409
 20
143.25884187694061
 30
0.0
 11
-16.331141635251239
 21
143.25884187694061
 31
0.0
  0
LINE
  8
DETAIL
  6
CONTINUOUS
 62
     5
 10
-33.584831144355583
 20
143.25884187694061
 30
0.0
 11
-26.314336191132501
 21
143.25884187694061
 31
0.0
  0
LINE
  8
DETAIL
  6
CONTINUOUS
 62
     5
 10
-43.568025700236603
 20
143.25884187694061
 30
0.0
 11
-36.29753074701398
 21
143.25884187694061
 31
0.0
  0
LINE
  8
DETAIL
  6
CONTINUOUS
 62
     5
 10
-53.551220256118093
 20
143.25884187694061
 30
0.0
 11
-46.280725302895227
 21
143.25884187694061
 31
0.0
  0
LINE
  8
DETAIL
  6
CONTINUOUS
 62
     5
 10
-63.534414811999568
 20
143.25884187694061
 30
0.0
 11
-56.263919858776489
 21
143.25884187694061
 31
0.0
  0
LINE
  8
DETAIL
  6
CONTINUOUS
 62
     5
 10
-73.517609367880823
 20
143.25884187694061
 30
0.0
 11
-66.247114414657972
 21
143.25884187694061
 31
0.0
  0
LINE
  8
DETAIL
  6
CONTINUOUS
 62
     5
 10
-83.500803923762305
 20
143.25884187694061
 30
0.0
 11
-76.230308970539227
 21
143.25884187694061
 31
0.0
  0
LINE
  8
DETAIL
  6
CONTINUOUS
 62
     5
 10
-93.48399847964356
 20
143.25884187694061
 30
0.0
 11
-86.213503526420482
 21
143.25884187694061
 31
0.0
  0
LINE
  8
DETAIL
  6
CONTINUOUS
 62
     5
 10
-103.467193035525
 20
143.25884187694061
 30
0.0
 11
-96.196698082301737
 21
143.25884187694061
 31
0.0
  0
LINE
  8
DETAIL
  6
CONTINUOUS
 62
     5
 10
-113.4503875914063
 20
143.25884187694061
 30
0.0
 11
-106.17989263818301
 21
143.25884187694061
 31
0.0
  0
LINE
  8
DETAIL
  6
CONTINUOUS
 62
     5
 10
-123.43358214728759
 20
143.25884187694061
 30
0.0
 11
-116.1630871940645
 21
143.25884187694061
 31
0.0
  0
LINE
  8
DETAIL
  6
CONTINUOUS
 62
     5
 10
-133.41677670316881
 20
143.25884187694061
 30
0.0
 11
-126.1462817499455
 21
143.25884187694061
 31
0.0
  0
LINE
  8
DETAIL
  6
CONTINUOUS
 62
     5
 10
-83.359674541609365
 20
142.7596821491465
 30
0.0
 11
-81.862195358226927
 21
142.7596821491465
 31
0.0
  0
LINE
  8
DETAIL
  6
CONTINUOUS
 62
     5
 10
-87.852112091755998
 20
142.7596821491465
 30
0.0
 11
-86.354632908373787
 21
142.7596821491465
 31
0.0
  0
LINE
  8
DETAIL
  6
CONTINUOUS
 62
     5
 10
16.47227101720409
 20
132.54025097270741
 30
0.0
 11
18.025303657375161
 21
132.54025097270741
 31
0.0
  0
LINE
  8
DETAIL
  6
CONTINUOUS
 62
     5
 10
6.4890764613228384
 20
132.54025097270741
 30
0.0
 11
13.47731265043967
 21
132.54025097270741
 31
0.0
  0
LINE
  8
DETAIL
  6
CONTINUOUS
 62
     5
 10
-3.4941180945586439
 20
132.54025097270741
 30
0.0
 11
3.494118094558416
 21
132.54025097270741
 31
0.0
  0
LINE
  8
DETAIL
  6
CONTINUOUS
 62
     5
 10
-13.477312650439901
 20
132.54025097270741
 30
0.0
 11
-6.4890764613230658
 21
132.54025097270741
 31
0.0
  0
LINE
  8
DETAIL
  6
CONTINUOUS
 62
     5
 10
-18.025303657375389
 20
132.54025097270741
 30
0.0
 11
-16.472271017204552
 21
132.54025097270741
 31
0.0
  0
LINE
  8
DETAIL
  6
CONTINUOUS
 62
     5
 10
136.27060568778029
 20
-85.855473180536137
 30
0.0
 11
136.27060568778029
 21
85.855473180622823
 31
0.0
  0
LINE
  8
DETAIL
  6
CONTINUOUS
 62
     5
 10
136.27060568778029
 20
-143.25884187685381
 30
0.0
 11
136.27060568778029
 21
-87.852112091712399
 31
0.0
  0
LINE
  8
DETAIL
  6
CONTINUOUS
 62
     5
 10
133.2756473210159
 20
-85.855473180536137
 30
0.0
 11
133.2756473210159
 21
85.855473180622823
 31
0.0
  0
LINE
  8
DETAIL
  6
CONTINUOUS
 62
     5
 10
133.2756473210159
 20
-143.25884187685381
 30
0.0
 11
133.2756473210159
 21
-87.852112091712399
 31
0.0
  0
LINE
  8
DETAIL
  6
CONTINUOUS
 62
     5
 10
126.28741113189881
 20
-85.855473180536137
 30
0.0
 11
126.28741113189881
 21
85.855473180622823
 31
0.0
  0
LINE
  8
DETAIL
  6
CONTINUOUS
 62
     5
 10
126.28741113189881
 20
-143.25884187685381
 30
0.0
 11
126.28741113189881
 21
-87.852112091712399
 31
0.0
  0
LINE
  8
DETAIL
  6
CONTINUOUS
 62
     5
 10
123.2924527651346
 20
-85.855473180536137
 30
0.0
 11
123.2924527651346
 21
85.855473180622823
 31
0.0
  0
LINE
  8
DETAIL
  6
CONTINUOUS
 62
     5
 10
123.2924527651346
 20
-143.25884187685381
 30
0.0
 11
123.2924527651346
 21
-87.852112091712399
 31
0.0
  0
LINE
  8
DETAIL
  6
CONTINUOUS
 62
     5
 10
116.30421657601759
 20
-85.855473180536137
 30
0.0
 11
116.30421657601759
 21
85.855473180622823
 31
0.0
  0
LINE
  8
DETAIL
  6
CONTINUOUS
 62
     5
 10
116.30421657601759
 20
-143.25884187685381
 30
0.0
 11
116.30421657601759
 21
-87.852112091712399
 31
0.0
  0
LINE
  8
DETAIL
  6
CONTINUOUS
 62
     5
 10
113.3092582092531
 20
-85.855473180536137
 30
0.0
 11
113.3092582092531
 21
85.855473180622823
 31
0.0
  0
LINE
  8
DETAIL
  6
CONTINUOUS
 62
     5
 10
113.3092582092531
 20
-143.25884187685381
 30
0.0
 11
113.3092582092531
 21
-87.852112091712399
 31
0.0
  0
LINE
  8
DETAIL
  6
CONTINUOUS
 62
     5
 10
106.3210220201363
 20
-85.855473180536137
 30
0.0
 11
106.3210220201363
 21
85.855473180622823
 31
0.0
  0
LINE
  8
DETAIL
  6
CONTINUOUS
 62
     5
 10
106.3210220201363
 20
-143.25884187685381
 30
0.0
 11
106.3210220201363
 21
-87.852112091712399
 31
0.0
  0
LINE
  8
DETAIL
  6
CONTINUOUS
 62
     5
 10
103.3260636533719
 20
-85.855473180536137
 30
0.0
 11
103.3260636533719
 21
85.855473180622823
 31
0.0
  0
LINE
  8
DETAIL
  6
CONTINUOUS
 62
     5
 10
103.3260636533719
 20
-143.25884187685381
 30
0.0
 11
103.3260636533719
 21
-87.852112091712399
 31
0.0
  0
LINE
  8
DETAIL
  6
CONTINUOUS
 62
     5
 10
96.337827464254815
 20
-85.855473180536137
 30
0.0
 11
96.337827464254815
 21
85.855473180622823
 31
0.0
  0
LINE
  8
DETAIL
  6
CONTINUOUS
 62
     5
 10
96.337827464254815
 20
-143.25884187685381
 30
0.0
 11
96.337827464254815
 21
-87.852112091712399
 31
0.0
  0
LINE
  8
DETAIL
  6
CONTINUOUS
 62
     5
 10
-3.4941180945586439
 20
87.852112091799086
 30
0.0
 11
3.494118094558416
 21
87.852112091799086
 31
0.0
  0
LINE
  8
DETAIL
  6
CONTINUOUS
 62
     5
 10
-13.477312650439901
 20
87.852112091799086
 30
0.0
 11
-6.4890764613230658
 21
87.852112091799086
 31
0.0
  0
LINE
  8
DETAIL
  6
CONTINUOUS
 62
     5
 10
-23.460507206321381
 20
87.852112091799086
 30
0.0
 11
-16.472271017204552
 21
87.852112091799086
 31
0.0
  0
LINE
  8
DETAIL
  6
CONTINUOUS
 62
     5
 10
-33.443701762202643
 20
87.852112091799086
 30
0.0
 11
-26.455465573085799
 21
87.852112091799086
 31
0.0
  0
LINE
  8
DETAIL
  6
CONTINUOUS
 62
     5
 10
-43.426896318083891
 20
87.852112091799086
 30
0.0
 11
-36.438660128967292
 21
87.852112091799086
 31
0.0
  0
LINE
  8
DETAIL
  6
CONTINUOUS
 62
     5
 10
-53.410090873965373
 20
87.852112091799086
 30
0.0
 11
-46.421854684848313
 21
87.852112091799086
 31
0.0
  0
LINE
  8
DETAIL
  6
CONTINUOUS
 62
     5
 10
-63.393285429846628
 20
87.852112091799086
 30
0.0
 11
-56.405049240729802
 21
87.852112091799086
 31
0.0
  0
LINE
  8
DETAIL
  6
CONTINUOUS
 62
     5
 10
-73.37647998572811
 20
87.852112091799086
 30
0.0
 11
-66.38824379661105
 21
87.852112091799086
 31
0.0
  0
LINE
  8
DETAIL
  6
CONTINUOUS
 62
     5
 10
-83.359674541609365
 20
87.852112091799086
 30
0.0
 11
-76.371438352492305
 21
87.852112091799086
 31
0.0
  0
LINE
  8
DETAIL
  6
CONTINUOUS
 62
     5
 10
-93.342869097490848
 20
87.852112091799086
 30
0.0
 11
-86.354632908373787
 21
87.852112091799086
 31
0.0
  0
LINE
  8
DETAIL
  6
CONTINUOUS
 62
     5
 10
-103.3260636533721
 20
87.852112091799086
 30
0.0
 11
-96.337827464255042
 21
87.852112091799086
 31
0.0
  0
LINE
  8
DETAIL
  6
CONTINUOUS
 62
     5
 10
-113.3092582092534
 20
87.852112091799086
 30
0.0
 11
-106.3210220201365
 21
87.852112091799086
 31
0.0
  0
LINE
  8
DETAIL
  6
CONTINUOUS
 62
     5
 10
-123.2924527651351
 20
87.852112091799086
 30
0.0
 11
-116.30421657601779
 21
87.852112091799086
 31
0.0
  0
LINE
  8
DETAIL
  6
CONTINUOUS
 62
     5
 10
-133.27564732101609
 20
87.852112091799086
 30
0.0
 11
-126.2874111318993
 21
87.852112091799086
 31
0.0
  0
LINE
  8
DETAIL
  6
CONTINUOUS
 62
     5
 10
-143.25884187689761
 20
87.852112091799086
 30
0.0
 11
-136.27060568778049
 21
87.852112091799086
 31
0.0
  0
LINE
  8
DETAIL
  6
CONTINUOUS
 62
     5
 10
-3.5295885128000459
 20
87.816641673557569
 30
0.0
 11
3.529588512799819
 21
87.816641673557569
 31
0.0
  0
LINE
  8
DETAIL
  6
CONTINUOUS
 62
     5
 10
-13.5127830686813
 20
87.816641673557569
 30
0.0
 11
-6.4536060430812094
 21
87.816641673557569
 31
0.0
  0
LINE
  8
DETAIL
  6
CONTINUOUS
 62
     5
 10
-23.49597762456256
 20
87.816641673557569
 30
0.0
 11
-16.436800598962691
 21
87.816641673557569
 31
0.0
  0
LINE
  8
DETAIL
  6
CONTINUOUS
 62
     5
 10
-33.479172180444039
 20
87.816641673557569
 30
0.0
 11
-26.419995154843949
 21
87.816641673557569
 31
0.0
  0
LINE
  8
DETAIL
  6
CONTINUOUS
 62
     5
 10
-43.462366736325521
 20
87.816641673557569
 30
0.0
 11
-36.403189710725428
 21
87.816641673557569
 31
0.0
  0
LINE
  8
DETAIL
  6
CONTINUOUS
 62
     5
 10
-53.445561292206783
 20
87.816641673557569
 30
0.0
 11
-46.386384266606683
 21
87.816641673557569
 31
0.0
  0
LINE
  8
DETAIL
  6
CONTINUOUS
 62
     5
 10
-63.428755848088031
 20
87.816641673557569
 30
0.0
 11
-56.369578822488172
 21
87.816641673557569
 31
0.0
  0
LINE
  8
DETAIL
  6
CONTINUOUS
 62
     5
 10
-73.411950403969513
 20
87.816641673557569
 30
0.0
 11
-66.35277337836942
 21
87.816641673557569
 31
0.0
  0
LINE
  8
DETAIL
  6
CONTINUOUS
 62
     5
 10
-83.395144959850541
 20
87.816641673557569
 30
0.0
 11
-76.335967934250675
 21
87.816641673557569
 31
0.0
  0
LINE
  8
DETAIL
  6
CONTINUOUS
 62
     5
 10
-93.37833951573225
 20
87.816641673557569
 30
0.0
 11
-86.319162490132157
 21
87.816641673557569
 31
0.0
  0
LINE
  8
DETAIL
  6
CONTINUOUS
 62
     5
 10
-103.36153407161351
 20
87.816641673557569
 30
0.0
 11
-96.302357046013412
 21
87.816641673557569
 31
0.0
  0
LINE
  8
DETAIL
  6
CONTINUOUS
 62
     5
 10
-113.3447286274948
 20
87.816641673557569
 30
0.0
 11
-106.2855516018947
 21
87.816641673557569
 31
0.0
  0
LINE
  8
DETAIL
  6
CONTINUOUS
 62
     5
 10
-123.3279231833765
 20
87.816641673557569
 30
0.0
 11
-116.26874615777589
 21
87.816641673557569
 31
0.0
  0
LINE
  8
DETAIL
  6
CONTINUOUS
 62
     5
 10
-133.3111177392577
 20
87.816641673557569
 30
0.0
 11
-126.25194071365721
 21
87.816641673557569
 31
0.0
  0
LINE
  8
DETAIL
  6
CONTINUOUS
 62
     5
 10
-143.25884187689761
 20
87.816641673557569
 30
0.0
 11
-136.23513526953889
 21
87.816641673557569
 31
0.0
  0
LINE
  8
DETAIL
  6
CONTINUOUS
 62
     5
 10
-3.546411219902438
 20
87.317786020492179
 30
0.0
 11
3.5464112199022111
 21
87.317786020492179
 31
0.0
  0
LINE
  8
DETAIL
  6
CONTINUOUS
 62
     5
 10
-13.52960577578369
 20
87.317786020492179
 30
0.0
 11
-6.4367833359788156
 21
87.317786020492179
 31
0.0
  0
LINE
  8
DETAIL
  6
CONTINUOUS
 62
     5
 10
-23.512800331665179
 20
87.317786020492179
 30
0.0
 11
-16.419977891860299
 21
87.317786020492179
 31
0.0
  0
LINE
  8
DETAIL
  6
CONTINUOUS
 62
     5
 10
-33.495994887546431
 20
87.317786020492179
 30
0.0
 11
-26.40317244774155
 21
87.317786020492179
 31
0.0
  0
LINE
  8
DETAIL
  6
CONTINUOUS
 62
     5
 10
-43.479189443427913
 20
87.317786020492179
 30
0.0
 11
-36.386367003623043
 21
87.317786020492179
 31
0.0
  0
LINE
  8
DETAIL
  6
CONTINUOUS
 62
     5
 10
-53.462383999309168
 20
87.317786020492179
 30
0.0
 11
-46.369561559504518
 21
87.317786020492179
 31
0.0
  0
LINE
  8
DETAIL
  6
CONTINUOUS
 62
     5
 10
-63.44557855519065
 20
87.317786020492179
 30
0.0
 11
-56.352756115385318
 21
87.317786020492179
 31
0.0
  0
LINE
  8
DETAIL
  6
CONTINUOUS
 62
     5
 10
-73.428773111071678
 20
87.317786020492179
 30
0.0
 11
-66.335950671267028
 21
87.317786020492179
 31
0.0
  0
LINE
  8
DETAIL
  6
CONTINUOUS
 62
     5
 10
-83.41196766695316
 20
87.317786020492179
 30
0.0
 11
-76.319145227148056
 21
87.317786020492179
 31
0.0
  0
LINE
  8
DETAIL
  6
CONTINUOUS
 62
     5
 10
-93.395162222834642
 20
87.317786020492179
 30
0.0
 11
-86.302339783029765
 21
87.317786020492179
 31
0.0
  0
LINE
  8
DETAIL
  6
CONTINUOUS
 62
     5
 10
-103.3783567787159
 20
87.317786020492179
 30
0.0
 11
-96.285534338910793
 21
87.317786020492179
 31
0.0
  0
LINE
  8
DETAIL
  6
CONTINUOUS
 62
     5
 10
-113.36155133459739
 20
87.317786020492179
 30
0.0
 11
-106.26872889479201
 21
87.317786020492179
 31
0.0
  0
LINE
  8
DETAIL
  6
CONTINUOUS
 62
     5
 10
-123.3447458904789
 20
87.317786020492179
 30
0.0
 11
-116.2519234506735
 21
87.317786020492179
 31
0.0
  0
LINE
  8
DETAIL
  6
CONTINUOUS
 62
     5
 10
-133.32794044635969
 20
87.317786020492179
 30
0.0
 11
-126.2351180065548
 21
87.317786020492179
 31
0.0
  0
LINE
  8
DETAIL
  6
CONTINUOUS
 62
     5
 10
-143.25884187689761
 20
87.317786020492179
 30
0.0
 11
-136.21831256243649
 21
87.317786020492179
 31
0.0
  0
LINE
  8
DETAIL
  6
CONTINUOUS
 62
     5
 10
-136.21831256243649
 20
86.389799251929901
 30
0.0
 11
-143.25884187689761
 21
86.389799251929901
 31
0.0
  0
LINE
  8
DETAIL
  6
CONTINUOUS
 62
     5
 10
-126.2351180065548
 20
86.389799251929901
 30
0.0
 11
-133.32794044635969
 21
86.389799251929901
 31
0.0
  0
LINE
  8
DETAIL
  6
CONTINUOUS
 62
     5
 10
-116.2519234506735
 20
86.389799251929901
 30
0.0
 11
-123.3447458904789
 21
86.389799251929901
 31
0.0
  0
LINE
  8
DETAIL
  6
CONTINUOUS
 62
     5
 10
-106.26872889479201
 20
86.389799251929901
 30
0.0
 11
-113.36155133459739
 21
86.389799251929901
 31
0.0
  0
LINE
  8
DETAIL
  6
CONTINUOUS
 62
     5
 10
-96.285534338910793
 20
86.389799251929901
 30
0.0
 11
-103.3783567787159
 21
86.389799251929901
 31
0.0
  0
LINE
  8
DETAIL
  6
CONTINUOUS
 62
     5
 10
-86.302339783029765
 20
86.389799251929901
 30
0.0
 11
-93.395162222834642
 21
86.389799251929901
 31
0.0
  0
LINE
  8
DETAIL
  6
CONTINUOUS
 62
     5
 10
-76.319145227148056
 20
86.389799251929901
 30
0.0
 11
-83.41196766695316
 21
86.389799251929901
 31
0.0
  0
LINE
  8
DETAIL
  6
CONTINUOUS
 62
     5
 10
-66.335950671267028
 20
86.389799251929901
 30
0.0
 11
-73.428773111071678
 21
86.389799251929901
 31
0.0
  0
LINE
  8
DETAIL
  6
CONTINUOUS
 62
     5
 10
-56.352756115385318
 20
86.389799251929901
 30
0.0
 11
-63.44557855519065
 21
86.389799251929901
 31
0.0
  0
LINE
  8
DETAIL
  6
CONTINUOUS
 62
     5
 10
-46.369561559504518
 20
86.389799251929901
 30
0.0
 11
-53.462383999309168
 21
86.389799251929901
 31
0.0
  0
LINE
  8
DETAIL
  6
CONTINUOUS
 62
     5
 10
-36.386367003623043
 20
86.389799251929901
 30
0.0
 11
-43.479189443427913
 21
86.389799251929901
 31
0.0
  0
LINE
  8
DETAIL
  6
CONTINUOUS
 62
     5
 10
-26.40317244774155
 20
86.389799251929901
 30
0.0
 11
-33.495994887546431
 21
86.389799251929901
 31
0.0
  0
LINE
  8
DETAIL
  6
CONTINUOUS
 62
     5
 10
-16.419977891860299
 20
86.389799251929901
 30
0.0
 11
-23.512800331665179
 21
86.389799251929901
 31
0.0
  0
LINE
  8
DETAIL
  6
CONTINUOUS
 62
     5
 10
-6.4367833359788156
 20
86.389799251929901
 30
0.0
 11
-13.52960577578369
 21
86.389799251929901
 31
0.0
  0
LINE
  8
DETAIL
  6
CONTINUOUS
 62
     5
 10
3.5464112199022111
 20
86.389799251929901
 30
0.0
 11
-3.546411219902438
 21
86.389799251929901
 31
0.0
  0
LINE
  8
DETAIL
  6
CONTINUOUS
 62
     5
 10
-136.23513526953889
 20
85.890943598864567
 30
0.0
 11
-143.25884187689761
 21
85.890943598864567
 31
0.0
  0
LINE
  8
DETAIL
  6
CONTINUOUS
 62
     5
 10
-126.25194071365721
 20
85.890943598864567
 30
0.0
 11
-133.3111177392577
 21
85.890943598864567
 31
0.0
  0
LINE
  8
DETAIL
  6
CONTINUOUS
 62
     5
 10
-116.26874615777589
 20
85.890943598864567
 30
0.0
 11
-123.3279231833765
 21
85.890943598864567
 31
0.0
  0
LINE
  8
DETAIL
  6
CONTINUOUS
 62
     5
 10
-106.2855516018947
 20
85.890943598864567
 30
0.0
 11
-113.3447286274948
 21
85.890943598864567
 31
0.0
  0
LINE
  8
DETAIL
  6
CONTINUOUS
 62
     5
 10
-96.302357046013412
 20
85.890943598864567
 30
0.0
 11
-103.36153407161351
 21
85.890943598864567
 31
0.0
  0
LINE
  8
DETAIL
  6
CONTINUOUS
 62
     5
 10
-86.319162490132157
 20
85.890943598864567
 30
0.0
 11
-93.37833951573225
 21
85.890943598864567
 31
0.0
  0
LINE
  8
DETAIL
  6
CONTINUOUS
 62
     5
 10
-76.335967934250675
 20
85.890943598864567
 30
0.0
 11
-83.395144959850541
 21
85.890943598864567
 31
0.0
  0
LINE
  8
DETAIL
  6
CONTINUOUS
 62
     5
 10
-66.35277337836942
 20
85.890943598864567
 30
0.0
 11
-73.411950403969513
 21
85.890943598864567
 31
0.0
  0
LINE
  8
DETAIL
  6
CONTINUOUS
 62
     5
 10
-56.369578822488172
 20
85.890943598864567
 30
0.0
 11
-63.428755848088031
 21
85.890943598864567
 31
0.0
  0
LINE
  8
DETAIL
  6
CONTINUOUS
 62
     5
 10
-46.386384266606683
 20
85.890943598864567
 30
0.0
 11
-53.445561292206783
 21
85.890943598864567
 31
0.0
  0
LINE
  8
DETAIL
  6
CONTINUOUS
 62
     5
 10
-36.403189710725428
 20
85.890943598864567
 30
0.0
 11
-43.462366736325521
 21
85.890943598864567
 31
0.0
  0
LINE
  8
DETAIL
  6
CONTINUOUS
 62
     5
 10
-26.419995154843949
 20
85.890943598864567
 30
0.0
 11
-33.479172180444039
 21
85.890943598864567
 31
0.0
  0
LINE
  8
DETAIL
  6
CONTINUOUS
 62
     5
 10
-16.436800598962691
 20
85.890943598864567
 30
0.0
 11
-23.49597762456256
 21
85.890943598864567
 31
0.0
  0
LINE
  8
DETAIL
  6
CONTINUOUS
 62
     5
 10
-6.4536060430812094
 20
85.890943598864567
 30
0.0
 11
-13.5127830686813
 21
85.890943598864567
 31
0.0
  0
LINE
  8
DETAIL
  6
CONTINUOUS
 62
     5
 10
3.529588512799819
 20
85.890943598864567
 30
0.0
 11
-3.5295885128000459
 21
85.890943598864567
 31
0.0
  0
LINE
  8
DETAIL
  6
CONTINUOUS
 62
     5
 10
-3.4941180945586439
 20
85.855473180622823
 30
0.0
 11
3.494118094558416
 21
85.855473180622823
 31
0.0
  0
LINE
  8
DETAIL
  6
CONTINUOUS
 62
     5
 10
-13.477312650439901
 20
85.855473180622823
 30
0.0
 11
-6.4890764613230658
 21
85.855473180622823
 31
0.0
  0
LINE
  8
DETAIL
  6
CONTINUOUS
 62
     5
 10
-23.460507206321381
 20
85.855473180622823
 30
0.0
 11
-16.472271017204552
 21
85.855473180622823
 31
0.0
  0
LINE
  8
DETAIL
  6
CONTINUOUS
 62
     5
 10
-33.443701762202643
 20
85.855473180622823
 30
0.0
 11
-26.455465573085799
 21
85.855473180622823
 31
0.0
  0
LINE
  8
DETAIL
  6
CONTINUOUS
 62
     5
 10
-43.426896318083891
 20
85.855473180622823
 30
0.0
 11
-36.438660128967292
 21
85.855473180622823
 31
0.0
  0
LINE
  8
DETAIL
  6
CONTINUOUS
 62
     5
 10
-53.410090873965373
 20
85.855473180622823
 30
0.0
 11
-46.421854684848313
 21
85.855473180622823
 31
0.0
  0
LINE
  8
DETAIL
  6
CONTINUOUS
 62
     5
 10
-63.393285429846628
 20
85.855473180622823
 30
0.0
 11
-56.405049240729802
 21
85.855473180622823
 31
0.0
  0
LINE
  8
DETAIL
  6
CONTINUOUS
 62
     5
 10
-73.37647998572811
 20
85.855473180622823
 30
0.0
 11
-66.38824379661105
 21
85.855473180622823
 31
0.0
  0
LINE
  8
DETAIL
  6
CONTINUOUS
 62
     5
 10
-83.359674541609365
 20
85.855473180622823
 30
0.0
 11
-76.371438352492305
 21
85.855473180622823
 31
0.0
  0
LINE
  8
DETAIL
  6
CONTINUOUS
 62
     5
 10
-93.342869097490848
 20
85.855473180622823
 30
0.0
 11
-86.354632908373787
 21
85.855473180622823
 31
0.0
  0
LINE
  8
DETAIL
  6
CONTINUOUS
 62
     5
 10
-103.3260636533721
 20
85.855473180622823
 30
0.0
 11
-96.337827464255042
 21
85.855473180622823
 31
0.0
  0
LINE
  8
DETAIL
  6
CONTINUOUS
 62
     5
 10
-113.3092582092534
 20
85.855473180622823
 30
0.0
 11
-106.3210220201365
 21
85.855473180622823
 31
0.0
  0
LINE
  8
DETAIL
  6
CONTINUOUS
 62
     5
 10
-123.2924527651351
 20
85.855473180622823
 30
0.0
 11
-116.30421657601779
 21
85.855473180622823
 31
0.0
  0
LINE
  8
DETAIL
  6
CONTINUOUS
 62
     5
 10
-133.27564732101609
 20
85.855473180622823
 30
0.0
 11
-126.2874111318993
 21
85.855473180622823
 31
0.0
  0
LINE
  8
DETAIL
  6
CONTINUOUS
 62
     5
 10
-143.25884187689761
 20
85.855473180622823
 30
0.0
 11
-136.27060568778049
 21
85.855473180622823
 31
0.0
  0
LINE
  8
DETAIL
  6
CONTINUOUS
 62
     5
 10
93.342869097490393
 20
-85.855473180536137
 30
0.0
 11
93.342869097490393
 21
85.855473180622823
 31
0.0
  0
LINE
  8
DETAIL
  6
CONTINUOUS
 62
     5
 10
93.342869097490393
 20
-143.25884187685381
 30
0.0
 11
93.342869097490393
 21
-87.852112091712399
 31
0.0
  0
LINE
  8
DETAIL
  6
CONTINUOUS
 62
     5
 10
86.35463290837356
 20
-85.855473180536137
 30
0.0
 11
86.35463290837356
 21
85.855473180622823
 31
0.0
  0
LINE
  8
DETAIL
  6
CONTINUOUS
 62
     5
 10
86.35463290837356
 20
-143.25884187685381
 30
0.0
 11
86.35463290837356
 21
-87.852112091712399
 31
0.0
  0
LINE
  8
DETAIL
  6
CONTINUOUS
 62
     5
 10
83.359674541609138
 20
-85.855473180536137
 30
0.0
 11
83.359674541609138
 21
85.855473180622823
 31
0.0
  0
LINE
  8
DETAIL
  6
CONTINUOUS
 62
     5
 10
83.359674541609138
 20
-143.25884187685381
 30
0.0
 11
83.359674541609138
 21
-87.852112091712399
 31
0.0
  0
LINE
  8
DETAIL
  6
CONTINUOUS
 62
     5
 10
76.371438352492078
 20
87.852112091799086
 30
0.0
 11
76.371438352492078
 21
143.25884187694061
 31
0.0
  0
LINE
  8
DETAIL
  6
CONTINUOUS
 62
     5
 10
76.371438352492078
 20
-85.855473180536137
 30
0.0
 11
76.371438352492078
 21
85.855473180622823
 31
0.0
  0
LINE
  8
DETAIL
  6
CONTINUOUS
 62
     5
 10
76.371438352492078
 20
-143.25884187685381
 30
0.0
 11
76.371438352492078
 21
-87.852112091712399
 31
0.0
  0
LINE
  8
DETAIL
  6
CONTINUOUS
 62
     5
 10
76.196519599866633
 20
144.82821877642041
 30
0.0
 11
76.196519599866633
 21
-144.8282187763335
 31
0.0
  0
LINE
  8
DETAIL
  6
CONTINUOUS
 62
     5
 10
-39.932778223525467
 20
174.2067450001727
 30
0.0
 11
-39.070798046223437
 21
172.99997275206979
 31
0.0
  0
LINE
  8
DETAIL
  6
CONTINUOUS
 62
     5
 10
75.697663946801413
 20
-145.81565330092499
 30
0.0
 11
75.697663946801413
 21
145.81565330101171
 31
0.0
  0
LINE
  8
DETAIL
  6
CONTINUOUS
 62
     5
 10
74.050254391418548
 20
145.81565330101171
 30
0.0
 11
74.050254391418548
 21
-145.81565330092499
 31
0.0
  0
LINE
  8
DETAIL
  6
CONTINUOUS
 62
     5
 10
73.551398738153466
 20
144.82821877642041
 30
0.0
 11
73.551398738153466
 21
-144.8282187763335
 31
0.0
  0
LINE
  8
DETAIL
  6
CONTINUOUS
 62
     5
 10
73.376479985727883
 20
87.852112091799086
 30
0.0
 11
73.376479985727883
 21
143.25884187694061
 31
0.0
  0
LINE
  8
DETAIL
  6
CONTINUOUS
 62
     5
 10
73.376479985727883
 20
-85.855473180536137
 30
0.0
 11
73.376479985727883
 21
85.855473180622823
 31
0.0
  0
LINE
  8
DETAIL
  6
CONTINUOUS
 62
     5
 10
73.376479985727883
 20
-143.25884187685381
 30
0.0
 11
73.376479985727883
 21
-87.852112091712399
 31
0.0
  0
LINE
  8
DETAIL
  6
CONTINUOUS
 62
     5
 10
66.388243796610823
 20
87.852112091799086
 30
0.0
 11
66.388243796610823
 21
143.25884187694061
 31
0.0
  0
LINE
  8
DETAIL
  6
CONTINUOUS
 62
     5
 10
66.388243796610823
 20
-85.855473180536137
 30
0.0
 11
66.388243796610823
 21
85.855473180622823
 31
0.0
  0
LINE
  8
DETAIL
  6
CONTINUOUS
 62
     5
 10
66.388243796610823
 20
-143.25884187685381
 30
0.0
 11
66.388243796610823
 21
-87.852112091712399
 31
0.0
  0
LINE
  8
DETAIL
  6
CONTINUOUS
 62
     5
 10
66.213325043985378
 20
144.82821877642041
 30
0.0
 11
66.213325043985378
 21
-144.8282187763335
 31
0.0
  0
LINE
  8
DETAIL
  6
CONTINUOUS
 62
     5
 10
65.714469390920158
 20
-145.81565330092499
 30
0.0
 11
65.714469390920158
 21
145.81565330101171
 31
0.0
  0
LINE
  8
DETAIL
  6
CONTINUOUS
 62
     5
 10
64.067059835537066
 20
145.81565330101171
 30
0.0
 11
64.067059835537066
 21
-145.81565330092499
 31
0.0
  0
LINE
  8
DETAIL
  6
CONTINUOUS
 62
     5
 10
63.568204182271977
 20
144.82821877642041
 30
0.0
 11
63.568204182271977
 21
-144.8282187763335
 31
0.0
  0
LINE
  8
DETAIL
  6
CONTINUOUS
 62
     5
 10
63.393285429846401
 20
87.852112091799086
 30
0.0
 11
63.393285429846401
 21
143.25884187694061
 31
0.0
  0
LINE
  8
DETAIL
  6
CONTINUOUS
 62
     5
 10
63.393285429846401
 20
-85.855473180536137
 30
0.0
 11
63.393285429846401
 21
85.855473180622823
 31
0.0
  0
LINE
  8
DETAIL
  6
CONTINUOUS
 62
     5
 10
63.393285429846401
 20
-143.25884187685381
 30
0.0
 11
63.393285429846401
 21
-87.852112091712399
 31
0.0
  0
LINE
  8
DETAIL
  6
CONTINUOUS
 62
     5
 10
56.405049240729568
 20
87.852112091799086
 30
0.0
 11
56.405049240729568
 21
143.25884187694061
 31
0.0
  0
LINE
  8
DETAIL
  6
CONTINUOUS
 62
     5
 10
56.405049240729568
 20
-85.855473180536137
 30
0.0
 11
56.405049240729568
 21
85.855473180622823
 31
0.0
  0
LINE
  8
DETAIL
  6
CONTINUOUS
 62
     5
 10
56.405049240729568
 20
-143.25884187685381
 30
0.0
 11
56.405049240729568
 21
-87.852112091712399
 31
0.0
  0
LINE
  8
DETAIL
  6
CONTINUOUS
 62
     5
 10
56.230130488104123
 20
144.82821877642041
 30
0.0
 11
56.230130488104123
 21
-144.8282187763335
 31
0.0
  0
LINE
  8
DETAIL
  6
CONTINUOUS
 62
     5
 10
55.731274835038903
 20
-145.81565330092499
 30
0.0
 11
55.731274835038903
 21
145.81565330101171
 31
0.0
  0
LINE
  8
DETAIL
  6
CONTINUOUS
 62
     5
 10
54.083865279655811
 20
145.81565330101171
 30
0.0
 11
54.083865279655811
 21
-145.81565330092499
 31
0.0
  0
LINE
  8
DETAIL
  6
CONTINUOUS
 62
     5
 10
53.585009626390729
 20
144.82821877642041
 30
0.0
 11
53.585009626390729
 21
-144.8282187763335
 31
0.0
  0
LINE
  8
DETAIL
  6
CONTINUOUS
 62
     5
 10
53.410090873965153
 20
87.852112091799086
 30
0.0
 11
53.410090873965153
 21
143.25884187694061
 31
0.0
  0
LINE
  8
DETAIL
  6
CONTINUOUS
 62
     5
 10
53.410090873965153
 20
-85.855473180536137
 30
0.0
 11
53.410090873965153
 21
85.855473180622823
 31
0.0
  0
LINE
  8
DETAIL
  6
CONTINUOUS
 62
     5
 10
53.410090873965153
 20
-143.25884187685381
 30
0.0
 11
53.410090873965153
 21
-87.852112091712399
 31
0.0
  0
LINE
  8
DETAIL
  6
CONTINUOUS
 62
     5
 10
46.421854684848093
 20
87.852112091799086
 30
0.0
 11
46.421854684848093
 21
143.25884187694061
 31
0.0
  0
LINE
  8
DETAIL
  6
CONTINUOUS
 62
     5
 10
46.421854684848093
 20
-85.855473180536137
 30
0.0
 11
46.421854684848093
 21
85.855473180622823
 31
0.0
  0
LINE
  8
DETAIL
  6
CONTINUOUS
 62
     5
 10
46.421854684848093
 20
-143.25884187685381
 30
0.0
 11
46.421854684848093
 21
-87.852112091712399
 31
0.0
  0
LINE
  8
DETAIL
  6
CONTINUOUS
 62
     5
 10
46.246935932222641
 20
144.82821877642041
 30
0.0
 11
46.246935932222641
 21
-144.8282187763335
 31
0.0
  0
LINE
  8
DETAIL
  6
CONTINUOUS
 62
     5
 10
45.748080279157421
 20
-145.81565330092499
 30
0.0
 11
45.748080279157421
 21
145.81565330101171
 31
0.0
  0
LINE
  8
DETAIL
  6
CONTINUOUS
 62
     5
 10
44.100670723774563
 20
145.81565330101171
 30
0.0
 11
44.100670723774563
 21
-145.81565330092499
 31
0.0
  0
LINE
  8
DETAIL
  6
CONTINUOUS
 62
     5
 10
43.601815070509467
 20
144.82821877642041
 30
0.0
 11
43.601815070509467
 21
-144.8282187763335
 31
0.0
  0
LINE
  8
DETAIL
  6
CONTINUOUS
 62
     5
 10
43.426896318083891
 20
87.852112091799086
 30
0.0
 11
43.426896318083891
 21
143.25884187694061
 31
0.0
  0
LINE
  8
DETAIL
  6
CONTINUOUS
 62
     5
 10
43.426896318083891
 20
-85.855473180536137
 30
0.0
 11
43.426896318083891
 21
85.855473180622823
 31
0.0
  0
LINE
  8
DETAIL
  6
CONTINUOUS
 62
     5
 10
43.426896318083891
 20
-143.25884187685381
 30
0.0
 11
43.426896318083891
 21
-87.852112091712399
 31
0.0
  0
LINE
  8
DETAIL
  6
CONTINUOUS
 62
     5
 10
36.438660128966831
 20
87.852112091799086
 30
0.0
 11
36.438660128966831
 21
143.25884187694061
 31
0.0
  0
LINE
  8
DETAIL
  6
CONTINUOUS
 62
     5
 10
36.438660128966831
 20
-85.855473180536137
 30
0.0
 11
36.438660128966831
 21
85.855473180622823
 31
0.0
  0
LINE
  8
DETAIL
  6
CONTINUOUS
 62
     5
 10
36.438660128966831
 20
-143.25884187685381
 30
0.0
 11
36.438660128966831
 21
-87.852112091712399
 31
0.0
  0
LINE
  8
DETAIL
  6
CONTINUOUS
 62
     5
 10
36.263741376341613
 20
144.82821877642041
 30
0.0
 11
36.263741376341613
 21
-144.8282187763335
 31
0.0
  0
LINE
  8
DETAIL
  6
CONTINUOUS
 62
     5
 10
35.764885723276173
 20
-145.81565330092499
 30
0.0
 11
35.764885723276173
 21
145.81565330101171
 31
0.0
  0
LINE
  8
DETAIL
  6
CONTINUOUS
 62
     5
 10
34.117476167893301
 20
145.81565330101171
 30
0.0
 11
34.117476167893301
 21
-145.81565330092499
 31
0.0
  0
LINE
  8
DETAIL
  6
CONTINUOUS
 62
     5
 10
33.618620514627992
 20
144.82821877642041
 30
0.0
 11
33.618620514627992
 21
-144.8282187763335
 31
0.0
  0
LINE
  8
DETAIL
  6
CONTINUOUS
 62
     5
 10
33.443701762202409
 20
87.852112091799086
 30
0.0
 11
33.443701762202409
 21
143.25884187694061
 31
0.0
  0
LINE
  8
DETAIL
  6
CONTINUOUS
 62
     5
 10
33.443701762202409
 20
-85.855473180536137
 30
0.0
 11
33.443701762202409
 21
85.855473180622823
 31
0.0
  0
LINE
  8
DETAIL
  6
CONTINUOUS
 62
     5
 10
33.443701762202409
 20
-143.25884187685381
 30
0.0
 11
33.443701762202409
 21
-87.852112091712399
 31
0.0
  0
LINE
  8
DETAIL
  6
CONTINUOUS
 62
     5
 10
31.946222578820201
 20
-172.73866282416361
 30
0.0
 11
31.946222578820201
 21
-178.69918255023251
 31
0.0
  0
LINE
  8
DETAIL
  6
CONTINUOUS
 62
     5
 10
31.4470628510262
 20
-172.72994995876931
 30
0.0
 11
31.4470628510262
 21
-178.69918255023251
 31
0.0
  0
LINE
  8
DETAIL
  6
CONTINUOUS
 62
     5
 10
29.949583667643989
 20
-180.69582146140891
 30
0.0
 11
29.949583667643989
 21
-180.19666173361469
 31
0.0
  0
LINE
  8
DETAIL
  6
CONTINUOUS
 62
     5
 10
26.455465573085579
 20
87.852112091799086
 30
0.0
 11
26.455465573085579
 21
143.25884187694061
 31
0.0
  0
LINE
  8
DETAIL
  6
CONTINUOUS
 62
     5
 10
26.455465573085579
 20
-85.855473180536137
 30
0.0
 11
26.455465573085579
 21
85.855473180622823
 31
0.0
  0
LINE
  8
DETAIL
  6
CONTINUOUS
 62
     5
 10
26.455465573085579
 20
-143.25884187685381
 30
0.0
 11
26.455465573085579
 21
-87.852112091712399
 31
0.0
  0
LINE
  8
DETAIL
  6
CONTINUOUS
 62
     5
 10
26.2805468204599
 20
144.82821877642041
 30
0.0
 11
26.2805468204599
 21
-144.8282187763335
 31
0.0
  0
LINE
  8
DETAIL
  6
CONTINUOUS
 62
     5
 10
25.78169116739468
 20
-145.81565330092499
 30
0.0
 11
25.78169116739468
 21
145.81565330101171
 31
0.0
  0
LINE
  8
DETAIL
  6
CONTINUOUS
 62
     5
 10
24.134281612011819
 20
145.81565330101171
 30
0.0
 11
24.134281612011819
 21
-145.81565330092499
 31
0.0
  0
LINE
  8
DETAIL
  6
CONTINUOUS
 62
     5
 10
23.63542595874674
 20
144.82821877642041
 30
0.0
 11
23.63542595874674
 21
-144.8282187763335
 31
0.0
  0
LINE
  8
DETAIL
  6
CONTINUOUS
 62
     5
 10
23.46050720632115
 20
87.852112091799086
 30
0.0
 11
23.46050720632115
 21
143.25884187694061
 31
0.0
  0
LINE
  8
DETAIL
  6
CONTINUOUS
 62
     5
 10
23.46050720632115
 20
-85.855473180536137
 30
0.0
 11
23.46050720632115
 21
85.855473180622823
 31
0.0
  0
LINE
  8
DETAIL
  6
CONTINUOUS
 62
     5
 10
23.46050720632115
 20
-143.25884187685381
 30
0.0
 11
23.46050720632115
 21
-87.852112091712399
 31
0.0
  0
LINE
  8
DETAIL
  6
CONTINUOUS
 62
     5
 10
16.47227101720409
 20
87.852112091799086
 30
0.0
 11
16.47227101720409
 21
143.25884187694061
 31
0.0
  0
LINE
  8
DETAIL
  6
CONTINUOUS
 62
     5
 10
16.47227101720409
 20
-85.855473180536137
 30
0.0
 11
16.47227101720409
 21
85.855473180622823
 31
0.0
  0
LINE
  8
DETAIL
  6
CONTINUOUS
 62
     5
 10
16.47227101720409
 20
-143.25884187685381
 30
0.0
 11
16.47227101720409
 21
-87.852112091712399
 31
0.0
  0
LINE
  8
DETAIL
  6
CONTINUOUS
 62
     5
 10
16.297352264578649
 20
144.82821877642041
 30
0.0
 11
16.297352264578649
 21
-144.8282187763335
 31
0.0
  0
LINE
  8
DETAIL
  6
CONTINUOUS
 62
     5
 10
15.79849661151343
 20
-145.81565330092499
 30
0.0
 11
15.79849661151343
 21
145.81565330101171
 31
0.0
  0
LINE
  8
DETAIL
  6
CONTINUOUS
 62
     5
 10
14.15108705613056
 20
145.81565330101171
 30
0.0
 11
14.15108705613056
 21
-145.81565330092499
 31
0.0
  0
LINE
  8
DETAIL
  6
CONTINUOUS
 62
     5
 10
13.65223140286548
 20
144.82821877642041
 30
0.0
 11
13.65223140286548
 21
-144.8282187763335
 31
0.0
  0
LINE
  8
DETAIL
  6
CONTINUOUS
 62
     5
 10
13.47731265043967
 20
87.852112091799086
 30
0.0
 11
13.47731265043967
 21
143.25884187694061
 31
0.0
  0
LINE
  8
DETAIL
  6
CONTINUOUS
 62
     5
 10
13.47731265043967
 20
-85.855473180536137
 30
0.0
 11
13.47731265043967
 21
85.855473180622823
 31
0.0
  0
LINE
  8
DETAIL
  6
CONTINUOUS
 62
     5
 10
13.47731265043967
 20
-143.25884187685381
 30
0.0
 11
13.47731265043967
 21
-87.852112091712399
 31
0.0
  0
LINE
  8
DETAIL
  6
CONTINUOUS
 62
     5
 10
6.4890764613228384
 20
87.852112091799086
 30
0.0
 11
6.4890764613228384
 21
143.25884187694061
 31
0.0
  0
LINE
  8
DETAIL
  6
CONTINUOUS
 62
     5
 10
6.4890764613228384
 20
-85.855473180536137
 30
0.0
 11
6.4890764613228384
 21
85.855473180622823
 31
0.0
  0
LINE
  8
DETAIL
  6
CONTINUOUS
 62
     5
 10
6.4890764613228384
 20
-143.25884187685381
 30
0.0
 11
6.4890764613228384
 21
-87.852112091712399
 31
0.0
  0
LINE
  8
DETAIL
  6
CONTINUOUS
 62
     5
 10
6.3141577086971674
 20
144.82821877642041
 30
0.0
 11
6.3141577086971674
 21
-144.8282187763335
 31
0.0
  0
LINE
  8
DETAIL
  6
CONTINUOUS
 62
     5
 10
5.8153020556319461
 20
-145.81565330092499
 30
0.0
 11
5.8153020556319461
 21
145.81565330101171
 31
0.0
  0
LINE
  8
DETAIL
  6
CONTINUOUS
 62
     5
 10
4.1678925002490814
 20
145.81565330101171
 30
0.0
 11
4.1678925002490814
 21
-145.81565330092499
 31
0.0
  0
LINE
  8
DETAIL
  6
CONTINUOUS
 62
     5
 10
3.6690368469842269
 20
144.82821877642041
 30
0.0
 11
3.6690368469842269
 21
-144.8282187763335
 31
0.0
  0
LINE
  8
DETAIL
  6
CONTINUOUS
 62
     5
 10
3.494118094558416
 20
87.852112091799086
 30
0.0
 11
3.494118094558416
 21
143.25884187694061
 31
0.0
  0
LINE
  8
DETAIL
  6
CONTINUOUS
 62
     5
 10
3.494118094558416
 20
-85.855473180536137
 30
0.0
 11
3.494118094558416
 21
85.855473180622823
 31
0.0
  0
LINE
  8
DETAIL
  6
CONTINUOUS
 62
     5
 10
3.494118094558416
 20
-143.25884187685381
 30
0.0
 11
3.494118094558416
 21
-87.852112091712399
 31
0.0
  0
LINE
  8
DETAIL
  6
CONTINUOUS
 62
     5
 10
-170.47192506065269
 20
172.46825987418251
 30
0.0
 11
-171.00356191411771
 21
172.9998967276473
 31
0.0
  0
LINE
  8
DETAIL
  6
CONTINUOUS
 62
     5
 10
172.46825987413879
 20
-170.47192506060941
 30
0.0
 11
172.99989672740389
 21
-171.00356191407431
 31
0.0
  0
LINE
  8
DETAIL
  6
CONTINUOUS
 62
     5
 10
169.88650423269999
 20
-168.88833682591351
 30
0.0
 11
169.95502238786031
 21
-168.95685498127361
 31
0.0
  0
LINE
  8
DETAIL
  6
CONTINUOUS
 62
     5
 10
-169.88650423270019
 20
168.8883368260002
 30
0.0
 11
-169.95502238806009
 21
168.95685498136041
 31
0.0
  0
LINE
  8
DETAIL
  6
CONTINUOUS
 62
     5
 10
-172.46825987413899
 20
170.47192506069629
 30
0.0
 11
-172.99989672760401
 21
171.003561914161
 31
0.0
  0
LINE
  8
DETAIL
  6
CONTINUOUS
 62
     5
 10
170.47192506065269
 20
-172.46825987409571
 30
0.0
 11
171.00356191411771
 21
-172.99989672736081
 31
0.0
  0
LINE
  8
DETAIL
  6
CONTINUOUS
 62
     5
 10
-168.88833682595711
 20
169.88650423274331
 30
0.0
 11
-168.95689914357561
 21
169.9550223881034
 31
0.0
  0
LINE
  8
DETAIL
  6
CONTINUOUS
 62
     5
 10
168.88833682595649
 20
-169.88650423265659
 30
0.0
 11
168.9568991435751
 21
-169.95502238781711
 31
0.0
  0
LINE
  8
DETAIL
  6
CONTINUOUS
 62
     5
 10
-170.47192506065269
 20
-172.46825987409571
 30
0.0
 11
-171.00356191411771
 21
-172.99989672736081
 31
0.0
  0
LINE
  8
DETAIL
  6
CONTINUOUS
 62
     5
 10
-172.46825987413899
 20
-170.47192506060941
 30
0.0
 11
-172.99989672760401
 21
-171.00356191407431
 31
0.0
  0
LINE
  8
DETAIL
  6
CONTINUOUS
 62
     5
 10
-3.4941180945586439
 20
87.852112091799086
 30
0.0
 11
-3.4941180945586439
 21
143.25884187694061
 31
0.0
  0
LINE
  8
DETAIL
  6
CONTINUOUS
 62
     5
 10
-3.4941180945586439
 20
-85.855473180536137
 30
0.0
 11
-3.4941180945586439
 21
85.855473180622823
 31
0.0
  0
LINE
  8
DETAIL
  6
CONTINUOUS
 62
     5
 10
-3.4941180945586439
 20
-143.25884187685381
 30
0.0
 11
-3.4941180945586439
 21
-87.852112091712399
 31
0.0
  0
LINE
  8
DETAIL
  6
CONTINUOUS
 62
     5
 10
-3.669036847184088
 20
-144.8282187763335
 30
0.0
 11
-3.669036847184088
 21
144.82821877642041
 31
0.0
  0
LINE
  8
DETAIL
  6
CONTINUOUS
 62
     5
 10
-4.1678925002493088
 20
-145.81565330092499
 30
0.0
 11
-4.1678925002493088
 21
145.81565330101171
 31
0.0
  0
LINE
  8
DETAIL
  6
CONTINUOUS
 62
     5
 10
-5.8153020556321744
 20
145.81565330101171
 30
0.0
 11
-5.8153020556321744
 21
-145.81565330092499
 31
0.0
  0
LINE
  8
DETAIL
  6
CONTINUOUS
 62
     5
 10
-6.3141577088972554
 20
-144.8282187763335
 30
0.0
 11
-6.3141577088972554
 21
144.82821877642041
 31
0.0
  0
LINE
  8
DETAIL
  6
CONTINUOUS
 62
     5
 10
-6.4890764613230658
 20
87.852112091799086
 30
0.0
 11
-6.4890764613230658
 21
143.25884187694061
 31
0.0
  0
LINE
  8
DETAIL
  6
CONTINUOUS
 62
     5
 10
-6.4890764613230658
 20
-85.855473180536137
 30
0.0
 11
-6.4890764613230658
 21
85.855473180622823
 31
0.0
  0
LINE
  8
DETAIL
  6
CONTINUOUS
 62
     5
 10
-6.4890764613230658
 20
-143.25884187685381
 30
0.0
 11
-6.4890764613230658
 21
-87.852112091712399
 31
0.0
  0
LINE
  8
DETAIL
  6
CONTINUOUS
 62
     5
 10
-13.477312650439901
 20
87.852112091799086
 30
0.0
 11
-13.477312650439901
 21
143.25884187694061
 31
0.0
  0
LINE
  8
DETAIL
  6
CONTINUOUS
 62
     5
 10
-13.477312650439901
 20
-85.855473180536137
 30
0.0
 11
-13.477312650439901
 21
85.855473180622823
 31
0.0
  0
LINE
  8
DETAIL
  6
CONTINUOUS
 62
     5
 10
-13.477312650439901
 20
-143.25884187685381
 30
0.0
 11
-13.477312650439901
 21
-87.852112091712399
 31
0.0
  0
LINE
  8
DETAIL
  6
CONTINUOUS
 62
     5
 10
-13.65223140306534
 20
-144.8282187763335
 30
0.0
 11
-13.65223140306534
 21
144.82821877642041
 31
0.0
  0
LINE
  8
DETAIL
  6
CONTINUOUS
 62
     5
 10
-14.15108705613056
 20
-145.81565330092499
 30
0.0
 11
-14.15108705613056
 21
145.81565330101171
 31
0.0
  0
LINE
  8
DETAIL
  6
CONTINUOUS
 62
     5
 10
-15.798496611513659
 20
145.81565330101171
 30
0.0
 11
-15.798496611513659
 21
-145.81565330092499
 31
0.0
  0
LINE
  8
DETAIL
  6
CONTINUOUS
 62
     5
 10
-16.29735226477851
 20
-144.8282187763335
 30
0.0
 11
-16.29735226477851
 21
144.82821877642041
 31
0.0
  0
LINE
  8
DETAIL
  6
CONTINUOUS
 62
     5
 10
-16.472271017204552
 20
87.852112091799086
 30
0.0
 11
-16.472271017204552
 21
143.25884187694061
 31
0.0
  0
LINE
  8
DETAIL
  6
CONTINUOUS
 62
     5
 10
-16.472271017204552
 20
-85.855473180536137
 30
0.0
 11
-16.472271017204552
 21
85.855473180622823
 31
0.0
  0
LINE
  8
DETAIL
  6
CONTINUOUS
 62
     5
 10
-16.472271017204552
 20
-143.25884187685381
 30
0.0
 11
-16.472271017204552
 21
-87.852112091712399
 31
0.0
  0
LINE
  8
DETAIL
  6
CONTINUOUS
 62
     5
 10
-23.460507206321381
 20
87.852112091799086
 30
0.0
 11
-23.460507206321381
 21
143.25884187694061
 31
0.0
  0
LINE
  8
DETAIL
  6
CONTINUOUS
 62
     5
 10
-23.460507206321381
 20
-85.855473180536137
 30
0.0
 11
-23.460507206321381
 21
85.855473180622823
 31
0.0
  0
LINE
  8
DETAIL
  6
CONTINUOUS
 62
     5
 10
-23.460507206321381
 20
-143.25884187685381
 30
0.0
 11
-23.460507206321381
 21
-87.852112091712399
 31
0.0
  0
LINE
  8
DETAIL
  6
CONTINUOUS
 62
     5
 10
-23.635425958946829
 20
-144.8282187763335
 30
0.0
 11
-23.635425958946829
 21
144.82821877642041
 31
0.0
  0
LINE
  8
DETAIL
  6
CONTINUOUS
 62
     5
 10
-24.13428161201205
 20
-145.81565330092499
 30
0.0
 11
-24.13428161201205
 21
145.81565330101171
 31
0.0
  0
LINE
  8
DETAIL
  6
CONTINUOUS
 62
     5
 10
-25.781691167394911
 20
145.81565330101171
 30
0.0
 11
-25.781691167394911
 21
-145.81565330092499
 31
0.0
  0
LINE
  8
DETAIL
  6
CONTINUOUS
 62
     5
 10
-26.280546820659769
 20
-144.8282187763335
 30
0.0
 11
-26.280546820659769
 21
144.82821877642041
 31
0.0
  0
LINE
  8
DETAIL
  6
CONTINUOUS
 62
     5
 10
-26.455465573085799
 20
87.852112091799086
 30
0.0
 11
-26.455465573085799
 21
143.25884187694061
 31
0.0
  0
LINE
  8
DETAIL
  6
CONTINUOUS
 62
     5
 10
-26.455465573085799
 20
-85.855473180536137
 30
0.0
 11
-26.455465573085799
 21
85.855473180622823
 31
0.0
  0
LINE
  8
DETAIL
  6
CONTINUOUS
 62
     5
 10
-26.455465573085799
 20
-143.25884187685381
 30
0.0
 11
-26.455465573085799
 21
-87.852112091712399
 31
0.0
  0
LINE
  8
DETAIL
  6
CONTINUOUS
 62
     5
 10
-29.94958366764422
 20
-180.69582146140891
 30
0.0
 11
-29.94958366764422
 21
-180.19666173361469
 31
0.0
  0
LINE
  8
DETAIL
  6
CONTINUOUS
 62
     5
 10
-31.447062851026661
 20
-178.69918255023251
 30
0.0
 11
-31.447062851026661
 21
-172.72994995876931
 31
0.0
  0
LINE
  8
DETAIL
  6
CONTINUOUS
 62
     5
 10
-31.946222578820429
 20
-178.69918255023251
 30
0.0
 11
-31.946222578820429
 21
-172.73866282416361
 31
0.0
  0
LINE
  8
DETAIL
  6
CONTINUOUS
 62
     5
 10
-33.443701762202643
 20
87.852112091799086
 30
0.0
 11
-33.443701762202643
 21
143.25884187694061
 31
0.0
  0
LINE
  8
DETAIL
  6
CONTINUOUS
 62
     5
 10
-33.443701762202643
 20
-85.855473180536137
 30
0.0
 11
-33.443701762202643
 21
85.855473180622823
 31
0.0
  0
LINE
  8
DETAIL
  6
CONTINUOUS
 62
     5
 10
-33.443701762202643
 20
-143.25884187685381
 30
0.0
 11
-33.443701762202643
 21
-87.852112091712399
 31
0.0
  0
LINE
  8
DETAIL
  6
CONTINUOUS
 62
     5
 10
-33.618620514828081
 20
-144.8282187763335
 30
0.0
 11
-33.618620514828081
 21
144.82821877642041
 31
0.0
  0
LINE
  8
DETAIL
  6
CONTINUOUS
 62
     5
 10
-34.117476167893301
 20
-145.81565330092499
 30
0.0
 11
-34.117476167893301
 21
145.81565330101171
 31
0.0
  0
LINE
  8
DETAIL
  6
CONTINUOUS
 62
     5
 10
-35.764885723276173
 20
145.81565330101171
 30
0.0
 11
-35.764885723276173
 21
-145.81565330092499
 31
0.0
  0
LINE
  8
DETAIL
  6
CONTINUOUS
 62
     5
 10
-36.263741376541468
 20
-144.8282187763335
 30
0.0
 11
-36.263741376541468
 21
144.82821877642041
 31
0.0
  0
LINE
  8
DETAIL
  6
CONTINUOUS
 62
     5
 10
-36.438660128967292
 20
87.852112091799086
 30
0.0
 11
-36.438660128967292
 21
143.25884187694061
 31
0.0
  0
LINE
  8
DETAIL
  6
CONTINUOUS
 62
     5
 10
-36.438660128967292
 20
-85.855473180536137
 30
0.0
 11
-36.438660128967292
 21
85.855473180622823
 31
0.0
  0
LINE
  8
DETAIL
  6
CONTINUOUS
 62
     5
 10
-36.438660128967292
 20
-143.25884187685381
 30
0.0
 11
-36.438660128967292
 21
-87.852112091712399
 31
0.0
  0
LINE
  8
DETAIL
  6
CONTINUOUS
 62
     5
 10
-43.426896318083891
 20
87.852112091799086
 30
0.0
 11
-43.426896318083891
 21
143.25884187694061
 31
0.0
  0
LINE
  8
DETAIL
  6
CONTINUOUS
 62
     5
 10
-43.426896318083891
 20
-85.855473180536137
 30
0.0
 11
-43.426896318083891
 21
85.855473180622823
 31
0.0
  0
LINE
  8
DETAIL
  6
CONTINUOUS
 62
     5
 10
-43.426896318083891
 20
-143.25884187685381
 30
0.0
 11
-43.426896318083891
 21
-87.852112091712399
 31
0.0
  0
LINE
  8
DETAIL
  6
CONTINUOUS
 62
     5
 10
-43.601815070709563
 20
-144.8282187763335
 30
0.0
 11
-43.601815070709563
 21
144.82821877642041
 31
0.0
  0
LINE
  8
DETAIL
  6
CONTINUOUS
 62
     5
 10
-44.100670723774783
 20
-145.81565330092499
 30
0.0
 11
-44.100670723774783
 21
145.81565330101171
 31
0.0
  0
LINE
  8
DETAIL
  6
CONTINUOUS
 62
     5
 10
-45.748080279157648
 20
145.81565330101171
 30
0.0
 11
-45.748080279157648
 21
-145.81565330092499
 31
0.0
  0
LINE
  8
DETAIL
  6
CONTINUOUS
 62
     5
 10
-46.24693593242273
 20
-144.8282187763335
 30
0.0
 11
-46.24693593242273
 21
144.82821877642041
 31
0.0
  0
LINE
  8
DETAIL
  6
CONTINUOUS
 62
     5
 10
-46.421854684848313
 20
87.852112091799086
 30
0.0
 11
-46.421854684848313
 21
143.25884187694061
 31
0.0
  0
LINE
  8
DETAIL
  6
CONTINUOUS
 62
     5
 10
-46.421854684848313
 20
-85.855473180536137
 30
0.0
 11
-46.421854684848313
 21
85.855473180622823
 31
0.0
  0
LINE
  8
DETAIL
  6
CONTINUOUS
 62
     5
 10
-46.421854684848313
 20
-143.25884187685381
 30
0.0
 11
-46.421854684848313
 21
-87.852112091712399
 31
0.0
  0
LINE
  8
DETAIL
  6
CONTINUOUS
 62
     5
 10
-53.410090873965373
 20
87.852112091799086
 30
0.0
 11
-53.410090873965373
 21
143.25884187694061
 31
0.0
  0
LINE
  8
DETAIL
  6
CONTINUOUS
 62
     5
 10
-53.410090873965373
 20
-85.855473180536137
 30
0.0
 11
-53.410090873965373
 21
85.855473180622823
 31
0.0
  0
LINE
  8
DETAIL
  6
CONTINUOUS
 62
     5
 10
-53.410090873965373
 20
-143.25884187685381
 30
0.0
 11
-53.410090873965373
 21
-87.852112091712399
 31
0.0
  0
LINE
  8
DETAIL
  6
CONTINUOUS
 62
     5
 10
-53.585009626590818
 20
-144.8282187763335
 30
0.0
 11
-53.585009626590818
 21
144.82821877642041
 31
0.0
  0
LINE
  8
DETAIL
  6
CONTINUOUS
 62
     5
 10
-54.083865279656038
 20
-145.81565330092499
 30
0.0
 11
-54.083865279656038
 21
145.81565330101171
 31
0.0
  0
LINE
  8
DETAIL
  6
CONTINUOUS
 62
     5
 10
-55.731274835038903
 20
145.81565330101171
 30
0.0
 11
-55.731274835038903
 21
-145.81565330092499
 31
0.0
  0
LINE
  8
DETAIL
  6
CONTINUOUS
 62
     5
 10
-56.230130488303978
 20
-144.8282187763335
 30
0.0
 11
-56.230130488303978
 21
144.82821877642041
 31
0.0
  0
LINE
  8
DETAIL
  6
CONTINUOUS
 62
     5
 10
-56.405049240729802
 20
87.852112091799086
 30
0.0
 11
-56.405049240729802
 21
143.25884187694061
 31
0.0
  0
LINE
  8
DETAIL
  6
CONTINUOUS
 62
     5
 10
-56.405049240729802
 20
-85.855473180536137
 30
0.0
 11
-56.405049240729802
 21
85.855473180622823
 31
0.0
  0
LINE
  8
DETAIL
  6
CONTINUOUS
 62
     5
 10
-56.405049240729802
 20
-143.25884187685381
 30
0.0
 11
-56.405049240729802
 21
-87.852112091712399
 31
0.0
  0
LINE
  8
DETAIL
  6
CONTINUOUS
 62
     5
 10
-63.393285429846628
 20
87.852112091799086
 30
0.0
 11
-63.393285429846628
 21
143.25884187694061
 31
0.0
  0
LINE
  8
DETAIL
  6
CONTINUOUS
 62
     5
 10
-63.393285429846628
 20
-85.855473180536137
 30
0.0
 11
-63.393285429846628
 21
85.855473180622823
 31
0.0
  0
LINE
  8
DETAIL
  6
CONTINUOUS
 62
     5
 10
-63.393285429846628
 20
-143.25884187685381
 30
0.0
 11
-63.393285429846628
 21
-87.852112091712399
 31
0.0
  0
LINE
  8
DETAIL
  6
CONTINUOUS
 62
     5
 10
-63.568204182472073
 20
-144.8282187763335
 30
0.0
 11
-63.568204182472073
 21
144.82821877642041
 31
0.0
  0
LINE
  8
DETAIL
  6
CONTINUOUS
 62
     5
 10
-64.06705983553752
 20
-145.81565330092499
 30
0.0
 11
-64.06705983553752
 21
145.81565330101171
 31
0.0
  0
LINE
  8
DETAIL
  6
CONTINUOUS
 62
     5
 10
-65.714469390920613
 20
145.81565330101171
 30
0.0
 11
-65.714469390920613
 21
-145.81565330092499
 31
0.0
  0
LINE
  8
DETAIL
  6
CONTINUOUS
 62
     5
 10
-66.21332504418524
 20
-144.8282187763335
 30
0.0
 11
-66.21332504418524
 21
144.82821877642041
 31
0.0
  0
LINE
  8
DETAIL
  6
CONTINUOUS
 62
     5
 10
-66.38824379661105
 20
87.852112091799086
 30
0.0
 11
-66.38824379661105
 21
143.25884187694061
 31
0.0
  0
LINE
  8
DETAIL
  6
CONTINUOUS
 62
     5
 10
-66.38824379661105
 20
-85.855473180536137
 30
0.0
 11
-66.38824379661105
 21
85.855473180622823
 31
0.0
  0
LINE
  8
DETAIL
  6
CONTINUOUS
 62
     5
 10
-66.38824379661105
 20
-143.25884187685381
 30
0.0
 11
-66.38824379661105
 21
-87.852112091712399
 31
0.0
  0
LINE
  8
DETAIL
  6
CONTINUOUS
 62
     5
 10
-73.37647998572811
 20
87.852112091799086
 30
0.0
 11
-73.37647998572811
 21
143.25884187694061
 31
0.0
  0
LINE
  8
DETAIL
  6
CONTINUOUS
 62
     5
 10
-73.37647998572811
 20
-85.855473180536137
 30
0.0
 11
-73.37647998572811
 21
85.855473180622823
 31
0.0
  0
LINE
  8
DETAIL
  6
CONTINUOUS
 62
     5
 10
-73.37647998572811
 20
-143.25884187685381
 30
0.0
 11
-73.37647998572811
 21
-87.852112091712399
 31
0.0
  0
LINE
  8
DETAIL
  6
CONTINUOUS
 62
     5
 10
-73.551398738353555
 20
-144.8282187763335
 30
0.0
 11
-73.551398738353555
 21
144.82821877642041
 31
0.0
  0
LINE
  8
DETAIL
  6
CONTINUOUS
 62
     5
 10
-74.050254391418775
 20
-145.81565330092499
 30
0.0
 11
-74.050254391418775
 21
145.81565330101171
 31
0.0
  0
LINE
  8
DETAIL
  6
CONTINUOUS
 62
     5
 10
-75.69766394680164
 20
145.81565330101171
 30
0.0
 11
-75.69766394680164
 21
-145.81565330092499
 31
0.0
  0
LINE
  8
DETAIL
  6
CONTINUOUS
 62
     5
 10
-76.196519600066722
 20
-144.8282187763335
 30
0.0
 11
-76.196519600066722
 21
144.82821877642041
 31
0.0
  0
LINE
  8
DETAIL
  6
CONTINUOUS
 62
     5
 10
-76.371438352492305
 20
87.852112091799086
 30
0.0
 11
-76.371438352492305
 21
143.25884187694061
 31
0.0
  0
LINE
  8
DETAIL
  6
CONTINUOUS
 62
     5
 10
-76.371438352492305
 20
-85.855473180536137
 30
0.0
 11
-76.371438352492305
 21
85.855473180622823
 31
0.0
  0
LINE
  8
DETAIL
  6
CONTINUOUS
 62
     5
 10
-76.371438352492305
 20
-143.25884187685381
 30
0.0
 11
-76.371438352492305
 21
-87.852112091712399
 31
0.0
  0
LINE
  8
DETAIL
  6
CONTINUOUS
 62
     5
 10
-81.862195358226927
 20
142.7596821491465
 30
0.0
 11
-81.862195358226927
 21
143.25884187694061
 31
0.0
  0
LINE
  8
DETAIL
  6
CONTINUOUS
 62
     5
 10
-83.359674541609365
 20
87.852112091799086
 30
0.0
 11
-83.359674541609365
 21
143.25884187694061
 31
0.0
  0
LINE
  8
DETAIL
  6
CONTINUOUS
 62
     5
 10
-83.359674541609365
 20
-85.855473180536137
 30
0.0
 11
-83.359674541609365
 21
85.855473180622823
 31
0.0
  0
LINE
  8
DETAIL
  6
CONTINUOUS
 62
     5
 10
-83.359674541609365
 20
-143.25884187685381
 30
0.0
 11
-83.359674541609365
 21
-87.852112091712399
 31
0.0
  0
LINE
  8
DETAIL
  6
CONTINUOUS
 62
     5
 10
-83.534593294235037
 20
-144.8282187763335
 30
0.0
 11
-83.534593294235037
 21
144.82821877642041
 31
0.0
  0
LINE
  8
DETAIL
  6
CONTINUOUS
 62
     5
 10
-84.033448947299803
 20
-145.81565330092499
 30
0.0
 11
-84.033448947299803
 21
145.81565330101171
 31
0.0
  0
LINE
  8
DETAIL
  6
CONTINUOUS
 62
     5
 10
-85.680858502683122
 20
145.81565330101171
 30
0.0
 11
-85.680858502683122
 21
-145.81565330092499
 31
0.0
  0
LINE
  8
DETAIL
  6
CONTINUOUS
 62
     5
 10
-86.179714155947977
 20
-144.8282187763335
 30
0.0
 11
-86.179714155947977
 21
144.82821877642041
 31
0.0
  0
LINE
  8
DETAIL
  6
CONTINUOUS
 62
     5
 10
-86.354632908373787
 20
87.852112091799086
 30
0.0
 11
-86.354632908373787
 21
143.25884187694061
 31
0.0
  0
LINE
  8
DETAIL
  6
CONTINUOUS
 62
     5
 10
-86.354632908373787
 20
-85.855473180536137
 30
0.0
 11
-86.354632908373787
 21
85.855473180622823
 31
0.0
  0
LINE
  8
DETAIL
  6
CONTINUOUS
 62
     5
 10
-86.354632908373787
 20
-143.25884187685381
 30
0.0
 11
-86.354632908373787
 21
-87.852112091712399
 31
0.0
  0
LINE
  8
DETAIL
  6
CONTINUOUS
 62
     5
 10
-87.852112091755998
 20
143.25884187694061
 30
0.0
 11
-87.852112091755998
 21
142.7596821491465
 31
0.0
  0
LINE
  8
DETAIL
  6
CONTINUOUS
 62
     5
 10
-93.342869097490848
 20
87.852112091799086
 30
0.0
 11
-93.342869097490848
 21
143.25884187694061
 31
0.0
  0
LINE
  8
DETAIL
  6
CONTINUOUS
 62
     5
 10
-93.342869097490848
 20
-85.855473180536137
 30
0.0
 11
-93.342869097490848
 21
85.855473180622823
 31
0.0
  0
LINE
  8
DETAIL
  6
CONTINUOUS
 62
     5
 10
-93.342869097490848
 20
-143.25884187685381
 30
0.0
 11
-93.342869097490848
 21
-87.852112091712399
 31
0.0
  0
LINE
  8
DETAIL
  6
CONTINUOUS
 62
     5
 10
-93.51778785011652
 20
-144.8282187763335
 30
0.0
 11
-93.51778785011652
 21
144.82821877642041
 31
0.0
  0
LINE
  8
DETAIL
  6
CONTINUOUS
 62
     5
 10
-94.016643503181058
 20
-145.81565330092499
 30
0.0
 11
-94.016643503181058
 21
145.81565330101171
 31
0.0
  0
LINE
  8
DETAIL
  6
CONTINUOUS
 62
     5
 10
-95.664053058564377
 20
145.81565330101171
 30
0.0
 11
-95.664053058564377
 21
-145.81565330092499
 31
0.0
  0
LINE
  8
DETAIL
  6
CONTINUOUS
 62
     5
 10
-96.162908711829232
 20
-144.8282187763335
 30
0.0
 11
-96.162908711829232
 21
144.82821877642041
 31
0.0
  0
LINE
  8
DETAIL
  6
CONTINUOUS
 62
     5
 10
-96.337827464255042
 20
87.852112091799086
 30
0.0
 11
-96.337827464255042
 21
143.25884187694061
 31
0.0
  0
LINE
  8
DETAIL
  6
CONTINUOUS
 62
     5
 10
-96.337827464255042
 20
-85.855473180536137
 30
0.0
 11
-96.337827464255042
 21
85.855473180622823
 31
0.0
  0
LINE
  8
DETAIL
  6
CONTINUOUS
 62
     5
 10
-96.337827464255042
 20
-143.25884187685381
 30
0.0
 11
-96.337827464255042
 21
-87.852112091712399
 31
0.0
  0
LINE
  8
DETAIL
  6
CONTINUOUS
 62
     5
 10
-103.3260636533721
 20
87.852112091799086
 30
0.0
 11
-103.3260636533721
 21
143.25884187694061
 31
0.0
  0
LINE
  8
DETAIL
  6
CONTINUOUS
 62
     5
 10
-103.3260636533721
 20
-85.855473180536137
 30
0.0
 11
-103.3260636533721
 21
85.855473180622823
 31
0.0
  0
LINE
  8
DETAIL
  6
CONTINUOUS
 62
     5
 10
-103.3260636533721
 20
-143.25884187685381
 30
0.0
 11
-103.3260636533721
 21
-87.852112091712399
 31
0.0
  0
LINE
  8
DETAIL
  6
CONTINUOUS
 62
     5
 10
-103.5009824059975
 20
-144.8282187763335
 30
0.0
 11
-103.5009824059975
 21
144.82821877642041
 31
0.0
  0
LINE
  8
DETAIL
  6
CONTINUOUS
 62
     5
 10
-103.9998380590625
 20
-145.81565330092499
 30
0.0
 11
-103.9998380590625
 21
145.81565330101171
 31
0.0
  0
LINE
  8
DETAIL
  6
CONTINUOUS
 62
     5
 10
-105.6472476144456
 20
145.81565330101171
 30
0.0
 11
-105.6472476144456
 21
-145.81565330092499
 31
0.0
  0
LINE
  8
DETAIL
  6
CONTINUOUS
 62
     5
 10
-106.1461032677107
 20
-144.8282187763335
 30
0.0
 11
-106.1461032677107
 21
144.82821877642041
 31
0.0
  0
LINE
  8
DETAIL
  6
CONTINUOUS
 62
     5
 10
-106.3210220201365
 20
87.852112091799086
 30
0.0
 11
-106.3210220201365
 21
143.25884187694061
 31
0.0
  0
LINE
  8
DETAIL
  6
CONTINUOUS
 62
     5
 10
-106.3210220201365
 20
-85.855473180536137
 30
0.0
 11
-106.3210220201365
 21
85.855473180622823
 31
0.0
  0
LINE
  8
DETAIL
  6
CONTINUOUS
 62
     5
 10
-106.3210220201365
 20
-143.25884187685381
 30
0.0
 11
-106.3210220201365
 21
-87.852112091712399
 31
0.0
  0
LINE
  8
DETAIL
  6
CONTINUOUS
 62
     5
 10
-113.3092582092534
 20
87.852112091799086
 30
0.0
 11
-113.3092582092534
 21
143.25884187694061
 31
0.0
  0
LINE
  8
DETAIL
  6
CONTINUOUS
 62
     5
 10
-113.3092582092534
 20
-85.855473180536137
 30
0.0
 11
-113.3092582092534
 21
85.855473180622823
 31
0.0
  0
LINE
  8
DETAIL
  6
CONTINUOUS
 62
     5
 10
-113.3092582092534
 20
-143.25884187685381
 30
0.0
 11
-113.3092582092534
 21
-87.852112091712399
 31
0.0
  0
LINE
  8
DETAIL
  6
CONTINUOUS
 62
     5
 10
-113.4841769618793
 20
-144.8282187763335
 30
0.0
 11
-113.4841769618793
 21
144.82821877642041
 31
0.0
  0
LINE
  8
DETAIL
  6
CONTINUOUS
 62
     5
 10
-113.98303261494399
 20
-145.81565330092499
 30
0.0
 11
-113.98303261494399
 21
145.81565330101171
 31
0.0
  0
LINE
  8
DETAIL
  6
CONTINUOUS
 62
     5
 10
-115.6304421703273
 20
145.81565330101171
 30
0.0
 11
-115.6304421703273
 21
-145.81565330092499
 31
0.0
  0
LINE
  8
DETAIL
  6
CONTINUOUS
 62
     5
 10
-116.129297823592
 20
-144.8282187763335
 30
0.0
 11
-116.129297823592
 21
144.82821877642041
 31
0.0
  0
LINE
  8
DETAIL
  6
CONTINUOUS
 62
     5
 10
-116.30421657601779
 20
87.852112091799086
 30
0.0
 11
-116.30421657601779
 21
143.25884187694061
 31
0.0
  0
LINE
  8
DETAIL
  6
CONTINUOUS
 62
     5
 10
-116.30421657601779
 20
-85.855473180536137
 30
0.0
 11
-116.30421657601779
 21
85.855473180622823
 31
0.0
  0
LINE
  8
DETAIL
  6
CONTINUOUS
 62
     5
 10
-116.30421657601779
 20
-143.25884187685381
 30
0.0
 11
-116.30421657601779
 21
-87.852112091712399
 31
0.0
  0
LINE
  8
DETAIL
  6
CONTINUOUS
 62
     5
 10
-123.2924527651351
 20
87.852112091799086
 30
0.0
 11
-123.2924527651351
 21
143.25884187694061
 31
0.0
  0
LINE
  8
DETAIL
  6
CONTINUOUS
 62
     5
 10
-123.2924527651351
 20
-85.855473180536137
 30
0.0
 11
-123.2924527651351
 21
85.855473180622823
 31
0.0
  0
LINE
  8
DETAIL
  6
CONTINUOUS
 62
     5
 10
-123.2924527651351
 20
-143.25884187685381
 30
0.0
 11
-123.2924527651351
 21
-87.852112091712399
 31
0.0
  0
LINE
  8
DETAIL
  6
CONTINUOUS
 62
     5
 10
-123.4673715177605
 20
-144.8282187763335
 30
0.0
 11
-123.4673715177605
 21
144.82821877642041
 31
0.0
  0
LINE
  8
DETAIL
  6
CONTINUOUS
 62
     5
 10
-123.96622717082511
 20
-145.81565330092499
 30
0.0
 11
-123.96622717082511
 21
145.81565330101171
 31
0.0
  0
LINE
  8
DETAIL
  6
CONTINUOUS
 62
     5
 10
-125.6136367262081
 20
145.81565330101171
 30
0.0
 11
-125.6136367262081
 21
-145.81565330092499
 31
0.0
  0
LINE
  8
DETAIL
  6
CONTINUOUS
 62
     5
 10
-126.11249237947349
 20
-144.8282187763335
 30
0.0
 11
-126.11249237947349
 21
144.82821877642041
 31
0.0
  0
LINE
  8
DETAIL
  6
CONTINUOUS
 62
     5
 10
-16.472271017204552
 20
-132.54025097242089
 30
0.0
 11
-18.025303657375389
 21
-132.54025097242089
 31
0.0
  0
LINE
  8
DETAIL
  6
CONTINUOUS
 62
     5
 10
-6.4890764613230658
 20
-132.54025097242089
 30
0.0
 11
-13.477312650439901
 21
-132.54025097242089
 31
0.0
  0
LINE
  8
DETAIL
  6
CONTINUOUS
 62
     5
 10
3.494118094558416
 20
-132.54025097242089
 30
0.0
 11
-3.4941180945586439
 21
-132.54025097242089
 31
0.0
  0
LINE
  8
DETAIL
  6
CONTINUOUS
 62
     5
 10
13.47731265043967
 20
-132.54025097242089
 30
0.0
 11
6.4890764613228384
 21
-132.54025097242089
 31
0.0
  0
LINE
  8
DETAIL
  6
CONTINUOUS
 62
     5
 10
18.025303657375161
 20
-132.54025097242089
 30
0.0
 11
16.47227101720409
 21
-132.54025097242089
 31
0.0
  0
LINE
  8
DETAIL
  6
CONTINUOUS
 62
     5
 10
-40.794758400827497
 20
172.99997275206979
 30
0.0
 11
-39.932778223525467
 21
174.2067450001727
 31
0.0
  0
LINE
  8
DETAIL
  6
CONTINUOUS
 62
     5
 10
-126.2874111318993
 20
87.852112091799086
 30
0.0
 11
-126.2874111318993
 21
143.25884187694061
 31
0.0
  0
LINE
  8
DETAIL
  6
CONTINUOUS
 62
     5
 10
-126.2874111318993
 20
-85.855473180536137
 30
0.0
 11
-126.2874111318993
 21
85.855473180622823
 31
0.0
  0
LINE
  8
DETAIL
  6
CONTINUOUS
 62
     5
 10
-126.2874111318993
 20
-143.25884187685381
 30
0.0
 11
-126.2874111318993
 21
-87.852112091712399
 31
0.0
  0
LINE
  8
DETAIL
  6
CONTINUOUS
 62
     5
 10
-133.27564732101609
 20
87.852112091799086
 30
0.0
 11
-133.27564732101609
 21
143.25884187694061
 31
0.0
  0
LINE
  8
DETAIL
  6
CONTINUOUS
 62
     5
 10
-133.27564732101609
 20
-85.855473180536137
 30
0.0
 11
-133.27564732101609
 21
85.855473180622823
 31
0.0
  0
LINE
  8
DETAIL
  6
CONTINUOUS
 62
     5
 10
-133.27564732101609
 20
-143.25884187685381
 30
0.0
 11
-133.27564732101609
 21
-87.852112091712399
 31
0.0
  0
LINE
  8
DETAIL
  6
CONTINUOUS
 62
     5
 10
-133.45056607364151
 20
-144.8282187763335
 30
0.0
 11
-133.45056607364151
 21
144.82821877642041
 31
0.0
  0
LINE
  8
DETAIL
  6
CONTINUOUS
 62
     5
 10
-133.9494217267063
 20
-145.81565330092499
 30
0.0
 11
-133.9494217267063
 21
145.81565330101171
 31
0.0
  0
LINE
  8
DETAIL
  6
CONTINUOUS
 62
     5
 10
-135.5968312820896
 20
145.81565330101171
 30
0.0
 11
-135.5968312820896
 21
-145.81565330092499
 31
0.0
  0
LINE
  8
DETAIL
  6
CONTINUOUS
 62
     5
 10
-136.27060568778049
 20
-85.855473180536137
 30
0.0
 11
-136.27060568778049
 21
85.855473180622823
 31
0.0
  0
LINE
  8
DETAIL
  6
CONTINUOUS
 62
     5
 10
-136.27060568778049
 20
-143.25884187685381
 30
0.0
 11
-136.27060568778049
 21
-87.852112091712399
 31
0.0
  0
LINE
  8
DETAIL
  6
CONTINUOUS
 62
     5
 10
31.9488347387794
 20
-172.76567143298979
 30
0.0
 11
32.652082053160029
 21
-172.99989672736081
 31
0.0
  0
LINE
  8
DETAIL
  6
CONTINUOUS
 62
     5
 10
-172.82430757571109
 20
-126.1465855329222
 30
0.0
 11
-172.99440462566241
 21
-127.1616744352698
 31
0.0
  0
LINE
  8
DETAIL
  6
CONTINUOUS
 62
     5
 10
32.652082053160029
 20
-172.99989672736081
 30
0.0
 11
32.652545489623442
 21
-172.99995177209999
 31
0.0
  0
LINE
  8
DETAIL
  6
CONTINUOUS
 62
     5
 10
154.68959964338109
 20
-168.82549232008259
 30
0.0
 11
169.12985216106699
 21
-168.88833682591351
 31
0.0
  0
LINE
  8
DETAIL
  6
CONTINUOUS
 62
     5
 10
154.56702142728909
 20
-169.82417734548031
 30
0.0
 11
168.88833682595649
 21
-169.88650423265659
 31
0.0
  0
LINE
  8
DETAIL
  6
CONTINUOUS
 62
     5
 10
-154.6895996433814
 20
-168.82600993893689
 30
0.0
 11
154.68959964338109
 21
-168.82600993893689
 31
0.0
  0
LINE
  8
DETAIL
  6
CONTINUOUS
 62
     5
 10
169.12985216106699
 20
-168.88833682591351
 30
0.0
 11
169.88650423269999
 21
-168.88833682591351
 31
0.0
  0
LINE
  8
DETAIL
  6
CONTINUOUS
 62
     5
 10
-169.88650423270019
 20
-168.88833682591351
 30
0.0
 11
-169.12985216106719
 21
-168.88833682591351
 31
0.0
  0
LINE
  8
DETAIL
  6
CONTINUOUS
 62
     5
 10
-154.56702142748901
 20
-169.82417734548031
 30
0.0
 11
154.56702142728909
 21
-169.82417734548031
 31
0.0
  0
LINE
  8
DETAIL
  6
CONTINUOUS
 62
     5
 10
168.95685498131681
 20
-169.9550984124393
 30
0.0
 11
-168.95685498131709
 21
-169.9550984124393
 31
0.0
  0
LINE
  8
DETAIL
  6
CONTINUOUS
 62
     5
 10
171.47009246739589
 20
-170.47192506060941
 30
0.0
 11
172.46825987413879
 21
-170.47192506060941
 31
0.0
  0
LINE
  8
DETAIL
  6
CONTINUOUS
 62
     5
 10
-171.4700924673964
 20
-170.47192506060941
 30
0.0
 11
-172.46825987413899
 21
-170.47192506060941
 31
0.0
  0
LINE
  8
DETAIL
  6
CONTINUOUS
 62
     5
 10
-170.47192506065269
 20
-171.4700924673526
 30
0.0
 11
170.47192506065269
 21
-171.4700924673526
 31
0.0
  0
LINE
  8
DETAIL
  6
CONTINUOUS
 62
     5
 10
-170.47192506065269
 20
-172.46825987409571
 30
0.0
 11
170.47192506065269
 21
-172.46825987409571
 31
0.0
  0
LINE
  8
DETAIL
  6
CONTINUOUS
 62
     5
 10
31.4470628510262
 20
-172.72994995876931
 30
0.0
 11
-31.447062851026661
 21
-172.72994995876931
 31
0.0
  0
LINE
  8
DETAIL
  6
CONTINUOUS
 62
     5
 10
171.00356191411771
 20
-172.99997275198299
 30
0.0
 11
32.652535546960728
 21
-172.99997275198299
 31
0.0
  0
LINE
  8
DETAIL
  6
CONTINUOUS
 62
     5
 10
-31.946222578820429
 20
-178.69918255023251
 30
0.0
 11
-31.447062851026661
 21
-178.69918255023251
 31
0.0
  0
LINE
  8
DETAIL
  6
CONTINUOUS
 62
     5
 10
31.946222578820201
 20
-178.69918255023251
 30
0.0
 11
31.4470628510262
 21
-178.69918255023251
 31
0.0
  0
LINE
  8
DETAIL
  6
CONTINUOUS
 62
     5
 10
29.949583667643989
 20
-180.19666173361469
 30
0.0
 11
-29.94958366764422
 21
-180.19666173361469
 31
0.0
  0
LINE
  8
DETAIL
  6
CONTINUOUS
 62
     5
 10
29.949583667643989
 20
-180.69582146140891
 30
0.0
 11
-29.94958366764422
 21
-180.69582146140891
 31
0.0
  0
LINE
  8
DETAIL
  6
CONTINUOUS
 62
     5
 10
-169.12985216106719
 20
-168.88833682591351
 30
0.0
 11
-154.6895996433814
 21
-168.82549232008259
 31
0.0
  0
LINE
  8
DETAIL
  6
CONTINUOUS
 62
     5
 10
-168.88833682595711
 20
-169.88650423265659
 30
0.0
 11
-154.56702142748901
 21
-169.82417734548031
 31
0.0
  0
LINE
  8
DETAIL
  6
CONTINUOUS
 62
     5
 10
172.99990390012979
 20
-171.01933304517181
 30
0.0
 11
172.99989672740389
 21
-127.2383042047546
 31
0.0
  0
LINE
  8
DETAIL
  6
CONTINUOUS
 62
     5
 10
-32.652082053160257
 20
-172.99989672736081
 30
0.0
 11
-32.652543835208462
 21
-172.999957966273
 31
0.0
  0
LINE
  8
DETAIL
  6
CONTINUOUS
 62
     5
 10
-172.99989672760401
 20
-109.3652753835712
 30
0.0
 11
-172.99997365790111
 21
-109.3730247319244
 31
0.0
  0
LINE
  8
DETAIL
  6
CONTINUOUS
 62
     5
 10
-169.12985216106719
 20
168.8883368260002
 30
0.0
 11
-169.12985216106719
 21
-168.88833682591351
 31
0.0
  0
LINE
  8
DETAIL
  6
CONTINUOUS
 62
     5
 10
-169.88650423270019
 20
168.8883368260002
 30
0.0
 11
-169.88650423270019
 21
-168.88833682591351
 31
0.0
  0
LINE
  8
DETAIL
  6
CONTINUOUS
 62
     5
 10
-169.95509841248281
 20
-168.95685498127361
 30
0.0
 11
-169.95509841248281
 21
168.95685498136041
 31
0.0
  0
LINE
  8
DETAIL
  6
CONTINUOUS
 62
     5
 10
-170.47192506065269
 20
171.4700924674394
 30
0.0
 11
-170.47192506085281
 21
172.46825987418251
 31
0.0
  0
LINE
  8
DETAIL
  6
CONTINUOUS
 62
     5
 10
-170.47192506065269
 20
-171.4700924673526
 30
0.0
 11
-170.47192506065269
 21
-172.46825987409571
 31
0.0
  0
LINE
  8
DETAIL
  6
CONTINUOUS
 62
     5
 10
-171.4700924673964
 20
170.47192506069629
 30
0.0
 11
-171.4700924673964
 21
-170.47192506060941
 31
0.0
  0
LINE
  8
DETAIL
  6
CONTINUOUS
 62
     5
 10
-172.46825987413899
 20
170.47192506069629
 30
0.0
 11
-172.46825987413899
 21
-170.47192506060941
 31
0.0
  0
LINE
  8
DETAIL
  6
CONTINUOUS
 62
     5
 10
-172.82431086277759
 20
-110.4551058255994
 30
0.0
 11
-172.82430757571109
 21
-126.1465855329222
 31
0.0
  0
LINE
  8
DETAIL
  6
CONTINUOUS
 62
     5
 10
-172.99997275202671
 20
-171.00356191407431
 30
0.0
 11
-172.99997275202671
 21
-127.2286131989359
 31
0.0
  0
LINE
  8
DETAIL
  6
CONTINUOUS
 62
     5
 10
-172.99997365790111
 20
-127.22868624217681
 30
0.0
 11
-172.99989672760401
 21
-127.2364355907297
 31
0.0
  0
LINE
  8
DETAIL
  6
CONTINUOUS
 62
     5
 10
-172.99440462566241
 20
-109.4400365390312
 30
0.0
 11
-172.82431086277759
 21
-110.4551058255994
 31
0.0
  0
LINE
  8
DETAIL
  6
CONTINUOUS
 62
     5
 10
-214.97566565702999
 20
-206.979181553936
 30
0.0
 11
-216.65912550408319
 21
-206.55444122420261
 31
0.0
  0
LINE
  8
DETAIL
  6
CONTINUOUS
 62
     5
 10
-216.65912550408319
 20
-206.55444122420261
 30
0.0
 11
-218.19997180976571
 21
-206.48313445352159
 31
0.0
  0
LINE
  8
DETAIL
  6
CONTINUOUS
 62
     5
 10
-218.19997180976571
 20
-206.48313445352159
 30
0.0
 11
-218.19997180976571
 21
-206.48313445352159
 31
0.0
  0
LINE
  8
DETAIL
  6
CONTINUOUS
 62
     5
 10
-218.19997180976571
 20
-206.48313445352159
 30
0.0
 11
-219.50519574274679
 21
-206.93577743266249
 31
0.0
  0
LINE
  8
DETAIL
  6
CONTINUOUS
 62
     5
 10
-219.50519574274679
 20
-206.93577743266249
 30
0.0
 11
-220.68020731186559
 21
-207.35121687926809
 31
0.0
  0
LINE
  8
DETAIL
  6
CONTINUOUS
 62
     5
 10
-220.68020731186559
 20
-207.35121687926809
 30
0.0
 11
-220.68020731186559
 21
-207.35121687926809
 31
0.0
  0
LINE
  8
DETAIL
  6
CONTINUOUS
 62
     5
 10
-220.68020731186559
 20
-207.35121687926809
 30
0.0
 11
-221.85211858660551
 21
-207.17450009973669
 31
0.0
  0
LINE
  8
DETAIL
  6
CONTINUOUS
 62
     5
 10
-221.85211858660551
 20
-207.17450009973669
 30
0.0
 11
-223.036431038855
 21
-206.60714622861781
 31
0.0
  0
LINE
  8
DETAIL
  6
CONTINUOUS
 62
     5
 10
-214.97566565702999
 20
-209.94504603942289
 30
0.0
 11
-216.65912550408319
 21
-209.52030570969001
 31
0.0
  0
LINE
  8
DETAIL
  6
CONTINUOUS
 62
     5
 10
-216.65912550408319
 20
-209.52030570969001
 30
0.0
 11
-218.19997180976571
 21
-209.44899893900879
 31
0.0
  0
LINE
  8
DETAIL
  6
CONTINUOUS
 62
     5
 10
-218.19997180976571
 20
-209.44899893900879
 30
0.0
 11
-218.19997180976571
 21
-209.44899893900879
 31
0.0
  0
LINE
  8
DETAIL
  6
CONTINUOUS
 62
     5
 10
-218.19997180976571
 20
-209.44899893900879
 30
0.0
 11
-219.50519574274679
 21
-209.90164191814969
 31
0.0
  0
LINE
  8
DETAIL
  6
CONTINUOUS
 62
     5
 10
-219.50519574274679
 20
-209.90164191814969
 30
0.0
 11
-220.68020731186559
 21
-210.3170813647553
 31
0.0
  0
LINE
  8
DETAIL
  6
CONTINUOUS
 62
     5
 10
-220.68020731186559
 20
-210.3170813647553
 30
0.0
 11
-220.68020731186559
 21
-210.3170813647553
 31
0.0
  0
LINE
  8
DETAIL
  6
CONTINUOUS
 62
     5
 10
-220.68020731186559
 20
-210.3170813647553
 30
0.0
 11
-221.85211858660551
 21
-210.14036458522389
 31
0.0
  0
LINE
  8
DETAIL
  6
CONTINUOUS
 62
     5
 10
-221.85211858660551
 20
-210.14036458522389
 30
0.0
 11
-223.036431038855
 21
-209.57301071410521
 31
0.0
  0
LINE
  8
DETAIL
  6
CONTINUOUS
 62
     5
 10
-210.24851438674051
 20
-262.0122016546535
 30
0.0
 11
-210.24851438674051
 21
-247.18287922721709
 31
0.0
  0
LINE
  8
DETAIL
  6
CONTINUOUS
 62
     5
 10
-226.06645830933991
 20
-259.16605681728959
 30
0.0
 11
-226.06645830933991
 21
-250.02902406458071
 31
0.0
  0
LINE
  8
DETAIL
  6
CONTINUOUS
 62
     5
 10
-224.21255234806381
 20
-248.0556315997998
 30
0.0
 11
-210.24851438674051
 21
-247.18287922721709
 31
0.0
  0
LINE
  8
DETAIL
  6
CONTINUOUS
 62
     5
 10
-194.3251702056009
 20
-251.48338273117349
 30
0.0
 11
-210.24851438674051
 21
-251.48338273117349
 31
0.0
  0
ARC
  8
DETAIL
  6
CONTINUOUS
 62
     5
 10
-199.37367793995421
 20
-254.59754044093529
 30
0.0
 40
5.9317289709743131
 50
328.33175674645992
 51
31.66824325354014
  0
LINE
  8
DETAIL
  6
CONTINUOUS
 62
     5
 10
-194.3251702056009
 20
-257.71169815069692
 30
0.0
 11
-194.3251702056009
 21
-251.48338273117349
 31
0.0
  0
ARC
  8
DETAIL
  6
CONTINUOUS
 62
     5
 10
-224.08921531901481
 20
-250.02902406458071
 30
0.0
 40
1.9772429903248869
 50
93.576334375004677
 51
180.0
  0
LINE
  8
DETAIL
  6
CONTINUOUS
 62
     5
 10
-224.08921531901481
 20
-247.23278021155591
 30
0.0
 11
-224.08921531901481
 21
-244.21701474173011
 31
0.0
  0
LINE
  8
DETAIL
  6
CONTINUOUS
 62
     5
 10
-214.20300036739101
 20
-246.37769524301169
 30
0.0
 11
-214.20300036739101
 21
-244.2170147417296
 31
0.0
  0
LINE
  8
DETAIL
  6
CONTINUOUS
 62
     5
 10
-216.6198089797347
 20
-227.41044932396869
 30
0.0
 11
-221.6724067066705
 21
-227.41044932396869
 31
0.0
  0
LINE
  8
DETAIL
  6
CONTINUOUS
 62
     5
 10
-224.08921531901481
 20
-244.21701474173011
 30
0.0
 11
-222.16333172435449
 21
-227.84700418711651
 31
0.0
  0
LINE
  8
DETAIL
  6
CONTINUOUS
 62
     5
 10
-214.20300036739101
 20
-244.2170147417296
 30
0.0
 11
-216.12888396205059
 21
-227.84700418711651
 31
0.0
  0
ARC
  8
DETAIL
  6
CONTINUOUS
 62
     5
 10
-225.07783681417729
 20
-247.23278021155591
 30
0.0
 40
0.9886214951626232
 50
289.47122063447921
 51
0.0
  0
ARC
  8
DETAIL
  6
CONTINUOUS
 62
     5
 10
-213.21437887222831
 20
-246.37769524301169
 30
0.0
 40
0.9886214951623676
 50
180.0
 51
273.57633437499169
  0
ARC
  8
DETAIL
  6
CONTINUOUS
 62
     5
 10
-221.6724067066705
 20
-227.90476007154999
 30
0.0
 40
0.4943107475811838
 50
90.0
 51
173.29016319222771
  0
ARC
  8
DETAIL
  6
CONTINUOUS
 62
     5
 10
-216.6198089797347
 20
-227.90476007154999
 30
0.0
 40
0.4943107475813634
 50
6.7098368077722972
 51
90.0
  0
LINE
  8
DETAIL
  6
CONTINUOUS
 62
     5
 10
-215.94762653532479
 20
-229.3876923142935
 30
0.0
 11
-219.1461078432026
 21
-229.3876923142935
 31
0.0
  0
LINE
  8
DETAIL
  6
CONTINUOUS
 62
     5
 10
-215.77316391853111
 20
-230.87062455703719
 30
0.0
 11
-219.1461078432026
 21
-230.87062455703719
 31
0.0
  0
LINE
  8
DETAIL
  6
CONTINUOUS
 62
     5
 10
-219.1461078432026
 20
-232.35355679978079
 30
0.0
 11
-222.69351438466771
 21
-232.35355679978079
 31
0.0
  0
LINE
  8
DETAIL
  6
CONTINUOUS
 62
     5
 10
-219.1461078432026
 20
-233.83648904252439
 30
0.0
 11
-222.86797700146141
 21
-233.83648904252439
 31
0.0
  0
LINE
  8
DETAIL
  6
CONTINUOUS
 62
     5
 10
-215.24977606815099
 20
-235.31942128526799
 30
0.0
 11
-219.1461078432026
 21
-235.31942128526799
 31
0.0
  0
LINE
  8
DETAIL
  6
CONTINUOUS
 62
     5
 10
-215.07531345135769
 20
-236.80235352801159
 30
0.0
 11
-219.1461078432026
 21
-236.80235352801159
 31
0.0
  0
LINE
  8
DETAIL
  6
CONTINUOUS
 62
     5
 10
-219.1461078432026
 20
-238.28528577075539
 30
0.0
 11
-223.39136485184139
 21
-238.28528577075539
 31
0.0
  0
LINE
  8
DETAIL
  6
CONTINUOUS
 62
     5
 10
-219.1461078432026
 20
-239.76821801349899
 30
0.0
 11
-223.56582746863501
 21
-239.76821801349899
 31
0.0
  0
LINE
  8
DETAIL
  6
CONTINUOUS
 62
     5
 10
-214.55192560097731
 20
-241.25115025624251
 30
0.0
 11
-219.1461078432026
 21
-241.25115025624251
 31
0.0
  0
LINE
  8
DETAIL
  6
CONTINUOUS
 62
     5
 10
-214.37746298418389
 20
-242.73408249898611
 30
0.0
 11
-219.1461078432026
 21
-242.73408249898611
 31
0.0
  0
LINE
  8
DETAIL
  6
CONTINUOUS
 62
     5
 10
-220.1347293383651
 20
-239.76821801349899
 30
0.0
 11
-220.1347293383651
 21
-238.28528577075539
 31
0.0
  0
LINE
  8
DETAIL
  6
CONTINUOUS
 62
     5
 10
-218.15748634804049
 20
-242.73408249898611
 30
0.0
 11
-218.15748634804049
 21
-241.25115025624251
 31
0.0
  0
LINE
  8
DETAIL
  6
CONTINUOUS
 62
     5
 10
-220.1347293383651
 20
-233.83648904252439
 30
0.0
 11
-220.1347293383651
 21
-232.35355679978079
 31
0.0
  0
LINE
  8
DETAIL
  6
CONTINUOUS
 62
     5
 10
-218.15748634804049
 20
-230.87062455703719
 30
0.0
 11
-218.15748634804049
 21
-229.3876923142935
 31
0.0
  0
LINE
  8
DETAIL
  6
CONTINUOUS
 62
     5
 10
-218.15748634804049
 20
-236.80235352801159
 30
0.0
 11
-218.15748634804049
 21
-235.31942128526799
 31
0.0
  0
LINE
  8
DETAIL
  6
CONTINUOUS
 62
     5
 10
-210.24851438674051
 20
-250.1487437127042
 30
0.0
 11
-221.12335083352741
 21
-250.1487437127042
 31
0.0
  0
LINE
  8
DETAIL
  6
CONTINUOUS
 62
     5
 10
-221.12335083352741
 20
-259.04633716916612
 30
0.0
 11
-221.12335083352741
 21
-250.1487437127042
 31
0.0
  0
LINE
  8
DETAIL
  6
CONTINUOUS
 62
     5
 10
-220.6290400859464
 20
-227.41044932396869
 30
0.0
 11
-220.6290400859464
 21
-227.29859665502821
 31
0.0
  0
LINE
  8
DETAIL
  6
CONTINUOUS
 62
     5
 10
-217.6631756004588
 20
-227.41044932396869
 30
0.0
 11
-217.6631756004588
 21
-227.29859665502821
 31
0.0
  0
LINE
  8
DETAIL
  6
CONTINUOUS
 62
     5
 10
-210.24851438674051
 20
-262.0122016546535
 30
0.0
 11
-224.21255234806381
 21
-261.1394492820707
 31
0.0
  0
LINE
  8
DETAIL
  6
CONTINUOUS
 62
     5
 10
-194.3251702056009
 20
-257.71169815069692
 30
0.0
 11
-210.24851438674051
 21
-257.71169815069692
 31
0.0
  0
CIRCLE
  8
DETAIL
  6
CONTINUOUS
 62
     5
 10
-198.68164289334069
 20
-254.59754044093529
 30
0.0
 40
1.532363317501749
  0
CIRCLE
  8
DETAIL
  6
CONTINUOUS
 62
     5
 10
-198.68164289334069
 20
-254.59754044093529
 30
0.0
 40
1.927811915566765
  0
ARC
  8
DETAIL
  6
CONTINUOUS
 62
     5
 10
-224.08921531901481
 20
-259.16605681728959
 30
0.0
 40
1.9772429903249631
 50
180.0
 51
266.42366562499529
  0
LINE
  8
DETAIL
  6
CONTINUOUS
 62
     5
 10
-210.24851438674051
 20
-259.04633716916612
 30
0.0
 11
-221.12335083352741
 21
-259.04633716916612
 31
0.0
  0
LINE
  8
DETAIL
  6
CONTINUOUS
 62
     5
 10
-217.6631756004588
 20
-227.41044932396869
 30
0.0
 11
-217.6631756004588
 21
-209.41174439951351
 31
0.0
  0
LINE
  8
DETAIL
  6
CONTINUOUS
 62
     5
 10
-220.6290400859464
 20
-227.41044932396869
 30
0.0
 11
-220.6290400859464
 21
-210.30977530989651
 31
0.0
  0
LINE
  8
NOTE
  6
CONTINUOUS
 62
     4
 10
-197.67049465761241
 20
-119.7531651559802
 30
0.0
 11
-154.42433391507029
 21
-119.7531651559802
 31
0.0
  0
LINE
  8
DETAIL
  6
CONTINUOUS
 62
     5
 10
-189.2135219774257
 20
-117.45393314435159
 30
0.0
 11
-173.08428639706111
 21
-117.45393314435159
 31
0.0
  0
LINE
  8
DETAIL
  6
CONTINUOUS
 62
     5
 10
-189.2135219774257
 20
-122.39704062016359
 30
0.0
 11
-173.04820944244531
 21
-122.39704062016359
 31
0.0
  0
LINE
  8
DETAIL
  6
CONTINUOUS
 62
     5
 10
-189.2135219774257
 20
-117.45393314435159
 30
0.0
 11
-189.2135219774257
 21
-122.39704062016359
 31
0.0
  0
ARC
  8
DETAIL
  6
CONTINUOUS
 62
     5
 10
-208.07354709738371
 20
-130.99804762807679
 30
0.0
 40
12.2589065400142
 50
90.0
 51
180.0
  0
ARC
  8
DETAIL
  6
CONTINUOUS
 62
     5
 10
-208.07354747451279
 20
-130.99804762807679
 30
0.0
 40
9.8862149516241686
 50
90.0
 51
180.0
  0
LINE
  8
DETAIL
  6
CONTINUOUS
 62
     5
 10
-220.332453637398
 20
-207.2748542210455
 30
0.0
 11
-220.332453637398
 21
-130.99804762807679
 31
0.0
  0
LINE
  8
DETAIL
  6
CONTINUOUS
 62
     5
 10
-217.9597624261371
 20
-206.45552415871339
 30
0.0
 11
-217.9597624261371
 21
-130.99804762807679
 31
0.0
  0
LINE
  8
DETAIL
  6
CONTINUOUS
 62
     5
 10
-208.07354747451279
 20
-121.11183267645271
 30
0.0
 11
-189.2135219774257
 21
-121.11183267645271
 31
0.0
  0
LINE
  8
DETAIL
  6
CONTINUOUS
 62
     5
 10
-208.07354709738371
 20
-118.7391410880626
 30
0.0
 11
-189.2135219774257
 21
-118.7391410880626
 31
0.0
  0
LINE
  8
DETAIL
  6
CONTINUOUS
 62
     5
 10
143.2588418768978
 20
144.7947179623994
 30
0.0
 11
143.2588418768978
 21
-144.7947179623126
 31
0.0
  0
LINE
  8
DETAIL
  6
CONTINUOUS
 62
     5
 10
143.7580016046916
 20
145.81565330101179
 30
0.0
 11
143.7580016046916
 21
-145.81565330092499
 31
0.0
  0
LINE
  8
DETAIL
  6
CONTINUOUS
 62
     5
 10
143.2588418768978
 20
143.39327738757859
 30
0.0
 11
136.12174374920761
 21
143.39327738757859
 31
0.0
  0
LINE
  8
DETAIL
  6
CONTINUOUS
 62
     5
 10
143.2588418768978
 20
143.25884187694061
 30
0.0
 11
136.12947630582721
 21
143.25884187694061
 31
0.0
  0
LINE
  8
DETAIL
  6
CONTINUOUS
 62
     5
 10
136.09568693535471
 20
-144.8282187763335
 30
0.0
 11
136.09568693535471
 21
144.82821877642041
 31
0.0
  0
LINE
  8
DETAIL
  6
CONTINUOUS
 62
     5
 10
136.27060568778069
 20
87.852112091799086
 30
0.0
 11
136.27060568778069
 21
143.25884187694061
 31
0.0
  0
LINE
  8
DETAIL
  6
CONTINUOUS
 62
     5
 10
143.7580016046916
 20
145.81565330101171
 30
0.0
 11
135.59683128208991
 21
145.81565330101171
 31
0.0
  0
LINE
  8
DETAIL
  6
CONTINUOUS
 62
     5
 10
125.6136367262084
 20
145.81565330101171
 30
0.0
 11
133.9494217267065
 21
145.81565330101171
 31
0.0
  0
LINE
  8
DETAIL
  6
CONTINUOUS
 62
     5
 10
115.6304421703273
 20
145.81565330101171
 30
0.0
 11
123.96622717082531
 21
145.81565330101171
 31
0.0
  0
LINE
  8
DETAIL
  6
CONTINUOUS
 62
     5
 10
105.6472476144456
 20
145.81565330101171
 30
0.0
 11
113.98303261494399
 21
145.81565330101171
 31
0.0
  0
LINE
  8
DETAIL
  6
CONTINUOUS
 62
     5
 10
95.664053058564377
 20
145.81565330101171
 30
0.0
 11
103.9998380590625
 21
145.81565330101171
 31
0.0
  0
LINE
  8
DETAIL
  6
CONTINUOUS
 62
     5
 10
85.680858502683122
 20
145.81565330101171
 30
0.0
 11
94.016643503181058
 21
145.81565330101171
 31
0.0
  0
LINE
  8
DETAIL
  6
CONTINUOUS
 62
     5
 10
75.697663946801867
 20
145.81565330101171
 30
0.0
 11
84.033448947299803
 21
145.81565330101171
 31
0.0
  0
LINE
  8
DETAIL
  6
CONTINUOUS
 62
     5
 10
65.71446939092084
 20
145.81565330101171
 30
0.0
 11
74.050254391418775
 21
145.81565330101171
 31
0.0
  0
LINE
  8
DETAIL
  6
CONTINUOUS
 62
     5
 10
55.73127483503913
 20
145.81565330101171
 30
0.0
 11
64.067059835537748
 21
145.81565330101171
 31
0.0
  0
LINE
  8
DETAIL
  6
CONTINUOUS
 62
     5
 10
45.748080279157882
 20
145.81565330101171
 30
0.0
 11
54.083865279656273
 21
145.81565330101171
 31
0.0
  0
LINE
  8
DETAIL
  6
CONTINUOUS
 62
     5
 10
35.764885723276393
 20
145.81565330101171
 30
0.0
 11
44.100670723775011
 21
145.81565330101171
 31
0.0
  0
LINE
  8
DETAIL
  6
CONTINUOUS
 62
     5
 10
25.781691167395142
 20
145.81565330101171
 30
0.0
 11
34.117476167893528
 21
145.81565330101171
 31
0.0
  0
LINE
  8
DETAIL
  6
CONTINUOUS
 62
     5
 10
15.79849661151388
 20
145.81565330101171
 30
0.0
 11
24.13428161201227
 21
145.81565330101171
 31
0.0
  0
LINE
  8
DETAIL
  6
CONTINUOUS
 62
     5
 10
5.8153020556324009
 20
145.81565330101171
 30
0.0
 11
14.151087056130789
 21
145.81565330101171
 31
0.0
  0
LINE
  8
DETAIL
  6
CONTINUOUS
 62
     5
 10
143.5927479287329
 20
145.70050894775261
 30
0.0
 11
135.7620849582477
 21
145.70050894775261
 31
0.0
  0
LINE
  8
DETAIL
  6
CONTINUOUS
 62
     5
 10
125.7788904023666
 20
145.70050894775261
 30
0.0
 11
133.7841680507488
 21
145.70050894775261
 31
0.0
  0
LINE
  8
DETAIL
  6
CONTINUOUS
 62
     5
 10
115.7956958464854
 20
145.70050894775261
 30
0.0
 11
123.80097349486751
 21
145.70050894775261
 31
0.0
  0
LINE
  8
DETAIL
  6
CONTINUOUS
 62
     5
 10
105.8125012906039
 20
145.70050894775261
 30
0.0
 11
113.81777893898609
 21
145.70050894775261
 31
0.0
  0
LINE
  8
DETAIL
  6
CONTINUOUS
 62
     5
 10
95.82930673472265
 20
145.70050894775261
 30
0.0
 11
103.8345843831048
 21
145.70050894775261
 31
0.0
  0
LINE
  8
DETAIL
  6
CONTINUOUS
 62
     5
 10
85.846112178841167
 20
145.70050894775261
 30
0.0
 11
93.851389827223329
 21
145.70050894775261
 31
0.0
  0
LINE
  8
DETAIL
  6
CONTINUOUS
 62
     5
 10
75.862917622959912
 20
145.70050894775261
 30
0.0
 11
83.868195271342074
 21
145.70050894775261
 31
0.0
  0
LINE
  8
DETAIL
  6
CONTINUOUS
 62
     5
 10
65.87972306707843
 20
145.70050894775261
 30
0.0
 11
73.885000715460592
 21
145.70050894775261
 31
0.0
  0
LINE
  8
DETAIL
  6
CONTINUOUS
 62
     5
 10
55.896528511197182
 20
145.70050894775261
 30
0.0
 11
63.90180615957911
 21
145.70050894775261
 31
0.0
  0
LINE
  8
DETAIL
  6
CONTINUOUS
 62
     5
 10
45.91333395531592
 20
145.70050894775261
 30
0.0
 11
53.918611603698082
 21
145.70050894775261
 31
0.0
  0
LINE
  8
DETAIL
  6
CONTINUOUS
 62
     5
 10
35.930139399434438
 20
145.70050894775261
 30
0.0
 11
43.9354170478166
 21
145.70050894775261
 31
0.0
  0
LINE
  8
DETAIL
  6
CONTINUOUS
 62
     5
 10
25.94694484355318
 20
145.70050894775261
 30
0.0
 11
33.952222491935338
 21
145.70050894775261
 31
0.0
  0
LINE
  8
DETAIL
  6
CONTINUOUS
 62
     5
 10
15.963750287671701
 20
145.70050894775261
 30
0.0
 11
23.969027936053859
 21
145.70050894775261
 31
0.0
  0
LINE
  8
DETAIL
  6
CONTINUOUS
 62
     5
 10
5.9805557317904459
 20
145.70050894775261
 30
0.0
 11
13.985833380172609
 21
145.70050894775261
 31
0.0
  0
LINE
  8
DETAIL
  6
CONTINUOUS
 62
     5
 10
13.62617458901286
 20
143.39327738757859
 30
0.0
 11
6.3402145227501023
 21
143.39327738757859
 31
0.0
  0
LINE
  8
DETAIL
  6
CONTINUOUS
 62
     5
 10
23.609369144894341
 20
143.39327738757859
 30
0.0
 11
16.323409078631581
 21
143.39327738757859
 31
0.0
  0
LINE
  8
DETAIL
  6
CONTINUOUS
 62
     5
 10
33.5925637007756
 20
143.39327738757859
 30
0.0
 11
26.30660363451284
 21
143.39327738757859
 31
0.0
  0
LINE
  8
DETAIL
  6
CONTINUOUS
 62
     5
 10
43.575758256657082
 20
143.39327738757859
 30
0.0
 11
36.289798190394322
 21
143.39327738757859
 31
0.0
  0
LINE
  8
DETAIL
  6
CONTINUOUS
 62
     5
 10
53.558952812538337
 20
143.39327738757859
 30
0.0
 11
46.272992746275577
 21
143.39327738757859
 31
0.0
  0
LINE
  8
DETAIL
  6
CONTINUOUS
 62
     5
 10
63.542147368419592
 20
143.39327738757859
 30
0.0
 11
56.256187302156832
 21
143.39327738757859
 31
0.0
  0
LINE
  8
DETAIL
  6
CONTINUOUS
 62
     5
 10
73.525341924301301
 20
143.39327738757859
 30
0.0
 11
66.239381858038314
 21
143.39327738757859
 31
0.0
  0
LINE
  8
DETAIL
  6
CONTINUOUS
 62
     5
 10
83.508536480182556
 20
143.39327738757859
 30
0.0
 11
76.222576413919569
 21
143.39327738757859
 31
0.0
  0
LINE
  8
DETAIL
  6
CONTINUOUS
 62
     5
 10
93.491731036063811
 20
143.39327738757859
 30
0.0
 11
86.205770969800597
 21
143.39327738757859
 31
0.0
  0
LINE
  8
DETAIL
  6
CONTINUOUS
 62
     5
 10
103.47492559194509
 20
143.39327738757859
 30
0.0
 11
96.188965525682079
 21
143.39327738757859
 31
0.0
  0
LINE
  8
DETAIL
  6
CONTINUOUS
 62
     5
 10
113.45812014782631
 20
143.39327738757859
 30
0.0
 11
106.1721600815636
 21
143.39327738757859
 31
0.0
  0
LINE
  8
DETAIL
  6
CONTINUOUS
 62
     5
 10
123.4413147037076
 20
143.39327738757859
 30
0.0
 11
116.1553546374448
 21
143.39327738757859
 31
0.0
  0
LINE
  8
DETAIL
  6
CONTINUOUS
 62
     5
 10
133.42450925958909
 20
143.39327738757859
 30
0.0
 11
126.1385491933261
 21
143.39327738757859
 31
0.0
  0
LINE
  8
DETAIL
  6
CONTINUOUS
 62
     5
 10
13.61844203259307
 20
143.25884187694061
 30
0.0
 11
6.3479470793699866
 21
143.25884187694061
 31
0.0
  0
LINE
  8
DETAIL
  6
CONTINUOUS
 62
     5
 10
23.601636588474321
 20
143.25884187694061
 30
0.0
 11
16.33114163525147
 21
143.25884187694061
 31
0.0
  0
LINE
  8
DETAIL
  6
CONTINUOUS
 62
     5
 10
33.584831144355803
 20
143.25884187694061
 30
0.0
 11
26.314336191132721
 21
143.25884187694061
 31
0.0
  0
LINE
  8
DETAIL
  6
CONTINUOUS
 62
     5
 10
43.568025700236831
 20
143.25884187694061
 30
0.0
 11
36.297530747014207
 21
143.25884187694061
 31
0.0
  0
LINE
  8
DETAIL
  6
CONTINUOUS
 62
     5
 10
53.551220256118313
 20
143.25884187694061
 30
0.0
 11
46.280725302895462
 21
143.25884187694061
 31
0.0
  0
LINE
  8
DETAIL
  6
CONTINUOUS
 62
     5
 10
63.534414811999802
 20
143.25884187694061
 30
0.0
 11
56.263919858776717
 21
143.25884187694061
 31
0.0
  0
LINE
  8
DETAIL
  6
CONTINUOUS
 62
     5
 10
73.51760936788105
 20
143.25884187694061
 30
0.0
 11
66.247114414658199
 21
143.25884187694061
 31
0.0
  0
LINE
  8
DETAIL
  6
CONTINUOUS
 62
     5
 10
83.500803923762533
 20
143.25884187694061
 30
0.0
 11
76.230308970539454
 21
143.25884187694061
 31
0.0
  0
LINE
  8
DETAIL
  6
CONTINUOUS
 62
     5
 10
93.48399847964356
 20
143.25884187694061
 30
0.0
 11
86.213503526420709
 21
143.25884187694061
 31
0.0
  0
LINE
  8
DETAIL
  6
CONTINUOUS
 62
     5
 10
103.467193035525
 20
143.25884187694061
 30
0.0
 11
96.196698082301964
 21
143.25884187694061
 31
0.0
  0
LINE
  8
DETAIL
  6
CONTINUOUS
 62
     5
 10
113.4503875914063
 20
143.25884187694061
 30
0.0
 11
106.1798926381832
 21
143.25884187694061
 31
0.0
  0
LINE
  8
DETAIL
  6
CONTINUOUS
 62
     5
 10
123.43358214728759
 20
143.25884187694061
 30
0.0
 11
116.1630871940645
 21
143.25884187694061
 31
0.0
  0
LINE
  8
DETAIL
  6
CONTINUOUS
 62
     5
 10
133.41677670316901
 20
143.25884187694061
 30
0.0
 11
126.1462817499455
 21
143.25884187694061
 31
0.0
  0
LINE
  8
DETAIL
  6
CONTINUOUS
 62
     5
 10
83.359674541609593
 20
142.7596821491465
 30
0.0
 11
81.862195358227154
 21
142.7596821491465
 31
0.0
  0
LINE
  8
DETAIL
  6
CONTINUOUS
 62
     5
 10
87.852112091756226
 20
142.7596821491465
 30
0.0
 11
86.354632908374015
 21
142.7596821491465
 31
0.0
  0
LINE
  8
DETAIL
  6
CONTINUOUS
 62
     5
 10
13.47731265044013
 20
87.852112091799086
 30
0.0
 11
6.4890764613230658
 21
87.852112091799086
 31
0.0
  0
LINE
  8
DETAIL
  6
CONTINUOUS
 62
     5
 10
23.460507206321608
 20
87.852112091799086
 30
0.0
 11
16.472271017204552
 21
87.852112091799086
 31
0.0
  0
LINE
  8
DETAIL
  6
CONTINUOUS
 62
     5
 10
33.443701762202863
 20
87.852112091799086
 30
0.0
 11
26.455465573085799
 21
87.852112091799086
 31
0.0
  0
LINE
  8
DETAIL
  6
CONTINUOUS
 62
     5
 10
43.426896318084118
 20
87.852112091799086
 30
0.0
 11
36.438660128967292
 21
87.852112091799086
 31
0.0
  0
LINE
  8
DETAIL
  6
CONTINUOUS
 62
     5
 10
53.410090873965601
 20
87.852112091799086
 30
0.0
 11
46.42185468484854
 21
87.852112091799086
 31
0.0
  0
LINE
  8
DETAIL
  6
CONTINUOUS
 62
     5
 10
63.393285429846863
 20
87.852112091799086
 30
0.0
 11
56.405049240730023
 21
87.852112091799086
 31
0.0
  0
LINE
  8
DETAIL
  6
CONTINUOUS
 62
     5
 10
73.376479985728338
 20
87.852112091799086
 30
0.0
 11
66.388243796611278
 21
87.852112091799086
 31
0.0
  0
LINE
  8
DETAIL
  6
CONTINUOUS
 62
     5
 10
83.359674541609593
 20
87.852112091799086
 30
0.0
 11
76.371438352492532
 21
87.852112091799086
 31
0.0
  0
LINE
  8
DETAIL
  6
CONTINUOUS
 62
     5
 10
93.342869097491075
 20
87.852112091799086
 30
0.0
 11
86.354632908374015
 21
87.852112091799086
 31
0.0
  0
LINE
  8
DETAIL
  6
CONTINUOUS
 62
     5
 10
103.3260636533723
 20
87.852112091799086
 30
0.0
 11
96.33782746425527
 21
87.852112091799086
 31
0.0
  0
LINE
  8
DETAIL
  6
CONTINUOUS
 62
     5
 10
113.3092582092536
 20
87.852112091799086
 30
0.0
 11
106.32102202013679
 21
87.852112091799086
 31
0.0
  0
LINE
  8
DETAIL
  6
CONTINUOUS
 62
     5
 10
123.29245276513529
 20
87.852112091799086
 30
0.0
 11
116.30421657601801
 21
87.852112091799086
 31
0.0
  0
LINE
  8
DETAIL
  6
CONTINUOUS
 62
     5
 10
133.27564732101629
 20
87.852112091799086
 30
0.0
 11
126.2874111318995
 21
87.852112091799086
 31
0.0
  0
LINE
  8
DETAIL
  6
CONTINUOUS
 62
     5
 10
143.2588418768978
 20
87.852112091799086
 30
0.0
 11
136.27060568778069
 21
87.852112091799086
 31
0.0
  0
LINE
  8
DETAIL
  6
CONTINUOUS
 62
     5
 10
13.51278306868153
 20
87.816641673557569
 30
0.0
 11
6.4536060430814359
 21
87.816641673557569
 31
0.0
  0
LINE
  8
DETAIL
  6
CONTINUOUS
 62
     5
 10
23.49597762456278
 20
87.816641673557569
 30
0.0
 11
16.436800598962918
 21
87.816641673557569
 31
0.0
  0
LINE
  8
DETAIL
  6
CONTINUOUS
 62
     5
 10
33.479172180444273
 20
87.816641673557569
 30
0.0
 11
26.41999515484417
 21
87.816641673557569
 31
0.0
  0
LINE
  8
DETAIL
  6
CONTINUOUS
 62
     5
 10
43.462366736325748
 20
87.816641673557569
 30
0.0
 11
36.403189710725663
 21
87.816641673557569
 31
0.0
  0
LINE
  8
DETAIL
  6
CONTINUOUS
 62
     5
 10
53.445561292207003
 20
87.816641673557569
 30
0.0
 11
46.38638426660691
 21
87.816641673557569
 31
0.0
  0
LINE
  8
DETAIL
  6
CONTINUOUS
 62
     5
 10
63.428755848088258
 20
87.816641673557569
 30
0.0
 11
56.369578822488172
 21
87.816641673557569
 31
0.0
  0
LINE
  8
DETAIL
  6
CONTINUOUS
 62
     5
 10
73.41195040396974
 20
87.816641673557569
 30
0.0
 11
66.35277337836942
 21
87.816641673557569
 31
0.0
  0
LINE
  8
DETAIL
  6
CONTINUOUS
 62
     5
 10
83.395144959850768
 20
87.816641673557569
 30
0.0
 11
76.335967934250675
 21
87.816641673557569
 31
0.0
  0
LINE
  8
DETAIL
  6
CONTINUOUS
 62
     5
 10
93.378339515732478
 20
87.816641673557569
 30
0.0
 11
86.319162490132157
 21
87.816641673557569
 31
0.0
  0
LINE
  8
DETAIL
  6
CONTINUOUS
 62
     5
 10
103.36153407161351
 20
87.816641673557569
 30
0.0
 11
96.302357046013412
 21
87.816641673557569
 31
0.0
  0
LINE
  8
DETAIL
  6
CONTINUOUS
 62
     5
 10
113.3447286274948
 20
87.816641673557569
 30
0.0
 11
106.28555160189489
 21
87.816641673557569
 31
0.0
  0
LINE
  8
DETAIL
  6
CONTINUOUS
 62
     5
 10
123.3279231833765
 20
87.816641673557569
 30
0.0
 11
116.26874615777611
 21
87.816641673557569
 31
0.0
  0
LINE
  8
DETAIL
  6
CONTINUOUS
 62
     5
 10
133.3111177392577
 20
87.816641673557569
 30
0.0
 11
126.2519407136574
 21
87.816641673557569
 31
0.0
  0
LINE
  8
DETAIL
  6
CONTINUOUS
 62
     5
 10
143.2588418768978
 20
87.816641673557569
 30
0.0
 11
136.23513526953909
 21
87.816641673557569
 31
0.0
  0
LINE
  8
DETAIL
  6
CONTINUOUS
 62
     5
 10
13.529605775783921
 20
87.317786020492179
 30
0.0
 11
6.4367833359790438
 21
87.317786020492179
 31
0.0
  0
LINE
  8
DETAIL
  6
CONTINUOUS
 62
     5
 10
23.5128003316654
 20
87.317786020492179
 30
0.0
 11
16.41997789186053
 21
87.317786020492179
 31
0.0
  0
LINE
  8
DETAIL
  6
CONTINUOUS
 62
     5
 10
33.495994887546658
 20
87.317786020492179
 30
0.0
 11
26.40317244774155
 21
87.317786020492179
 31
0.0
  0
LINE
  8
DETAIL
  6
CONTINUOUS
 62
     5
 10
43.47918944342814
 20
87.317786020492179
 30
0.0
 11
36.386367003623043
 21
87.317786020492179
 31
0.0
  0
LINE
  8
DETAIL
  6
CONTINUOUS
 62
     5
 10
53.462383999309402
 20
87.317786020492179
 30
0.0
 11
46.369561559504518
 21
87.317786020492179
 31
0.0
  0
LINE
  8
DETAIL
  6
CONTINUOUS
 62
     5
 10
63.445578555190878
 20
87.317786020492179
 30
0.0
 11
56.352756115385318
 21
87.317786020492179
 31
0.0
  0
LINE
  8
DETAIL
  6
CONTINUOUS
 62
     5
 10
73.428773111071905
 20
87.317786020492179
 30
0.0
 11
66.335950671267028
 21
87.317786020492179
 31
0.0
  0
LINE
  8
DETAIL
  6
CONTINUOUS
 62
     5
 10
83.411967666953387
 20
87.317786020492179
 30
0.0
 11
76.319145227148283
 21
87.317786020492179
 31
0.0
  0
LINE
  8
DETAIL
  6
CONTINUOUS
 62
     5
 10
93.39516222283487
 20
87.317786020492179
 30
0.0
 11
86.302339783029993
 21
87.317786020492179
 31
0.0
  0
LINE
  8
DETAIL
  6
CONTINUOUS
 62
     5
 10
103.3783567787161
 20
87.317786020492179
 30
0.0
 11
96.28553433891102
 21
87.317786020492179
 31
0.0
  0
LINE
  8
DETAIL
  6
CONTINUOUS
 62
     5
 10
113.36155133459761
 20
87.317786020492179
 30
0.0
 11
106.2687288947923
 21
87.317786020492179
 31
0.0
  0
LINE
  8
DETAIL
  6
CONTINUOUS
 62
     5
 10
123.3447458904791
 20
87.317786020492179
 30
0.0
 11
116.2519234506738
 21
87.317786020492179
 31
0.0
  0
LINE
  8
DETAIL
  6
CONTINUOUS
 62
     5
 10
133.32794044635969
 20
87.317786020492179
 30
0.0
 11
126.235118006555
 21
87.317786020492179
 31
0.0
  0
LINE
  8
DETAIL
  6
CONTINUOUS
 62
     5
 10
143.2588418768978
 20
87.317786020492179
 30
0.0
 11
136.21831256243669
 21
87.317786020492179
 31
0.0
  0
LINE
  8
DETAIL
  6
CONTINUOUS
 62
     5
 10
136.21831256243669
 20
86.389799251929901
 30
0.0
 11
143.2588418768978
 21
86.389799251929901
 31
0.0
  0
LINE
  8
DETAIL
  6
CONTINUOUS
 62
     5
 10
126.235118006555
 20
86.389799251929901
 30
0.0
 11
133.32794044635969
 21
86.389799251929901
 31
0.0
  0
LINE
  8
DETAIL
  6
CONTINUOUS
 62
     5
 10
116.2519234506738
 20
86.389799251929901
 30
0.0
 11
123.3447458904791
 21
86.389799251929901
 31
0.0
  0
LINE
  8
DETAIL
  6
CONTINUOUS
 62
     5
 10
106.2687288947923
 20
86.389799251929901
 30
0.0
 11
113.36155133459761
 21
86.389799251929901
 31
0.0
  0
LINE
  8
DETAIL
  6
CONTINUOUS
 62
     5
 10
96.28553433891102
 20
86.389799251929901
 30
0.0
 11
103.3783567787161
 21
86.389799251929901
 31
0.0
  0
LINE
  8
DETAIL
  6
CONTINUOUS
 62
     5
 10
86.302339783029993
 20
86.389799251929901
 30
0.0
 11
93.39516222283487
 21
86.389799251929901
 31
0.0
  0
LINE
  8
DETAIL
  6
CONTINUOUS
 62
     5
 10
76.319145227148283
 20
86.389799251929901
 30
0.0
 11
83.411967666953387
 21
86.389799251929901
 31
0.0
  0
LINE
  8
DETAIL
  6
CONTINUOUS
 62
     5
 10
66.335950671267028
 20
86.389799251929901
 30
0.0
 11
73.428773111071905
 21
86.389799251929901
 31
0.0
  0
LINE
  8
DETAIL
  6
CONTINUOUS
 62
     5
 10
56.352756115385318
 20
86.389799251929901
 30
0.0
 11
63.445578555190878
 21
86.389799251929901
 31
0.0
  0
LINE
  8
DETAIL
  6
CONTINUOUS
 62
     5
 10
46.369561559504518
 20
86.389799251929901
 30
0.0
 11
53.462383999309402
 21
86.389799251929901
 31
0.0
  0
LINE
  8
DETAIL
  6
CONTINUOUS
 62
     5
 10
36.386367003623043
 20
86.389799251929901
 30
0.0
 11
43.47918944342814
 21
86.389799251929901
 31
0.0
  0
LINE
  8
DETAIL
  6
CONTINUOUS
 62
     5
 10
26.40317244774155
 20
86.389799251929901
 30
0.0
 11
33.495994887546658
 21
86.389799251929901
 31
0.0
  0
LINE
  8
DETAIL
  6
CONTINUOUS
 62
     5
 10
16.41997789186053
 20
86.389799251929901
 30
0.0
 11
23.5128003316654
 21
86.389799251929901
 31
0.0
  0
LINE
  8
DETAIL
  6
CONTINUOUS
 62
     5
 10
6.4367833359790438
 20
86.389799251929901
 30
0.0
 11
13.529605775783921
 21
86.389799251929901
 31
0.0
  0
LINE
  8
DETAIL
  6
CONTINUOUS
 62
     5
 10
136.23513526953909
 20
85.890943598864567
 30
0.0
 11
143.2588418768978
 21
85.890943598864567
 31
0.0
  0
LINE
  8
DETAIL
  6
CONTINUOUS
 62
     5
 10
126.2519407136574
 20
85.890943598864567
 30
0.0
 11
133.3111177392577
 21
85.890943598864567
 31
0.0
  0
LINE
  8
DETAIL
  6
CONTINUOUS
 62
     5
 10
116.26874615777611
 20
85.890943598864567
 30
0.0
 11
123.3279231833765
 21
85.890943598864567
 31
0.0
  0
LINE
  8
DETAIL
  6
CONTINUOUS
 62
     5
 10
106.28555160189489
 20
85.890943598864567
 30
0.0
 11
113.3447286274948
 21
85.890943598864567
 31
0.0
  0
LINE
  8
DETAIL
  6
CONTINUOUS
 62
     5
 10
96.302357046013412
 20
85.890943598864567
 30
0.0
 11
103.36153407161351
 21
85.890943598864567
 31
0.0
  0
LINE
  8
DETAIL
  6
CONTINUOUS
 62
     5
 10
86.319162490132157
 20
85.890943598864567
 30
0.0
 11
93.378339515732478
 21
85.890943598864567
 31
0.0
  0
LINE
  8
DETAIL
  6
CONTINUOUS
 62
     5
 10
76.335967934250675
 20
85.890943598864567
 30
0.0
 11
83.395144959850768
 21
85.890943598864567
 31
0.0
  0
LINE
  8
DETAIL
  6
CONTINUOUS
 62
     5
 10
66.35277337836942
 20
85.890943598864567
 30
0.0
 11
73.41195040396974
 21
85.890943598864567
 31
0.0
  0
LINE
  8
DETAIL
  6
CONTINUOUS
 62
     5
 10
56.369578822488172
 20
85.890943598864567
 30
0.0
 11
63.428755848088258
 21
85.890943598864567
 31
0.0
  0
LINE
  8
DETAIL
  6
CONTINUOUS
 62
     5
 10
46.38638426660691
 20
85.890943598864567
 30
0.0
 11
53.445561292207003
 21
85.890943598864567
 31
0.0
  0
LINE
  8
DETAIL
  6
CONTINUOUS
 62
     5
 10
36.403189710725663
 20
85.890943598864567
 30
0.0
 11
43.462366736325748
 21
85.890943598864567
 31
0.0
  0
LINE
  8
DETAIL
  6
CONTINUOUS
 62
     5
 10
26.41999515484417
 20
85.890943598864567
 30
0.0
 11
33.479172180444273
 21
85.890943598864567
 31
0.0
  0
LINE
  8
DETAIL
  6
CONTINUOUS
 62
     5
 10
16.436800598962918
 20
85.890943598864567
 30
0.0
 11
23.49597762456278
 21
85.890943598864567
 31
0.0
  0
LINE
  8
DETAIL
  6
CONTINUOUS
 62
     5
 10
6.4536060430814359
 20
85.890943598864567
 30
0.0
 11
13.51278306868153
 21
85.890943598864567
 31
0.0
  0
LINE
  8
DETAIL
  6
CONTINUOUS
 62
     5
 10
13.47731265044013
 20
85.855473180622823
 30
0.0
 11
6.4890764613230658
 21
85.855473180622823
 31
0.0
  0
LINE
  8
DETAIL
  6
CONTINUOUS
 62
     5
 10
23.460507206321608
 20
85.855473180622823
 30
0.0
 11
16.472271017204552
 21
85.855473180622823
 31
0.0
  0
LINE
  8
DETAIL
  6
CONTINUOUS
 62
     5
 10
33.443701762202863
 20
85.855473180622823
 30
0.0
 11
26.455465573085799
 21
85.855473180622823
 31
0.0
  0
LINE
  8
DETAIL
  6
CONTINUOUS
 62
     5
 10
43.426896318084118
 20
85.855473180622823
 30
0.0
 11
36.438660128967292
 21
85.855473180622823
 31
0.0
  0
LINE
  8
DETAIL
  6
CONTINUOUS
 62
     5
 10
53.410090873965601
 20
85.855473180622823
 30
0.0
 11
46.42185468484854
 21
85.855473180622823
 31
0.0
  0
LINE
  8
DETAIL
  6
CONTINUOUS
 62
     5
 10
63.393285429846863
 20
85.855473180622823
 30
0.0
 11
56.405049240730023
 21
85.855473180622823
 31
0.0
  0
LINE
  8
DETAIL
  6
CONTINUOUS
 62
     5
 10
73.376479985728338
 20
85.855473180622823
 30
0.0
 11
66.388243796611278
 21
85.855473180622823
 31
0.0
  0
LINE
  8
DETAIL
  6
CONTINUOUS
 62
     5
 10
83.359674541609593
 20
85.855473180622823
 30
0.0
 11
76.371438352492532
 21
85.855473180622823
 31
0.0
  0
LINE
  8
DETAIL
  6
CONTINUOUS
 62
     5
 10
93.342869097491075
 20
85.855473180622823
 30
0.0
 11
86.354632908374015
 21
85.855473180622823
 31
0.0
  0
LINE
  8
DETAIL
  6
CONTINUOUS
 62
     5
 10
103.3260636533723
 20
85.855473180622823
 30
0.0
 11
96.33782746425527
 21
85.855473180622823
 31
0.0
  0
LINE
  8
DETAIL
  6
CONTINUOUS
 62
     5
 10
113.3092582092536
 20
85.855473180622823
 30
0.0
 11
106.32102202013679
 21
85.855473180622823
 31
0.0
  0
LINE
  8
DETAIL
  6
CONTINUOUS
 62
     5
 10
123.29245276513529
 20
85.855473180622823
 30
0.0
 11
116.30421657601801
 21
85.855473180622823
 31
0.0
  0
LINE
  8
DETAIL
  6
CONTINUOUS
 62
     5
 10
133.27564732101629
 20
85.855473180622823
 30
0.0
 11
126.2874111318995
 21
85.855473180622823
 31
0.0
  0
LINE
  8
DETAIL
  6
CONTINUOUS
 62
     5
 10
143.2588418768978
 20
85.855473180622823
 30
0.0
 11
136.27060568778069
 21
85.855473180622823
 31
0.0
  0
LINE
  8
DETAIL
  6
CONTINUOUS
 62
     5
 10
81.862195358227154
 20
142.7596821491465
 30
0.0
 11
81.862195358227154
 21
143.25884187694061
 31
0.0
  0
LINE
  8
DETAIL
  6
CONTINUOUS
 62
     5
 10
85.680858502683122
 20
145.81565330101171
 30
0.0
 11
85.680858502683122
 21
-145.81565330092499
 31
0.0
  0
LINE
  8
DETAIL
  6
CONTINUOUS
 62
     5
 10
86.179714155948204
 20
-144.8282187763335
 30
0.0
 11
86.179714155948204
 21
144.82821877642041
 31
0.0
  0
LINE
  8
DETAIL
  6
CONTINUOUS
 62
     5
 10
86.354632908374015
 20
87.852112091799086
 30
0.0
 11
86.354632908374015
 21
143.25884187694061
 31
0.0
  0
LINE
  8
DETAIL
  6
CONTINUOUS
 62
     5
 10
87.852112091756226
 20
143.25884187694061
 30
0.0
 11
87.852112091756226
 21
142.7596821491465
 31
0.0
  0
LINE
  8
DETAIL
  6
CONTINUOUS
 62
     5
 10
93.342869097491075
 20
87.852112091799086
 30
0.0
 11
93.342869097491075
 21
143.25884187694061
 31
0.0
  0
LINE
  8
DETAIL
  6
CONTINUOUS
 62
     5
 10
93.51778785011652
 20
-144.8282187763335
 30
0.0
 11
93.51778785011652
 21
144.82821877642041
 31
0.0
  0
LINE
  8
DETAIL
  6
CONTINUOUS
 62
     5
 10
94.016643503181058
 20
-145.81565330092499
 30
0.0
 11
94.016643503181058
 21
145.81565330101171
 31
0.0
  0
LINE
  8
DETAIL
  6
CONTINUOUS
 62
     5
 10
95.664053058564377
 20
145.81565330101171
 30
0.0
 11
95.664053058564377
 21
-145.81565330092499
 31
0.0
  0
LINE
  8
DETAIL
  6
CONTINUOUS
 62
     5
 10
96.162908711829459
 20
-144.8282187763335
 30
0.0
 11
96.162908711829459
 21
144.82821877642041
 31
0.0
  0
LINE
  8
DETAIL
  6
CONTINUOUS
 62
     5
 10
96.33782746425527
 20
87.852112091799086
 30
0.0
 11
96.33782746425527
 21
143.25884187694061
 31
0.0
  0
LINE
  8
DETAIL
  6
CONTINUOUS
 62
     5
 10
103.3260636533723
 20
87.852112091799086
 30
0.0
 11
103.3260636533723
 21
143.25884187694061
 31
0.0
  0
LINE
  8
DETAIL
  6
CONTINUOUS
 62
     5
 10
103.5009824059978
 20
-144.8282187763335
 30
0.0
 11
103.5009824059978
 21
144.82821877642041
 31
0.0
  0
LINE
  8
DETAIL
  6
CONTINUOUS
 62
     5
 10
103.9998380590625
 20
-145.81565330092499
 30
0.0
 11
103.9998380590625
 21
145.81565330101171
 31
0.0
  0
LINE
  8
DETAIL
  6
CONTINUOUS
 62
     5
 10
105.6472476144456
 20
145.81565330101171
 30
0.0
 11
105.6472476144456
 21
-145.81565330092499
 31
0.0
  0
LINE
  8
DETAIL
  6
CONTINUOUS
 62
     5
 10
106.1461032677109
 20
-144.8282187763335
 30
0.0
 11
106.1461032677109
 21
144.82821877642041
 31
0.0
  0
LINE
  8
DETAIL
  6
CONTINUOUS
 62
     5
 10
106.32102202013679
 20
87.852112091799086
 30
0.0
 11
106.32102202013679
 21
143.25884187694061
 31
0.0
  0
LINE
  8
DETAIL
  6
CONTINUOUS
 62
     5
 10
113.3092582092536
 20
87.852112091799086
 30
0.0
 11
113.3092582092536
 21
143.25884187694061
 31
0.0
  0
LINE
  8
DETAIL
  6
CONTINUOUS
 62
     5
 10
113.4841769618795
 20
-144.8282187763335
 30
0.0
 11
113.4841769618795
 21
144.82821877642041
 31
0.0
  0
LINE
  8
DETAIL
  6
CONTINUOUS
 62
     5
 10
113.98303261494399
 20
-145.81565330092499
 30
0.0
 11
113.98303261494399
 21
145.81565330101171
 31
0.0
  0
LINE
  8
DETAIL
  6
CONTINUOUS
 62
     5
 10
115.6304421703273
 20
145.81565330101171
 30
0.0
 11
115.6304421703273
 21
-145.81565330092499
 31
0.0
  0
LINE
  8
DETAIL
  6
CONTINUOUS
 62
     5
 10
116.1292978235922
 20
-144.8282187763335
 30
0.0
 11
116.1292978235922
 21
144.82821877642041
 31
0.0
  0
LINE
  8
DETAIL
  6
CONTINUOUS
 62
     5
 10
116.30421657601801
 20
87.852112091799086
 30
0.0
 11
116.30421657601801
 21
143.25884187694061
 31
0.0
  0
LINE
  8
DETAIL
  6
CONTINUOUS
 62
     5
 10
123.29245276513529
 20
87.852112091799086
 30
0.0
 11
123.29245276513529
 21
143.25884187694061
 31
0.0
  0
LINE
  8
DETAIL
  6
CONTINUOUS
 62
     5
 10
123.4673715177607
 20
-144.8282187763335
 30
0.0
 11
123.4673715177607
 21
144.82821877642041
 31
0.0
  0
LINE
  8
DETAIL
  6
CONTINUOUS
 62
     5
 10
123.96622717082531
 20
-145.81565330092499
 30
0.0
 11
123.96622717082531
 21
145.81565330101171
 31
0.0
  0
LINE
  8
DETAIL
  6
CONTINUOUS
 62
     5
 10
125.6136367262084
 20
145.81565330101171
 30
0.0
 11
125.6136367262084
 21
-145.81565330092499
 31
0.0
  0
LINE
  8
DETAIL
  6
CONTINUOUS
 62
     5
 10
126.11249237947369
 20
-144.8282187763335
 30
0.0
 11
126.11249237947369
 21
144.82821877642041
 31
0.0
  0
LINE
  8
DETAIL
  6
CONTINUOUS
 62
     5
 10
126.2874111318995
 20
87.852112091799086
 30
0.0
 11
126.2874111318995
 21
143.25884187694061
 31
0.0
  0
LINE
  8
DETAIL
  6
CONTINUOUS
 62
     5
 10
133.27564732101629
 20
87.852112091799086
 30
0.0
 11
133.27564732101629
 21
143.25884187694061
 31
0.0
  0
LINE
  8
DETAIL
  6
CONTINUOUS
 62
     5
 10
133.4505660736418
 20
-144.8282187763335
 30
0.0
 11
133.4505660736418
 21
144.82821877642041
 31
0.0
  0
LINE
  8
DETAIL
  6
CONTINUOUS
 62
     5
 10
133.9494217267065
 20
-145.81565330092499
 30
0.0
 11
133.9494217267065
 21
145.81565330101171
 31
0.0
  0
LINE
  8
DETAIL
  6
CONTINUOUS
 62
     5
 10
135.59683128208991
 20
145.81565330101171
 30
0.0
 11
135.59683128208991
 21
-145.81565330092499
 31
0.0
  0
LINE
  8
DETAIL
  6
CONTINUOUS
 62
     5
 10
83.359674541609593
 20
87.852112091799086
 30
0.0
 11
83.359674541609593
 21
143.25884187694061
 31
0.0
  0
LINE
  8
DETAIL
  6
CONTINUOUS
 62
     5
 10
83.534593294235037
 20
-144.8282187763335
 30
0.0
 11
83.534593294235037
 21
144.82821877642041
 31
0.0
  0
LINE
  8
DETAIL
  6
CONTINUOUS
 62
     5
 10
84.033448947299803
 20
-145.81565330092499
 30
0.0
 11
84.033448947299803
 21
145.81565330101171
 31
0.0
  0
LINE
  8
DETAIL
  6
CONTINUOUS
 62
     5
 10
-143.25884187689761
 20
-143.39327738757859
 30
0.0
 11
-136.1217437492073
 21
-143.39327738757859
 31
0.0
  0
LINE
  8
DETAIL
  6
CONTINUOUS
 62
     5
 10
-143.25884187689761
 20
-143.25884187694061
 30
0.0
 11
-136.12947630582721
 21
-143.25884187694061
 31
0.0
  0
LINE
  8
DETAIL
  6
CONTINUOUS
 62
     5
 10
-143.75800160469129
 20
-145.81565330101171
 30
0.0
 11
-135.5968312820896
 21
-145.81565330101171
 31
0.0
  0
LINE
  8
DETAIL
  6
CONTINUOUS
 62
     5
 10
-125.6136367262081
 20
-145.81565330101171
 30
0.0
 11
-133.9494217267063
 21
-145.81565330101171
 31
0.0
  0
LINE
  8
DETAIL
  6
CONTINUOUS
 62
     5
 10
-115.6304421703273
 20
-145.81565330101171
 30
0.0
 11
-123.96622717082511
 21
-145.81565330101171
 31
0.0
  0
LINE
  8
DETAIL
  6
CONTINUOUS
 62
     5
 10
-105.6472476144456
 20
-145.81565330101171
 30
0.0
 11
-113.98303261494399
 21
-145.81565330101171
 31
0.0
  0
LINE
  8
DETAIL
  6
CONTINUOUS
 62
     5
 10
-95.664053058564377
 20
-145.81565330101171
 30
0.0
 11
-103.9998380590625
 21
-145.81565330101171
 31
0.0
  0
LINE
  8
DETAIL
  6
CONTINUOUS
 62
     5
 10
-85.680858502683122
 20
-145.81565330101171
 30
0.0
 11
-94.016643503181058
 21
-145.81565330101171
 31
0.0
  0
LINE
  8
DETAIL
  6
CONTINUOUS
 62
     5
 10
-75.69766394680164
 20
-145.81565330101171
 30
0.0
 11
-84.033448947299803
 21
-145.81565330101171
 31
0.0
  0
LINE
  8
DETAIL
  6
CONTINUOUS
 62
     5
 10
-65.714469390920613
 20
-145.81565330101171
 30
0.0
 11
-74.050254391418775
 21
-145.81565330101171
 31
0.0
  0
LINE
  8
DETAIL
  6
CONTINUOUS
 62
     5
 10
-55.731274835038903
 20
-145.81565330101171
 30
0.0
 11
-64.06705983553752
 21
-145.81565330101171
 31
0.0
  0
LINE
  8
DETAIL
  6
CONTINUOUS
 62
     5
 10
-45.748080279157648
 20
-145.81565330101171
 30
0.0
 11
-54.083865279656038
 21
-145.81565330101171
 31
0.0
  0
LINE
  8
DETAIL
  6
CONTINUOUS
 62
     5
 10
-35.764885723276173
 20
-145.81565330101171
 30
0.0
 11
-44.100670723774783
 21
-145.81565330101171
 31
0.0
  0
LINE
  8
DETAIL
  6
CONTINUOUS
 62
     5
 10
-25.781691167394911
 20
-145.81565330101171
 30
0.0
 11
-34.117476167893301
 21
-145.81565330101171
 31
0.0
  0
LINE
  8
DETAIL
  6
CONTINUOUS
 62
     5
 10
-15.798496611513659
 20
-145.81565330101171
 30
0.0
 11
-24.13428161201205
 21
-145.81565330101171
 31
0.0
  0
LINE
  8
DETAIL
  6
CONTINUOUS
 62
     5
 10
-5.8153020556321744
 20
-145.81565330101171
 30
0.0
 11
-14.15108705613056
 21
-145.81565330101171
 31
0.0
  0
LINE
  8
DETAIL
  6
CONTINUOUS
 62
     5
 10
4.1678925002490814
 20
-145.81565330101171
 30
0.0
 11
-4.1678925002493088
 21
-145.81565330101171
 31
0.0
  0
LINE
  8
DETAIL
  6
CONTINUOUS
 62
     5
 10
-143.59274792873271
 20
-145.7005089477527
 30
0.0
 11
-135.7620849582477
 21
-145.7005089477527
 31
0.0
  0
LINE
  8
DETAIL
  6
CONTINUOUS
 62
     5
 10
-125.7788904023664
 20
-145.7005089477527
 30
0.0
 11
-133.7841680507486
 21
-145.7005089477527
 31
0.0
  0
LINE
  8
DETAIL
  6
CONTINUOUS
 62
     5
 10
-115.7956958464852
 20
-145.7005089477527
 30
0.0
 11
-123.80097349486731
 21
-145.7005089477527
 31
0.0
  0
LINE
  8
DETAIL
  6
CONTINUOUS
 62
     5
 10
-105.81250129060371
 20
-145.7005089477527
 30
0.0
 11
-113.8177789389858
 21
-145.7005089477527
 31
0.0
  0
LINE
  8
DETAIL
  6
CONTINUOUS
 62
     5
 10
-95.829306734722422
 20
-145.7005089477527
 30
0.0
 11
-103.8345843831048
 21
-145.7005089477527
 31
0.0
  0
LINE
  8
DETAIL
  6
CONTINUOUS
 62
     5
 10
-85.84611217884094
 20
-145.7005089477527
 30
0.0
 11
-93.851389827223329
 21
-145.7005089477527
 31
0.0
  0
LINE
  8
DETAIL
  6
CONTINUOUS
 62
     5
 10
-75.862917622959685
 20
-145.7005089477527
 30
0.0
 11
-83.868195271342074
 21
-145.7005089477527
 31
0.0
  0
LINE
  8
DETAIL
  6
CONTINUOUS
 62
     5
 10
-65.879723067078203
 20
-145.7005089477527
 30
0.0
 11
-73.885000715460592
 21
-145.7005089477527
 31
0.0
  0
LINE
  8
DETAIL
  6
CONTINUOUS
 62
     5
 10
-55.896528511196948
 20
-145.7005089477527
 30
0.0
 11
-63.901806159578882
 21
-145.7005089477527
 31
0.0
  0
LINE
  8
DETAIL
  6
CONTINUOUS
 62
     5
 10
-45.913333955315693
 20
-145.7005089477527
 30
0.0
 11
-53.918611603697848
 21
-145.7005089477527
 31
0.0
  0
LINE
  8
DETAIL
  6
CONTINUOUS
 62
     5
 10
-35.930139399434211
 20
-145.7005089477527
 30
0.0
 11
-43.935417047816372
 21
-145.7005089477527
 31
0.0
  0
LINE
  8
DETAIL
  6
CONTINUOUS
 62
     5
 10
-25.946944843552959
 20
-145.7005089477527
 30
0.0
 11
-33.952222491935117
 21
-145.7005089477527
 31
0.0
  0
LINE
  8
DETAIL
  6
CONTINUOUS
 62
     5
 10
-15.96375028767147
 20
-145.7005089477527
 30
0.0
 11
-23.969027936053639
 21
-145.7005089477527
 31
0.0
  0
LINE
  8
DETAIL
  6
CONTINUOUS
 62
     5
 10
-5.9805557317902176
 20
-145.7005089477527
 30
0.0
 11
-13.98583338017238
 21
-145.7005089477527
 31
0.0
  0
LINE
  8
DETAIL
  6
CONTINUOUS
 62
     5
 10
4.0026388240912638
 20
-145.7005089477527
 30
0.0
 11
-4.0026388242911253
 21
-145.7005089477527
 31
0.0
  0
LINE
  8
DETAIL
  6
CONTINUOUS
 62
     5
 10
-3.6429800331316069
 20
-143.39327738757859
 30
0.0
 11
3.64298003313138
 21
-143.39327738757859
 31
0.0
  0
LINE
  8
DETAIL
  6
CONTINUOUS
 62
     5
 10
-13.62617458901286
 20
-143.39327738757859
 30
0.0
 11
-6.340214522749875
 21
-143.39327738757859
 31
0.0
  0
LINE
  8
DETAIL
  6
CONTINUOUS
 62
     5
 10
-23.609369144894341
 20
-143.39327738757859
 30
0.0
 11
-16.323409078631361
 21
-143.39327738757859
 31
0.0
  0
LINE
  8
DETAIL
  6
CONTINUOUS
 62
     5
 10
-33.5925637007756
 20
-143.39327738757859
 30
0.0
 11
-26.306603634512609
 21
-143.39327738757859
 31
0.0
  0
LINE
  8
DETAIL
  6
CONTINUOUS
 62
     5
 10
-43.575758256657082
 20
-143.39327738757859
 30
0.0
 11
-36.289798190394087
 21
-143.39327738757859
 31
0.0
  0
LINE
  8
DETAIL
  6
CONTINUOUS
 62
     5
 10
-53.558952812538109
 20
-143.39327738757859
 30
0.0
 11
-46.272992746275349
 21
-143.39327738757859
 31
0.0
  0
LINE
  8
DETAIL
  6
CONTINUOUS
 62
     5
 10
-63.542147368419357
 20
-143.39327738757859
 30
0.0
 11
-56.256187302156597
 21
-143.39327738757859
 31
0.0
  0
LINE
  8
DETAIL
  6
CONTINUOUS
 62
     5
 10
-73.525341924301074
 20
-143.39327738757859
 30
0.0
 11
-66.239381858038087
 21
-143.39327738757859
 31
0.0
  0
LINE
  8
DETAIL
  6
CONTINUOUS
 62
     5
 10
-83.508536480182329
 20
-143.39327738757859
 30
0.0
 11
-76.222576413919342
 21
-143.39327738757859
 31
0.0
  0
LINE
  8
DETAIL
  6
CONTINUOUS
 62
     5
 10
-93.491731036063584
 20
-143.39327738757859
 30
0.0
 11
-86.205770969800369
 21
-143.39327738757859
 31
0.0
  0
LINE
  8
DETAIL
  6
CONTINUOUS
 62
     5
 10
-103.4749255919448
 20
-143.39327738757859
 30
0.0
 11
-96.188965525681851
 21
-143.39327738757859
 31
0.0
  0
LINE
  8
DETAIL
  6
CONTINUOUS
 62
     5
 10
-113.45812014782609
 20
-143.39327738757859
 30
0.0
 11
-106.17216008156331
 21
-143.39327738757859
 31
0.0
  0
LINE
  8
DETAIL
  6
CONTINUOUS
 62
     5
 10
-123.44131470370731
 20
-143.39327738757859
 30
0.0
 11
-116.1553546374446
 21
-143.39327738757859
 31
0.0
  0
LINE
  8
DETAIL
  6
CONTINUOUS
 62
     5
 10
-133.4245092595888
 20
-143.39327738757859
 30
0.0
 11
-126.1385491933258
 21
-143.39327738757859
 31
0.0
  0
LINE
  8
DETAIL
  6
CONTINUOUS
 62
     5
 10
-3.6352474767113558
 20
-143.25884187694061
 30
0.0
 11
3.6352474765114948
 21
-143.25884187694061
 31
0.0
  0
LINE
  8
DETAIL
  6
CONTINUOUS
 62
     5
 10
-13.61844203259284
 20
-143.25884187694061
 30
0.0
 11
-6.3479470793697601
 21
-143.25884187694061
 31
0.0
  0
LINE
  8
DETAIL
  6
CONTINUOUS
 62
     5
 10
-23.60163658847409
 20
-143.25884187694061
 30
0.0
 11
-16.331141635251239
 21
-143.25884187694061
 31
0.0
  0
LINE
  8
DETAIL
  6
CONTINUOUS
 62
     5
 10
-33.584831144355583
 20
-143.25884187694061
 30
0.0
 11
-26.314336191132501
 21
-143.25884187694061
 31
0.0
  0
LINE
  8
DETAIL
  6
CONTINUOUS
 62
     5
 10
-43.568025700236603
 20
-143.25884187694061
 30
0.0
 11
-36.29753074701398
 21
-143.25884187694061
 31
0.0
  0
LINE
  8
DETAIL
  6
CONTINUOUS
 62
     5
 10
-53.551220256118093
 20
-143.25884187694061
 30
0.0
 11
-46.280725302895227
 21
-143.25884187694061
 31
0.0
  0
LINE
  8
DETAIL
  6
CONTINUOUS
 62
     5
 10
-63.534414811999568
 20
-143.25884187694061
 30
0.0
 11
-56.263919858776489
 21
-143.25884187694061
 31
0.0
  0
LINE
  8
DETAIL
  6
CONTINUOUS
 62
     5
 10
-73.517609367880823
 20
-143.25884187694061
 30
0.0
 11
-66.247114414657972
 21
-143.25884187694061
 31
0.0
  0
LINE
  8
DETAIL
  6
CONTINUOUS
 62
     5
 10
-83.500803923762305
 20
-143.25884187694061
 30
0.0
 11
-76.230308970539227
 21
-143.25884187694061
 31
0.0
  0
LINE
  8
DETAIL
  6
CONTINUOUS
 62
     5
 10
-93.48399847964356
 20
-143.25884187694061
 30
0.0
 11
-86.213503526420482
 21
-143.25884187694061
 31
0.0
  0
LINE
  8
DETAIL
  6
CONTINUOUS
 62
     5
 10
-103.467193035525
 20
-143.25884187694061
 30
0.0
 11
-96.196698082301737
 21
-143.25884187694061
 31
0.0
  0
LINE
  8
DETAIL
  6
CONTINUOUS
 62
     5
 10
-113.4503875914063
 20
-143.25884187694061
 30
0.0
 11
-106.17989263818301
 21
-143.25884187694061
 31
0.0
  0
LINE
  8
DETAIL
  6
CONTINUOUS
 62
     5
 10
-123.43358214728759
 20
-143.25884187694061
 30
0.0
 11
-116.1630871940645
 21
-143.25884187694061
 31
0.0
  0
LINE
  8
DETAIL
  6
CONTINUOUS
 62
     5
 10
-133.41677670316881
 20
-143.25884187694061
 30
0.0
 11
-126.1462817499455
 21
-143.25884187694061
 31
0.0
  0
LINE
  8
DETAIL
  6
CONTINUOUS
 62
     5
 10
-83.359674541609365
 20
-142.75968214914661
 30
0.0
 11
-81.862195358226927
 21
-142.75968214914661
 31
0.0
  0
LINE
  8
DETAIL
  6
CONTINUOUS
 62
     5
 10
-87.852112091755998
 20
-142.75968214914661
 30
0.0
 11
-86.354632908373787
 21
-142.75968214914661
 31
0.0
  0
LINE
  8
DETAIL
  6
CONTINUOUS
 62
     5
 10
-3.4941180945586439
 20
-87.852112091799142
 30
0.0
 11
3.494118094558416
 21
-87.852112091799142
 31
0.0
  0
LINE
  8
DETAIL
  6
CONTINUOUS
 62
     5
 10
-13.477312650439901
 20
-87.852112091799142
 30
0.0
 11
-6.4890764613230658
 21
-87.852112091799142
 31
0.0
  0
LINE
  8
DETAIL
  6
CONTINUOUS
 62
     5
 10
-23.460507206321381
 20
-87.852112091799142
 30
0.0
 11
-16.472271017204552
 21
-87.852112091799142
 31
0.0
  0
LINE
  8
DETAIL
  6
CONTINUOUS
 62
     5
 10
-33.443701762202643
 20
-87.852112091799142
 30
0.0
 11
-26.455465573085799
 21
-87.852112091799142
 31
0.0
  0
LINE
  8
DETAIL
  6
CONTINUOUS
 62
     5
 10
-43.426896318083891
 20
-87.852112091799142
 30
0.0
 11
-36.438660128967292
 21
-87.852112091799142
 31
0.0
  0
LINE
  8
DETAIL
  6
CONTINUOUS
 62
     5
 10
-53.410090873965373
 20
-87.852112091799142
 30
0.0
 11
-46.421854684848313
 21
-87.852112091799142
 31
0.0
  0
LINE
  8
DETAIL
  6
CONTINUOUS
 62
     5
 10
-63.393285429846628
 20
-87.852112091799142
 30
0.0
 11
-56.405049240729802
 21
-87.852112091799142
 31
0.0
  0
LINE
  8
DETAIL
  6
CONTINUOUS
 62
     5
 10
-73.37647998572811
 20
-87.852112091799142
 30
0.0
 11
-66.38824379661105
 21
-87.852112091799142
 31
0.0
  0
LINE
  8
DETAIL
  6
CONTINUOUS
 62
     5
 10
-83.359674541609365
 20
-87.852112091799142
 30
0.0
 11
-76.371438352492305
 21
-87.852112091799142
 31
0.0
  0
LINE
  8
DETAIL
  6
CONTINUOUS
 62
     5
 10
-93.342869097490848
 20
-87.852112091799142
 30
0.0
 11
-86.354632908373787
 21
-87.852112091799142
 31
0.0
  0
LINE
  8
DETAIL
  6
CONTINUOUS
 62
     5
 10
-103.3260636533721
 20
-87.852112091799142
 30
0.0
 11
-96.337827464255042
 21
-87.852112091799142
 31
0.0
  0
LINE
  8
DETAIL
  6
CONTINUOUS
 62
     5
 10
-113.3092582092534
 20
-87.852112091799142
 30
0.0
 11
-106.3210220201365
 21
-87.852112091799142
 31
0.0
  0
LINE
  8
DETAIL
  6
CONTINUOUS
 62
     5
 10
-123.2924527651351
 20
-87.852112091799142
 30
0.0
 11
-116.30421657601779
 21
-87.852112091799142
 31
0.0
  0
LINE
  8
DETAIL
  6
CONTINUOUS
 62
     5
 10
-133.27564732101609
 20
-87.852112091799142
 30
0.0
 11
-126.2874111318993
 21
-87.852112091799142
 31
0.0
  0
LINE
  8
DETAIL
  6
CONTINUOUS
 62
     5
 10
-143.25884187689761
 20
-87.852112091799142
 30
0.0
 11
-136.27060568778049
 21
-87.852112091799142
 31
0.0
  0
LINE
  8
DETAIL
  6
CONTINUOUS
 62
     5
 10
-3.5295885128000459
 20
-87.816641673557569
 30
0.0
 11
3.529588512799819
 21
-87.816641673557569
 31
0.0
  0
LINE
  8
DETAIL
  6
CONTINUOUS
 62
     5
 10
-13.5127830686813
 20
-87.816641673557569
 30
0.0
 11
-6.4536060430812094
 21
-87.816641673557569
 31
0.0
  0
LINE
  8
DETAIL
  6
CONTINUOUS
 62
     5
 10
-23.49597762456256
 20
-87.816641673557569
 30
0.0
 11
-16.436800598962691
 21
-87.816641673557569
 31
0.0
  0
LINE
  8
DETAIL
  6
CONTINUOUS
 62
     5
 10
-33.479172180444039
 20
-87.816641673557569
 30
0.0
 11
-26.419995154843949
 21
-87.816641673557569
 31
0.0
  0
LINE
  8
DETAIL
  6
CONTINUOUS
 62
     5
 10
-43.462366736325521
 20
-87.816641673557569
 30
0.0
 11
-36.403189710725428
 21
-87.816641673557569
 31
0.0
  0
LINE
  8
DETAIL
  6
CONTINUOUS
 62
     5
 10
-53.445561292206783
 20
-87.816641673557569
 30
0.0
 11
-46.386384266606683
 21
-87.816641673557569
 31
0.0
  0
LINE
  8
DETAIL
  6
CONTINUOUS
 62
     5
 10
-63.428755848088031
 20
-87.816641673557569
 30
0.0
 11
-56.369578822488172
 21
-87.816641673557569
 31
0.0
  0
LINE
  8
DETAIL
  6
CONTINUOUS
 62
     5
 10
-73.411950403969513
 20
-87.816641673557569
 30
0.0
 11
-66.35277337836942
 21
-87.816641673557569
 31
0.0
  0
LINE
  8
DETAIL
  6
CONTINUOUS
 62
     5
 10
-83.395144959850541
 20
-87.816641673557569
 30
0.0
 11
-76.335967934250675
 21
-87.816641673557569
 31
0.0
  0
LINE
  8
DETAIL
  6
CONTINUOUS
 62
     5
 10
-93.37833951573225
 20
-87.816641673557569
 30
0.0
 11
-86.319162490132157
 21
-87.816641673557569
 31
0.0
  0
LINE
  8
DETAIL
  6
CONTINUOUS
 62
     5
 10
-103.36153407161351
 20
-87.816641673557569
 30
0.0
 11
-96.302357046013412
 21
-87.816641673557569
 31
0.0
  0
LINE
  8
DETAIL
  6
CONTINUOUS
 62
     5
 10
-113.3447286274948
 20
-87.816641673557569
 30
0.0
 11
-106.2855516018947
 21
-87.816641673557569
 31
0.0
  0
LINE
  8
DETAIL
  6
CONTINUOUS
 62
     5
 10
-123.3279231833765
 20
-87.816641673557569
 30
0.0
 11
-116.26874615777589
 21
-87.816641673557569
 31
0.0
  0
LINE
  8
DETAIL
  6
CONTINUOUS
 62
     5
 10
-133.3111177392577
 20
-87.816641673557569
 30
0.0
 11
-126.25194071365721
 21
-87.816641673557569
 31
0.0
  0
LINE
  8
DETAIL
  6
CONTINUOUS
 62
     5
 10
-143.25884187689761
 20
-87.816641673557569
 30
0.0
 11
-136.23513526953889
 21
-87.816641673557569
 31
0.0
  0
LINE
  8
DETAIL
  6
CONTINUOUS
 62
     5
 10
-3.546411219902438
 20
-87.317786020492207
 30
0.0
 11
3.5464112199022111
 21
-87.317786020492207
 31
0.0
  0
LINE
  8
DETAIL
  6
CONTINUOUS
 62
     5
 10
-13.52960577578369
 20
-87.317786020492207
 30
0.0
 11
-6.4367833359788156
 21
-87.317786020492207
 31
0.0
  0
LINE
  8
DETAIL
  6
CONTINUOUS
 62
     5
 10
-23.512800331665179
 20
-87.317786020492207
 30
0.0
 11
-16.419977891860299
 21
-87.317786020492207
 31
0.0
  0
LINE
  8
DETAIL
  6
CONTINUOUS
 62
     5
 10
-33.495994887546431
 20
-87.317786020492207
 30
0.0
 11
-26.40317244774155
 21
-87.317786020492207
 31
0.0
  0
LINE
  8
DETAIL
  6
CONTINUOUS
 62
     5
 10
-43.479189443427913
 20
-87.317786020492207
 30
0.0
 11
-36.386367003623043
 21
-87.317786020492207
 31
0.0
  0
LINE
  8
DETAIL
  6
CONTINUOUS
 62
     5
 10
-53.462383999309168
 20
-87.317786020492207
 30
0.0
 11
-46.369561559504518
 21
-87.317786020492207
 31
0.0
  0
LINE
  8
DETAIL
  6
CONTINUOUS
 62
     5
 10
-63.44557855519065
 20
-87.317786020492207
 30
0.0
 11
-56.352756115385318
 21
-87.317786020492207
 31
0.0
  0
LINE
  8
DETAIL
  6
CONTINUOUS
 62
     5
 10
-73.428773111071678
 20
-87.317786020492207
 30
0.0
 11
-66.335950671267028
 21
-87.317786020492207
 31
0.0
  0
LINE
  8
DETAIL
  6
CONTINUOUS
 62
     5
 10
-83.41196766695316
 20
-87.317786020492207
 30
0.0
 11
-76.319145227148056
 21
-87.317786020492207
 31
0.0
  0
LINE
  8
DETAIL
  6
CONTINUOUS
 62
     5
 10
-93.395162222834642
 20
-87.317786020492207
 30
0.0
 11
-86.302339783029765
 21
-87.317786020492207
 31
0.0
  0
LINE
  8
DETAIL
  6
CONTINUOUS
 62
     5
 10
-103.3783567787159
 20
-87.317786020492207
 30
0.0
 11
-96.285534338910793
 21
-87.317786020492207
 31
0.0
  0
LINE
  8
DETAIL
  6
CONTINUOUS
 62
     5
 10
-113.36155133459739
 20
-87.317786020492207
 30
0.0
 11
-106.26872889479201
 21
-87.317786020492207
 31
0.0
  0
LINE
  8
DETAIL
  6
CONTINUOUS
 62
     5
 10
-123.3447458904789
 20
-87.317786020492207
 30
0.0
 11
-116.2519234506735
 21
-87.317786020492207
 31
0.0
  0
LINE
  8
DETAIL
  6
CONTINUOUS
 62
     5
 10
-133.32794044635969
 20
-87.317786020492207
 30
0.0
 11
-126.2351180065548
 21
-87.317786020492207
 31
0.0
  0
LINE
  8
DETAIL
  6
CONTINUOUS
 62
     5
 10
-143.25884187689761
 20
-87.317786020492207
 30
0.0
 11
-136.21831256243649
 21
-87.317786020492207
 31
0.0
  0
LINE
  8
DETAIL
  6
CONTINUOUS
 62
     5
 10
-136.21831256243649
 20
-86.389799251929958
 30
0.0
 11
-143.25884187689761
 21
-86.389799251929958
 31
0.0
  0
LINE
  8
DETAIL
  6
CONTINUOUS
 62
     5
 10
-126.2351180065548
 20
-86.389799251929958
 30
0.0
 11
-133.32794044635969
 21
-86.389799251929958
 31
0.0
  0
LINE
  8
DETAIL
  6
CONTINUOUS
 62
     5
 10
-116.2519234506735
 20
-86.389799251929958
 30
0.0
 11
-123.3447458904789
 21
-86.389799251929958
 31
0.0
  0
LINE
  8
DETAIL
  6
CONTINUOUS
 62
     5
 10
-106.26872889479201
 20
-86.389799251929958
 30
0.0
 11
-113.36155133459739
 21
-86.389799251929958
 31
0.0
  0
LINE
  8
DETAIL
  6
CONTINUOUS
 62
     5
 10
-96.285534338910793
 20
-86.389799251929958
 30
0.0
 11
-103.3783567787159
 21
-86.389799251929958
 31
0.0
  0
LINE
  8
DETAIL
  6
CONTINUOUS
 62
     5
 10
-86.302339783029765
 20
-86.389799251929958
 30
0.0
 11
-93.395162222834642
 21
-86.389799251929958
 31
0.0
  0
LINE
  8
DETAIL
  6
CONTINUOUS
 62
     5
 10
-76.319145227148056
 20
-86.389799251929958
 30
0.0
 11
-83.41196766695316
 21
-86.389799251929958
 31
0.0
  0
LINE
  8
DETAIL
  6
CONTINUOUS
 62
     5
 10
-66.335950671267028
 20
-86.389799251929958
 30
0.0
 11
-73.428773111071678
 21
-86.389799251929958
 31
0.0
  0
LINE
  8
DETAIL
  6
CONTINUOUS
 62
     5
 10
-56.352756115385318
 20
-86.389799251929958
 30
0.0
 11
-63.44557855519065
 21
-86.389799251929958
 31
0.0
  0
LINE
  8
DETAIL
  6
CONTINUOUS
 62
     5
 10
-46.369561559504518
 20
-86.389799251929958
 30
0.0
 11
-53.462383999309168
 21
-86.389799251929958
 31
0.0
  0
LINE
  8
DETAIL
  6
CONTINUOUS
 62
     5
 10
-36.386367003623043
 20
-86.389799251929958
 30
0.0
 11
-43.479189443427913
 21
-86.389799251929958
 31
0.0
  0
LINE
  8
DETAIL
  6
CONTINUOUS
 62
     5
 10
-26.40317244774155
 20
-86.389799251929958
 30
0.0
 11
-33.495994887546431
 21
-86.389799251929958
 31
0.0
  0
LINE
  8
DETAIL
  6
CONTINUOUS
 62
     5
 10
-16.419977891860299
 20
-86.389799251929958
 30
0.0
 11
-23.512800331665179
 21
-86.389799251929958
 31
0.0
  0
LINE
  8
DETAIL
  6
CONTINUOUS
 62
     5
 10
-6.4367833359788156
 20
-86.389799251929958
 30
0.0
 11
-13.52960577578369
 21
-86.389799251929958
 31
0.0
  0
LINE
  8
DETAIL
  6
CONTINUOUS
 62
     5
 10
3.5464112199022111
 20
-86.389799251929958
 30
0.0
 11
-3.546411219902438
 21
-86.389799251929958
 31
0.0
  0
LINE
  8
DETAIL
  6
CONTINUOUS
 62
     5
 10
-136.23513526953889
 20
-85.890943598864567
 30
0.0
 11
-143.25884187689761
 21
-85.890943598864567
 31
0.0
  0
LINE
  8
DETAIL
  6
CONTINUOUS
 62
     5
 10
-126.25194071365721
 20
-85.890943598864567
 30
0.0
 11
-133.3111177392577
 21
-85.890943598864567
 31
0.0
  0
LINE
  8
DETAIL
  6
CONTINUOUS
 62
     5
 10
-116.26874615777589
 20
-85.890943598864567
 30
0.0
 11
-123.3279231833765
 21
-85.890943598864567
 31
0.0
  0
LINE
  8
DETAIL
  6
CONTINUOUS
 62
     5
 10
-106.2855516018947
 20
-85.890943598864567
 30
0.0
 11
-113.3447286274948
 21
-85.890943598864567
 31
0.0
  0
LINE
  8
DETAIL
  6
CONTINUOUS
 62
     5
 10
-96.302357046013412
 20
-85.890943598864567
 30
0.0
 11
-103.36153407161351
 21
-85.890943598864567
 31
0.0
  0
LINE
  8
DETAIL
  6
CONTINUOUS
 62
     5
 10
-86.319162490132157
 20
-85.890943598864567
 30
0.0
 11
-93.37833951573225
 21
-85.890943598864567
 31
0.0
  0
LINE
  8
DETAIL
  6
CONTINUOUS
 62
     5
 10
-76.335967934250675
 20
-85.890943598864567
 30
0.0
 11
-83.395144959850541
 21
-85.890943598864567
 31
0.0
  0
LINE
  8
DETAIL
  6
CONTINUOUS
 62
     5
 10
-66.35277337836942
 20
-85.890943598864567
 30
0.0
 11
-73.411950403969513
 21
-85.890943598864567
 31
0.0
  0
LINE
  8
DETAIL
  6
CONTINUOUS
 62
     5
 10
-56.369578822488172
 20
-85.890943598864567
 30
0.0
 11
-63.428755848088031
 21
-85.890943598864567
 31
0.0
  0
LINE
  8
DETAIL
  6
CONTINUOUS
 62
     5
 10
-46.386384266606683
 20
-85.890943598864567
 30
0.0
 11
-53.445561292206783
 21
-85.890943598864567
 31
0.0
  0
LINE
  8
DETAIL
  6
CONTINUOUS
 62
     5
 10
-36.403189710725428
 20
-85.890943598864567
 30
0.0
 11
-43.462366736325521
 21
-85.890943598864567
 31
0.0
  0
LINE
  8
DETAIL
  6
CONTINUOUS
 62
     5
 10
-26.419995154843949
 20
-85.890943598864567
 30
0.0
 11
-33.479172180444039
 21
-85.890943598864567
 31
0.0
  0
LINE
  8
DETAIL
  6
CONTINUOUS
 62
     5
 10
-16.436800598962691
 20
-85.890943598864567
 30
0.0
 11
-23.49597762456256
 21
-85.890943598864567
 31
0.0
  0
LINE
  8
DETAIL
  6
CONTINUOUS
 62
     5
 10
-6.4536060430812094
 20
-85.890943598864567
 30
0.0
 11
-13.5127830686813
 21
-85.890943598864567
 31
0.0
  0
LINE
  8
DETAIL
  6
CONTINUOUS
 62
     5
 10
3.529588512799819
 20
-85.890943598864567
 30
0.0
 11
-3.5295885128000459
 21
-85.890943598864567
 31
0.0
  0
LINE
  8
DETAIL
  6
CONTINUOUS
 62
     5
 10
-3.4941180945586439
 20
-85.85547318062288
 30
0.0
 11
3.494118094558416
 21
-85.85547318062288
 31
0.0
  0
LINE
  8
DETAIL
  6
CONTINUOUS
 62
     5
 10
-13.477312650439901
 20
-85.85547318062288
 30
0.0
 11
-6.4890764613230658
 21
-85.85547318062288
 31
0.0
  0
LINE
  8
DETAIL
  6
CONTINUOUS
 62
     5
 10
-23.460507206321381
 20
-85.85547318062288
 30
0.0
 11
-16.472271017204552
 21
-85.85547318062288
 31
0.0
  0
LINE
  8
DETAIL
  6
CONTINUOUS
 62
     5
 10
-33.443701762202643
 20
-85.85547318062288
 30
0.0
 11
-26.455465573085799
 21
-85.85547318062288
 31
0.0
  0
LINE
  8
DETAIL
  6
CONTINUOUS
 62
     5
 10
-43.426896318083891
 20
-85.85547318062288
 30
0.0
 11
-36.438660128967292
 21
-85.85547318062288
 31
0.0
  0
LINE
  8
DETAIL
  6
CONTINUOUS
 62
     5
 10
-53.410090873965373
 20
-85.85547318062288
 30
0.0
 11
-46.421854684848313
 21
-85.85547318062288
 31
0.0
  0
LINE
  8
DETAIL
  6
CONTINUOUS
 62
     5
 10
-63.393285429846628
 20
-85.85547318062288
 30
0.0
 11
-56.405049240729802
 21
-85.85547318062288
 31
0.0
  0
LINE
  8
DETAIL
  6
CONTINUOUS
 62
     5
 10
-73.37647998572811
 20
-85.85547318062288
 30
0.0
 11
-66.38824379661105
 21
-85.85547318062288
 31
0.0
  0
LINE
  8
DETAIL
  6
CONTINUOUS
 62
     5
 10
-83.359674541609365
 20
-85.85547318062288
 30
0.0
 11
-76.371438352492305
 21
-85.85547318062288
 31
0.0
  0
LINE
  8
DETAIL
  6
CONTINUOUS
 62
     5
 10
-93.342869097490848
 20
-85.85547318062288
 30
0.0
 11
-86.354632908373787
 21
-85.85547318062288
 31
0.0
  0
LINE
  8
DETAIL
  6
CONTINUOUS
 62
     5
 10
-103.3260636533721
 20
-85.85547318062288
 30
0.0
 11
-96.337827464255042
 21
-85.85547318062288
 31
0.0
  0
LINE
  8
DETAIL
  6
CONTINUOUS
 62
     5
 10
-113.3092582092534
 20
-85.85547318062288
 30
0.0
 11
-106.3210220201365
 21
-85.85547318062288
 31
0.0
  0
LINE
  8
DETAIL
  6
CONTINUOUS
 62
     5
 10
-123.2924527651351
 20
-85.85547318062288
 30
0.0
 11
-116.30421657601779
 21
-85.85547318062288
 31
0.0
  0
LINE
  8
DETAIL
  6
CONTINUOUS
 62
     5
 10
-133.27564732101609
 20
-85.85547318062288
 30
0.0
 11
-126.2874111318993
 21
-85.85547318062288
 31
0.0
  0
LINE
  8
DETAIL
  6
CONTINUOUS
 62
     5
 10
-143.25884187689761
 20
-85.85547318062288
 30
0.0
 11
-136.27060568778049
 21
-85.85547318062288
 31
0.0
  0
LINE
  8
DETAIL
  6
CONTINUOUS
 62
     5
 10
-81.862195358226927
 20
-142.75968214914661
 30
0.0
 11
-81.862195358226927
 21
-143.25884187694061
 31
0.0
  0
LINE
  8
DETAIL
  6
CONTINUOUS
 62
     5
 10
-87.852112091755998
 20
-143.25884187694061
 30
0.0
 11
-87.852112091755998
 21
-142.75968214914661
 31
0.0
  0
LINE
  8
DETAIL
  6
CONTINUOUS
 62
     5
 10
143.2588418768978
 20
-143.39327738757859
 30
0.0
 11
136.12174374920761
 21
-143.39327738757859
 31
0.0
  0
LINE
  8
DETAIL
  6
CONTINUOUS
 62
     5
 10
143.2588418768978
 20
-143.25884187694061
 30
0.0
 11
136.12947630582721
 21
-143.25884187694061
 31
0.0
  0
LINE
  8
DETAIL
  6
CONTINUOUS
 62
     5
 10
143.7580016046916
 20
-145.81565330101171
 30
0.0
 11
135.59683128208991
 21
-145.81565330101171
 31
0.0
  0
LINE
  8
DETAIL
  6
CONTINUOUS
 62
     5
 10
125.6136367262084
 20
-145.81565330101171
 30
0.0
 11
133.9494217267065
 21
-145.81565330101171
 31
0.0
  0
LINE
  8
DETAIL
  6
CONTINUOUS
 62
     5
 10
115.6304421703273
 20
-145.81565330101171
 30
0.0
 11
123.96622717082531
 21
-145.81565330101171
 31
0.0
  0
LINE
  8
DETAIL
  6
CONTINUOUS
 62
     5
 10
105.6472476144456
 20
-145.81565330101171
 30
0.0
 11
113.98303261494399
 21
-145.81565330101171
 31
0.0
  0
LINE
  8
DETAIL
  6
CONTINUOUS
 62
     5
 10
95.664053058564377
 20
-145.81565330101171
 30
0.0
 11
103.9998380590625
 21
-145.81565330101171
 31
0.0
  0
LINE
  8
DETAIL
  6
CONTINUOUS
 62
     5
 10
85.680858502683122
 20
-145.81565330101171
 30
0.0
 11
94.016643503181058
 21
-145.81565330101171
 31
0.0
  0
LINE
  8
DETAIL
  6
CONTINUOUS
 62
     5
 10
75.697663946801867
 20
-145.81565330101171
 30
0.0
 11
84.033448947299803
 21
-145.81565330101171
 31
0.0
  0
LINE
  8
DETAIL
  6
CONTINUOUS
 62
     5
 10
65.71446939092084
 20
-145.81565330101171
 30
0.0
 11
74.050254391418775
 21
-145.81565330101171
 31
0.0
  0
LINE
  8
DETAIL
  6
CONTINUOUS
 62
     5
 10
55.73127483503913
 20
-145.81565330101171
 30
0.0
 11
64.067059835537748
 21
-145.81565330101171
 31
0.0
  0
LINE
  8
DETAIL
  6
CONTINUOUS
 62
     5
 10
45.748080279157882
 20
-145.81565330101171
 30
0.0
 11
54.083865279656273
 21
-145.81565330101171
 31
0.0
  0
LINE
  8
DETAIL
  6
CONTINUOUS
 62
     5
 10
35.764885723276393
 20
-145.81565330101171
 30
0.0
 11
44.100670723775011
 21
-145.81565330101171
 31
0.0
  0
LINE
  8
DETAIL
  6
CONTINUOUS
 62
     5
 10
25.781691167395142
 20
-145.81565330101171
 30
0.0
 11
34.117476167893528
 21
-145.81565330101171
 31
0.0
  0
LINE
  8
DETAIL
  6
CONTINUOUS
 62
     5
 10
15.79849661151388
 20
-145.81565330101171
 30
0.0
 11
24.13428161201227
 21
-145.81565330101171
 31
0.0
  0
LINE
  8
DETAIL
  6
CONTINUOUS
 62
     5
 10
5.8153020556324009
 20
-145.81565330101171
 30
0.0
 11
14.151087056130789
 21
-145.81565330101171
 31
0.0
  0
LINE
  8
DETAIL
  6
CONTINUOUS
 62
     5
 10
143.5927479287329
 20
-145.7005089477527
 30
0.0
 11
135.7620849582477
 21
-145.7005089477527
 31
0.0
  0
LINE
  8
DETAIL
  6
CONTINUOUS
 62
     5
 10
125.7788904023666
 20
-145.7005089477527
 30
0.0
 11
133.7841680507488
 21
-145.7005089477527
 31
0.0
  0
LINE
  8
DETAIL
  6
CONTINUOUS
 62
     5
 10
115.7956958464854
 20
-145.7005089477527
 30
0.0
 11
123.80097349486751
 21
-145.7005089477527
 31
0.0
  0
LINE
  8
DETAIL
  6
CONTINUOUS
 62
     5
 10
105.8125012906039
 20
-145.7005089477527
 30
0.0
 11
113.81777893898609
 21
-145.7005089477527
 31
0.0
  0
LINE
  8
DETAIL
  6
CONTINUOUS
 62
     5
 10
95.82930673472265
 20
-145.7005089477527
 30
0.0
 11
103.8345843831048
 21
-145.7005089477527
 31
0.0
  0
LINE
  8
DETAIL
  6
CONTINUOUS
 62
     5
 10
85.846112178841167
 20
-145.7005089477527
 30
0.0
 11
93.851389827223329
 21
-145.7005089477527
 31
0.0
  0
LINE
  8
DETAIL
  6
CONTINUOUS
 62
     5
 10
75.862917622959912
 20
-145.7005089477527
 30
0.0
 11
83.868195271342074
 21
-145.7005089477527
 31
0.0
  0
LINE
  8
DETAIL
  6
CONTINUOUS
 62
     5
 10
65.87972306707843
 20
-145.7005089477527
 30
0.0
 11
73.885000715460592
 21
-145.7005089477527
 31
0.0
  0
LINE
  8
DETAIL
  6
CONTINUOUS
 62
     5
 10
55.896528511197182
 20
-145.7005089477527
 30
0.0
 11
63.90180615957911
 21
-145.7005089477527
 31
0.0
  0
LINE
  8
DETAIL
  6
CONTINUOUS
 62
     5
 10
45.91333395531592
 20
-145.7005089477527
 30
0.0
 11
53.918611603698082
 21
-145.7005089477527
 31
0.0
  0
LINE
  8
DETAIL
  6
CONTINUOUS
 62
     5
 10
35.930139399434438
 20
-145.7005089477527
 30
0.0
 11
43.9354170478166
 21
-145.7005089477527
 31
0.0
  0
LINE
  8
DETAIL
  6
CONTINUOUS
 62
     5
 10
25.94694484355318
 20
-145.7005089477527
 30
0.0
 11
33.952222491935338
 21
-145.7005089477527
 31
0.0
  0
LINE
  8
DETAIL
  6
CONTINUOUS
 62
     5
 10
15.963750287671701
 20
-145.7005089477527
 30
0.0
 11
23.969027936053859
 21
-145.7005089477527
 31
0.0
  0
LINE
  8
DETAIL
  6
CONTINUOUS
 62
     5
 10
5.9805557317904459
 20
-145.7005089477527
 30
0.0
 11
13.985833380172609
 21
-145.7005089477527
 31
0.0
  0
LINE
  8
DETAIL
  6
CONTINUOUS
 62
     5
 10
13.62617458901286
 20
-143.39327738757859
 30
0.0
 11
6.3402145227501023
 21
-143.39327738757859
 31
0.0
  0
LINE
  8
DETAIL
  6
CONTINUOUS
 62
     5
 10
23.609369144894341
 20
-143.39327738757859
 30
0.0
 11
16.323409078631581
 21
-143.39327738757859
 31
0.0
  0
LINE
  8
DETAIL
  6
CONTINUOUS
 62
     5
 10
33.5925637007756
 20
-143.39327738757859
 30
0.0
 11
26.30660363451284
 21
-143.39327738757859
 31
0.0
  0
LINE
  8
DETAIL
  6
CONTINUOUS
 62
     5
 10
43.575758256657082
 20
-143.39327738757859
 30
0.0
 11
36.289798190394322
 21
-143.39327738757859
 31
0.0
  0
LINE
  8
DETAIL
  6
CONTINUOUS
 62
     5
 10
53.558952812538337
 20
-143.39327738757859
 30
0.0
 11
46.272992746275577
 21
-143.39327738757859
 31
0.0
  0
LINE
  8
DETAIL
  6
CONTINUOUS
 62
     5
 10
63.542147368419592
 20
-143.39327738757859
 30
0.0
 11
56.256187302156832
 21
-143.39327738757859
 31
0.0
  0
LINE
  8
DETAIL
  6
CONTINUOUS
 62
     5
 10
73.525341924301301
 20
-143.39327738757859
 30
0.0
 11
66.239381858038314
 21
-143.39327738757859
 31
0.0
  0
LINE
  8
DETAIL
  6
CONTINUOUS
 62
     5
 10
83.508536480182556
 20
-143.39327738757859
 30
0.0
 11
76.222576413919569
 21
-143.39327738757859
 31
0.0
  0
LINE
  8
DETAIL
  6
CONTINUOUS
 62
     5
 10
93.491731036063811
 20
-143.39327738757859
 30
0.0
 11
86.205770969800597
 21
-143.39327738757859
 31
0.0
  0
LINE
  8
DETAIL
  6
CONTINUOUS
 62
     5
 10
103.47492559194509
 20
-143.39327738757859
 30
0.0
 11
96.188965525682079
 21
-143.39327738757859
 31
0.0
  0
LINE
  8
DETAIL
  6
CONTINUOUS
 62
     5
 10
113.45812014782631
 20
-143.39327738757859
 30
0.0
 11
106.1721600815636
 21
-143.39327738757859
 31
0.0
  0
LINE
  8
DETAIL
  6
CONTINUOUS
 62
     5
 10
123.4413147037076
 20
-143.39327738757859
 30
0.0
 11
116.1553546374448
 21
-143.39327738757859
 31
0.0
  0
LINE
  8
DETAIL
  6
CONTINUOUS
 62
     5
 10
133.42450925958909
 20
-143.39327738757859
 30
0.0
 11
126.1385491933261
 21
-143.39327738757859
 31
0.0
  0
LINE
  8
DETAIL
  6
CONTINUOUS
 62
     5
 10
13.61844203259307
 20
-143.25884187694061
 30
0.0
 11
6.3479470793699866
 21
-143.25884187694061
 31
0.0
  0
LINE
  8
DETAIL
  6
CONTINUOUS
 62
     5
 10
23.601636588474321
 20
-143.25884187694061
 30
0.0
 11
16.33114163525147
 21
-143.25884187694061
 31
0.0
  0
LINE
  8
DETAIL
  6
CONTINUOUS
 62
     5
 10
33.584831144355803
 20
-143.25884187694061
 30
0.0
 11
26.314336191132721
 21
-143.25884187694061
 31
0.0
  0
LINE
  8
DETAIL
  6
CONTINUOUS
 62
     5
 10
43.568025700236831
 20
-143.25884187694061
 30
0.0
 11
36.297530747014207
 21
-143.25884187694061
 31
0.0
  0
LINE
  8
DETAIL
  6
CONTINUOUS
 62
     5
 10
53.551220256118313
 20
-143.25884187694061
 30
0.0
 11
46.280725302895462
 21
-143.25884187694061
 31
0.0
  0
LINE
  8
DETAIL
  6
CONTINUOUS
 62
     5
 10
63.534414811999802
 20
-143.25884187694061
 30
0.0
 11
56.263919858776717
 21
-143.25884187694061
 31
0.0
  0
LINE
  8
DETAIL
  6
CONTINUOUS
 62
     5
 10
73.51760936788105
 20
-143.25884187694061
 30
0.0
 11
66.247114414658199
 21
-143.25884187694061
 31
0.0
  0
LINE
  8
DETAIL
  6
CONTINUOUS
 62
     5
 10
83.500803923762533
 20
-143.25884187694061
 30
0.0
 11
76.230308970539454
 21
-143.25884187694061
 31
0.0
  0
LINE
  8
DETAIL
  6
CONTINUOUS
 62
     5
 10
93.48399847964356
 20
-143.25884187694061
 30
0.0
 11
86.213503526420709
 21
-143.25884187694061
 31
0.0
  0
LINE
  8
DETAIL
  6
CONTINUOUS
 62
     5
 10
103.467193035525
 20
-143.25884187694061
 30
0.0
 11
96.196698082301964
 21
-143.25884187694061
 31
0.0
  0
LINE
  8
DETAIL
  6
CONTINUOUS
 62
     5
 10
113.4503875914063
 20
-143.25884187694061
 30
0.0
 11
106.1798926381832
 21
-143.25884187694061
 31
0.0
  0
LINE
  8
DETAIL
  6
CONTINUOUS
 62
     5
 10
123.43358214728759
 20
-143.25884187694061
 30
0.0
 11
116.1630871940645
 21
-143.25884187694061
 31
0.0
  0
LINE
  8
DETAIL
  6
CONTINUOUS
 62
     5
 10
133.41677670316901
 20
-143.25884187694061
 30
0.0
 11
126.1462817499455
 21
-143.25884187694061
 31
0.0
  0
LINE
  8
DETAIL
  6
CONTINUOUS
 62
     5
 10
83.359674541609593
 20
-142.75968214914661
 30
0.0
 11
81.862195358227154
 21
-142.75968214914661
 31
0.0
  0
LINE
  8
DETAIL
  6
CONTINUOUS
 62
     5
 10
87.852112091756226
 20
-142.75968214914661
 30
0.0
 11
86.354632908374015
 21
-142.75968214914661
 31
0.0
  0
LINE
  8
DETAIL
  6
CONTINUOUS
 62
     5
 10
13.47731265044013
 20
-87.852112091799142
 30
0.0
 11
6.4890764613230658
 21
-87.852112091799142
 31
0.0
  0
LINE
  8
DETAIL
  6
CONTINUOUS
 62
     5
 10
23.460507206321608
 20
-87.852112091799142
 30
0.0
 11
16.472271017204552
 21
-87.852112091799142
 31
0.0
  0
LINE
  8
DETAIL
  6
CONTINUOUS
 62
     5
 10
33.443701762202863
 20
-87.852112091799142
 30
0.0
 11
26.455465573085799
 21
-87.852112091799142
 31
0.0
  0
LINE
  8
DETAIL
  6
CONTINUOUS
 62
     5
 10
43.426896318084118
 20
-87.852112091799142
 30
0.0
 11
36.438660128967292
 21
-87.852112091799142
 31
0.0
  0
LINE
  8
DETAIL
  6
CONTINUOUS
 62
     5
 10
53.410090873965601
 20
-87.852112091799142
 30
0.0
 11
46.42185468484854
 21
-87.852112091799142
 31
0.0
  0
LINE
  8
DETAIL
  6
CONTINUOUS
 62
     5
 10
63.393285429846863
 20
-87.852112091799142
 30
0.0
 11
56.405049240730023
 21
-87.852112091799142
 31
0.0
  0
LINE
  8
DETAIL
  6
CONTINUOUS
 62
     5
 10
73.376479985728338
 20
-87.852112091799142
 30
0.0
 11
66.388243796611278
 21
-87.852112091799142
 31
0.0
  0
LINE
  8
DETAIL
  6
CONTINUOUS
 62
     5
 10
83.359674541609593
 20
-87.852112091799142
 30
0.0
 11
76.371438352492532
 21
-87.852112091799142
 31
0.0
  0
LINE
  8
DETAIL
  6
CONTINUOUS
 62
     5
 10
93.342869097491075
 20
-87.852112091799142
 30
0.0
 11
86.354632908374015
 21
-87.852112091799142
 31
0.0
  0
LINE
  8
DETAIL
  6
CONTINUOUS
 62
     5
 10
103.3260636533723
 20
-87.852112091799142
 30
0.0
 11
96.33782746425527
 21
-87.852112091799142
 31
0.0
  0
LINE
  8
DETAIL
  6
CONTINUOUS
 62
     5
 10
113.3092582092536
 20
-87.852112091799142
 30
0.0
 11
106.32102202013679
 21
-87.852112091799142
 31
0.0
  0
LINE
  8
DETAIL
  6
CONTINUOUS
 62
     5
 10
123.29245276513529
 20
-87.852112091799142
 30
0.0
 11
116.30421657601801
 21
-87.852112091799142
 31
0.0
  0
LINE
  8
DETAIL
  6
CONTINUOUS
 62
     5
 10
133.27564732101629
 20
-87.852112091799142
 30
0.0
 11
126.2874111318995
 21
-87.852112091799142
 31
0.0
  0
LINE
  8
DETAIL
  6
CONTINUOUS
 62
     5
 10
143.2588418768978
 20
-87.852112091799142
 30
0.0
 11
136.27060568778069
 21
-87.852112091799142
 31
0.0
  0
LINE
  8
DETAIL
  6
CONTINUOUS
 62
     5
 10
13.51278306868153
 20
-87.816641673557569
 30
0.0
 11
6.4536060430814359
 21
-87.816641673557569
 31
0.0
  0
LINE
  8
DETAIL
  6
CONTINUOUS
 62
     5
 10
23.49597762456278
 20
-87.816641673557569
 30
0.0
 11
16.436800598962918
 21
-87.816641673557569
 31
0.0
  0
LINE
  8
DETAIL
  6
CONTINUOUS
 62
     5
 10
33.479172180444273
 20
-87.816641673557569
 30
0.0
 11
26.41999515484417
 21
-87.816641673557569
 31
0.0
  0
LINE
  8
DETAIL
  6
CONTINUOUS
 62
     5
 10
43.462366736325748
 20
-87.816641673557569
 30
0.0
 11
36.403189710725663
 21
-87.816641673557569
 31
0.0
  0
LINE
  8
DETAIL
  6
CONTINUOUS
 62
     5
 10
53.445561292207003
 20
-87.816641673557569
 30
0.0
 11
46.38638426660691
 21
-87.816641673557569
 31
0.0
  0
LINE
  8
DETAIL
  6
CONTINUOUS
 62
     5
 10
63.428755848088258
 20
-87.816641673557569
 30
0.0
 11
56.369578822488172
 21
-87.816641673557569
 31
0.0
  0
LINE
  8
DETAIL
  6
CONTINUOUS
 62
     5
 10
73.41195040396974
 20
-87.816641673557569
 30
0.0
 11
66.35277337836942
 21
-87.816641673557569
 31
0.0
  0
LINE
  8
DETAIL
  6
CONTINUOUS
 62
     5
 10
83.395144959850768
 20
-87.816641673557569
 30
0.0
 11
76.335967934250675
 21
-87.816641673557569
 31
0.0
  0
LINE
  8
DETAIL
  6
CONTINUOUS
 62
     5
 10
93.378339515732478
 20
-87.816641673557569
 30
0.0
 11
86.319162490132157
 21
-87.816641673557569
 31
0.0
  0
LINE
  8
DETAIL
  6
CONTINUOUS
 62
     5
 10
103.36153407161351
 20
-87.816641673557569
 30
0.0
 11
96.302357046013412
 21
-87.816641673557569
 31
0.0
  0
LINE
  8
DETAIL
  6
CONTINUOUS
 62
     5
 10
113.3447286274948
 20
-87.816641673557569
 30
0.0
 11
106.28555160189489
 21
-87.816641673557569
 31
0.0
  0
LINE
  8
DETAIL
  6
CONTINUOUS
 62
     5
 10
123.3279231833765
 20
-87.816641673557569
 30
0.0
 11
116.26874615777611
 21
-87.816641673557569
 31
0.0
  0
LINE
  8
DETAIL
  6
CONTINUOUS
 62
     5
 10
133.3111177392577
 20
-87.816641673557569
 30
0.0
 11
126.2519407136574
 21
-87.816641673557569
 31
0.0
  0
LINE
  8
DETAIL
  6
CONTINUOUS
 62
     5
 10
143.2588418768978
 20
-87.816641673557569
 30
0.0
 11
136.23513526953909
 21
-87.816641673557569
 31
0.0
  0
LINE
  8
DETAIL
  6
CONTINUOUS
 62
     5
 10
13.529605775783921
 20
-87.317786020492207
 30
0.0
 11
6.4367833359790438
 21
-87.317786020492207
 31
0.0
  0
LINE
  8
DETAIL
  6
CONTINUOUS
 62
     5
 10
23.5128003316654
 20
-87.317786020492207
 30
0.0
 11
16.41997789186053
 21
-87.317786020492207
 31
0.0
  0
LINE
  8
DETAIL
  6
CONTINUOUS
 62
     5
 10
33.495994887546658
 20
-87.317786020492207
 30
0.0
 11
26.40317244774155
 21
-87.317786020492207
 31
0.0
  0
LINE
  8
DETAIL
  6
CONTINUOUS
 62
     5
 10
43.47918944342814
 20
-87.317786020492207
 30
0.0
 11
36.386367003623043
 21
-87.317786020492207
 31
0.0
  0
LINE
  8
DETAIL
  6
CONTINUOUS
 62
     5
 10
53.462383999309402
 20
-87.317786020492207
 30
0.0
 11
46.369561559504518
 21
-87.317786020492207
 31
0.0
  0
LINE
  8
DETAIL
  6
CONTINUOUS
 62
     5
 10
63.445578555190878
 20
-87.317786020492207
 30
0.0
 11
56.352756115385318
 21
-87.317786020492207
 31
0.0
  0
LINE
  8
DETAIL
  6
CONTINUOUS
 62
     5
 10
73.428773111071905
 20
-87.317786020492207
 30
0.0
 11
66.335950671267028
 21
-87.317786020492207
 31
0.0
  0
LINE
  8
DETAIL
  6
CONTINUOUS
 62
     5
 10
83.411967666953387
 20
-87.317786020492207
 30
0.0
 11
76.319145227148283
 21
-87.317786020492207
 31
0.0
  0
LINE
  8
DETAIL
  6
CONTINUOUS
 62
     5
 10
93.39516222283487
 20
-87.317786020492207
 30
0.0
 11
86.302339783029993
 21
-87.317786020492207
 31
0.0
  0
LINE
  8
DETAIL
  6
CONTINUOUS
 62
     5
 10
103.3783567787161
 20
-87.317786020492207
 30
0.0
 11
96.28553433891102
 21
-87.317786020492207
 31
0.0
  0
LINE
  8
DETAIL
  6
CONTINUOUS
 62
     5
 10
113.36155133459761
 20
-87.317786020492207
 30
0.0
 11
106.2687288947923
 21
-87.317786020492207
 31
0.0
  0
LINE
  8
DETAIL
  6
CONTINUOUS
 62
     5
 10
123.3447458904791
 20
-87.317786020492207
 30
0.0
 11
116.2519234506738
 21
-87.317786020492207
 31
0.0
  0
LINE
  8
DETAIL
  6
CONTINUOUS
 62
     5
 10
133.32794044635969
 20
-87.317786020492207
 30
0.0
 11
126.235118006555
 21
-87.317786020492207
 31
0.0
  0
LINE
  8
DETAIL
  6
CONTINUOUS
 62
     5
 10
143.2588418768978
 20
-87.317786020492207
 30
0.0
 11
136.21831256243669
 21
-87.317786020492207
 31
0.0
  0
LINE
  8
DETAIL
  6
CONTINUOUS
 62
     5
 10
136.21831256243669
 20
-86.389799251929958
 30
0.0
 11
143.2588418768978
 21
-86.389799251929958
 31
0.0
  0
LINE
  8
DETAIL
  6
CONTINUOUS
 62
     5
 10
126.235118006555
 20
-86.389799251929958
 30
0.0
 11
133.32794044635969
 21
-86.389799251929958
 31
0.0
  0
LINE
  8
DETAIL
  6
CONTINUOUS
 62
     5
 10
116.2519234506738
 20
-86.389799251929958
 30
0.0
 11
123.3447458904791
 21
-86.389799251929958
 31
0.0
  0
LINE
  8
DETAIL
  6
CONTINUOUS
 62
     5
 10
106.2687288947923
 20
-86.389799251929958
 30
0.0
 11
113.36155133459761
 21
-86.389799251929958
 31
0.0
  0
LINE
  8
DETAIL
  6
CONTINUOUS
 62
     5
 10
96.28553433891102
 20
-86.389799251929958
 30
0.0
 11
103.3783567787161
 21
-86.389799251929958
 31
0.0
  0
LINE
  8
DETAIL
  6
CONTINUOUS
 62
     5
 10
86.302339783029993
 20
-86.389799251929958
 30
0.0
 11
93.39516222283487
 21
-86.389799251929958
 31
0.0
  0
LINE
  8
DETAIL
  6
CONTINUOUS
 62
     5
 10
76.319145227148283
 20
-86.389799251929958
 30
0.0
 11
83.411967666953387
 21
-86.389799251929958
 31
0.0
  0
LINE
  8
DETAIL
  6
CONTINUOUS
 62
     5
 10
66.335950671267028
 20
-86.389799251929958
 30
0.0
 11
73.428773111071905
 21
-86.389799251929958
 31
0.0
  0
LINE
  8
DETAIL
  6
CONTINUOUS
 62
     5
 10
56.352756115385318
 20
-86.389799251929958
 30
0.0
 11
63.445578555190878
 21
-86.389799251929958
 31
0.0
  0
LINE
  8
DETAIL
  6
CONTINUOUS
 62
     5
 10
46.369561559504518
 20
-86.389799251929958
 30
0.0
 11
53.462383999309402
 21
-86.389799251929958
 31
0.0
  0
LINE
  8
DETAIL
  6
CONTINUOUS
 62
     5
 10
36.386367003623043
 20
-86.389799251929958
 30
0.0
 11
43.47918944342814
 21
-86.389799251929958
 31
0.0
  0
LINE
  8
DETAIL
  6
CONTINUOUS
 62
     5
 10
26.40317244774155
 20
-86.389799251929958
 30
0.0
 11
33.495994887546658
 21
-86.389799251929958
 31
0.0
  0
LINE
  8
DETAIL
  6
CONTINUOUS
 62
     5
 10
16.41997789186053
 20
-86.389799251929958
 30
0.0
 11
23.5128003316654
 21
-86.389799251929958
 31
0.0
  0
LINE
  8
DETAIL
  6
CONTINUOUS
 62
     5
 10
6.4367833359790438
 20
-86.389799251929958
 30
0.0
 11
13.529605775783921
 21
-86.389799251929958
 31
0.0
  0
LINE
  8
DETAIL
  6
CONTINUOUS
 62
     5
 10
136.23513526953909
 20
-85.890943598864567
 30
0.0
 11
143.2588418768978
 21
-85.890943598864567
 31
0.0
  0
LINE
  8
DETAIL
  6
CONTINUOUS
 62
     5
 10
126.2519407136574
 20
-85.890943598864567
 30
0.0
 11
133.3111177392577
 21
-85.890943598864567
 31
0.0
  0
LINE
  8
DETAIL
  6
CONTINUOUS
 62
     5
 10
116.26874615777611
 20
-85.890943598864567
 30
0.0
 11
123.3279231833765
 21
-85.890943598864567
 31
0.0
  0
LINE
  8
DETAIL
  6
CONTINUOUS
 62
     5
 10
106.28555160189489
 20
-85.890943598864567
 30
0.0
 11
113.3447286274948
 21
-85.890943598864567
 31
0.0
  0
LINE
  8
DETAIL
  6
CONTINUOUS
 62
     5
 10
96.302357046013412
 20
-85.890943598864567
 30
0.0
 11
103.36153407161351
 21
-85.890943598864567
 31
0.0
  0
LINE
  8
DETAIL
  6
CONTINUOUS
 62
     5
 10
86.319162490132157
 20
-85.890943598864567
 30
0.0
 11
93.378339515732478
 21
-85.890943598864567
 31
0.0
  0
LINE
  8
DETAIL
  6
CONTINUOUS
 62
     5
 10
76.335967934250675
 20
-85.890943598864567
 30
0.0
 11
83.395144959850768
 21
-85.890943598864567
 31
0.0
  0
LINE
  8
DETAIL
  6
CONTINUOUS
 62
     5
 10
66.35277337836942
 20
-85.890943598864567
 30
0.0
 11
73.41195040396974
 21
-85.890943598864567
 31
0.0
  0
LINE
  8
DETAIL
  6
CONTINUOUS
 62
     5
 10
56.369578822488172
 20
-85.890943598864567
 30
0.0
 11
63.428755848088258
 21
-85.890943598864567
 31
0.0
  0
LINE
  8
DETAIL
  6
CONTINUOUS
 62
     5
 10
46.38638426660691
 20
-85.890943598864567
 30
0.0
 11
53.445561292207003
 21
-85.890943598864567
 31
0.0
  0
LINE
  8
DETAIL
  6
CONTINUOUS
 62
     5
 10
36.403189710725663
 20
-85.890943598864567
 30
0.0
 11
43.462366736325748
 21
-85.890943598864567
 31
0.0
  0
LINE
  8
DETAIL
  6
CONTINUOUS
 62
     5
 10
26.41999515484417
 20
-85.890943598864567
 30
0.0
 11
33.479172180444273
 21
-85.890943598864567
 31
0.0
  0
LINE
  8
DETAIL
  6
CONTINUOUS
 62
     5
 10
16.436800598962918
 20
-85.890943598864567
 30
0.0
 11
23.49597762456278
 21
-85.890943598864567
 31
0.0
  0
LINE
  8
DETAIL
  6
CONTINUOUS
 62
     5
 10
6.4536060430814359
 20
-85.890943598864567
 30
0.0
 11
13.51278306868153
 21
-85.890943598864567
 31
0.0
  0
LINE
  8
DETAIL
  6
CONTINUOUS
 62
     5
 10
13.47731265044013
 20
-85.85547318062288
 30
0.0
 11
6.4890764613230658
 21
-85.85547318062288
 31
0.0
  0
LINE
  8
DETAIL
  6
CONTINUOUS
 62
     5
 10
23.460507206321608
 20
-85.85547318062288
 30
0.0
 11
16.472271017204552
 21
-85.85547318062288
 31
0.0
  0
LINE
  8
DETAIL
  6
CONTINUOUS
 62
     5
 10
33.443701762202863
 20
-85.85547318062288
 30
0.0
 11
26.455465573085799
 21
-85.85547318062288
 31
0.0
  0
LINE
  8
DETAIL
  6
CONTINUOUS
 62
     5
 10
43.426896318084118
 20
-85.85547318062288
 30
0.0
 11
36.438660128967292
 21
-85.85547318062288
 31
0.0
  0
LINE
  8
DETAIL
  6
CONTINUOUS
 62
     5
 10
53.410090873965601
 20
-85.85547318062288
 30
0.0
 11
46.42185468484854
 21
-85.85547318062288
 31
0.0
  0
LINE
  8
DETAIL
  6
CONTINUOUS
 62
     5
 10
63.393285429846863
 20
-85.85547318062288
 30
0.0
 11
56.405049240730023
 21
-85.85547318062288
 31
0.0
  0
LINE
  8
DETAIL
  6
CONTINUOUS
 62
     5
 10
73.376479985728338
 20
-85.85547318062288
 30
0.0
 11
66.388243796611278
 21
-85.85547318062288
 31
0.0
  0
LINE
  8
DETAIL
  6
CONTINUOUS
 62
     5
 10
83.359674541609593
 20
-85.85547318062288
 30
0.0
 11
76.371438352492532
 21
-85.85547318062288
 31
0.0
  0
LINE
  8
DETAIL
  6
CONTINUOUS
 62
     5
 10
93.342869097491075
 20
-85.85547318062288
 30
0.0
 11
86.354632908374015
 21
-85.85547318062288
 31
0.0
  0
LINE
  8
DETAIL
  6
CONTINUOUS
 62
     5
 10
103.3260636533723
 20
-85.85547318062288
 30
0.0
 11
96.33782746425527
 21
-85.85547318062288
 31
0.0
  0
LINE
  8
DETAIL
  6
CONTINUOUS
 62
     5
 10
113.3092582092536
 20
-85.85547318062288
 30
0.0
 11
106.32102202013679
 21
-85.85547318062288
 31
0.0
  0
LINE
  8
DETAIL
  6
CONTINUOUS
 62
     5
 10
123.29245276513529
 20
-85.85547318062288
 30
0.0
 11
116.30421657601801
 21
-85.85547318062288
 31
0.0
  0
LINE
  8
DETAIL
  6
CONTINUOUS
 62
     5
 10
133.27564732101629
 20
-85.85547318062288
 30
0.0
 11
126.2874111318995
 21
-85.85547318062288
 31
0.0
  0
LINE
  8
DETAIL
  6
CONTINUOUS
 62
     5
 10
143.2588418768978
 20
-85.85547318062288
 30
0.0
 11
136.27060568778069
 21
-85.85547318062288
 31
0.0
  0
LINE
  8
DETAIL
  6
CONTINUOUS
 62
     5
 10
81.862195358227154
 20
-142.75968214914661
 30
0.0
 11
81.862195358227154
 21
-143.25884187694061
 31
0.0
  0
LINE
  8
DETAIL
  6
CONTINUOUS
 62
     5
 10
87.852112091756226
 20
-143.25884187694061
 30
0.0
 11
87.852112091756226
 21
-142.75968214914661
 31
0.0
  0
ARC
  8
DETAIL
  6
CONTINUOUS
 62
     5
 10
-170.88053788041449
 20
170.95080880053979
 30
0.0
 40
2.1200152863025341
 50
93.326730717847255
 51
178.57414105022499
  0
ARC
  8
DETAIL
  6
CONTINUOUS
 62
     5
 10
-168.95541409806259
 20
168.955338025771
 30
0.0
 40
0.999685465360204
 50
90.085113642763062
 51
179.91305746722489
  0
ARC
  8
DETAIL
  6
CONTINUOUS
 62
     5
 10
-166.40965631240439
 20
168.7584637239631
 30
0.0
 40
2.7232944162752521
 50
155.52985211895009
 51
177.26654450055409
  0
LINE
  8
DETAIL
  6
CONTINUOUS
 62
     5
 10
-72.015986324779533
 20
173.06725154753551
 30
0.0
 11
171.00356191402579
 21
173.06725154753551
 31
0.0
  0
LINE
  8
DETAIL
  6
CONTINUOUS
 62
     5
 10
168.95689914357561
 20
169.9550223881034
 30
0.0
 11
-72.636665685272874
 21
169.9550223881034
 31
0.0
  0
LINE
  8
DETAIL
  6
CONTINUOUS
 62
     5
 10
-72.259500325005092
 20
171.4700924674394
 30
0.0
 11
170.47192506065289
 21
171.4700924674394
 31
0.0
  0
LINE
  8
DETAIL
  6
CONTINUOUS
 62
     5
 10
-72.015986324779533
 20
172.46825987418251
 30
0.0
 11
170.47192506065289
 21
172.46825987418251
 31
0.0
  0
ARC
  8
DETAIL
  6
CONTINUOUS
 62
     5
 10
168.95671970483821
 20
168.95837860932559
 30
0.0
 40
0.9966437865647621
 50
0.0091997482960742
 51
89.989684709909454
  0
ARC
  8
DETAIL
  6
CONTINUOUS
 62
     5
 10
170.47198465473389
 20
170.4719846547772
 30
0.0
 40
0.9981051026242402
 50
359.99657904470172
 51
90.003420956594582
  0
ARC
  8
DETAIL
  6
CONTINUOUS
 62
     5
 10
168.88797214724721
 20
168.88797214689129
 30
0.0
 40
0.9985345479073984
 50
0.0209252845003805
 51
89.979074731686353
  0
ARC
  8
DETAIL
  6
CONTINUOUS
 62
     5
 10
171.00339386979911
 20
171.00566886677311
 30
0.0
 40
1.994227867862397
 50
0.005957690799547
 51
89.995171949895564
  0
ARC
  8
DETAIL
  6
CONTINUOUS
 62
     5
 10
170.47162105181411
 20
170.47162105185669
 30
0.0
 40
1.996638845486794
 50
0.0087238730971011
 51
89.991276127020143
  0
LINE
  8
DETAIL
  6
CONTINUOUS
 62
     5
 10
154.56702142748921
 20
169.82417734556699
 30
0.0
 11
168.8883368259574
 21
169.88650423274331
 31
0.0
  0
LINE
  8
DETAIL
  6
CONTINUOUS
 62
     5
 10
154.6895996433816
 20
168.82549232036911
 30
0.0
 11
169.12985216106739
 21
168.8883368260002
 31
0.0
  0
LINE
  8
DETAIL
  6
CONTINUOUS
 62
     5
 10
171.4700924673966
 20
170.47192506069629
 30
0.0
 11
172.46825987413919
 21
170.47192506069629
 31
0.0
  0
LINE
  8
DETAIL
  6
CONTINUOUS
 62
     5
 10
169.12985216106739
 20
168.8883368260002
 30
0.0
 11
169.88650423270039
 21
168.8883368260002
 31
0.0
  0
LINE
  8
DETAIL
  6
CONTINUOUS
 62
     5
 10
172.99990390013019
 20
171.01933304525861
 30
0.0
 11
172.99997275202671
 21
-109.3730977753651
 31
0.0
  0
LINE
  8
DETAIL
  6
CONTINUOUS
 62
     5
 10
170.47192506065289
 20
172.46825987418251
 30
0.0
 11
171.00356191411771
 21
172.9998967276473
 31
0.0
  0
LINE
  8
DETAIL
  6
CONTINUOUS
 62
     5
 10
169.88650423270039
 20
168.8883368260002
 30
0.0
 11
169.95502238806031
 21
168.95685498136041
 31
0.0
  0
LINE
  8
DETAIL
  6
CONTINUOUS
 62
     5
 10
172.46825987413919
 20
170.47192506069629
 30
0.0
 11
172.99989672760401
 21
171.003561914161
 31
0.0
  0
LINE
  8
DETAIL
  6
CONTINUOUS
 62
     5
 10
168.8883368259574
 20
169.88650423274331
 30
0.0
 11
168.95689914357561
 21
169.9550223881034
 31
0.0
  0
LINE
  8
DETAIL
  6
CONTINUOUS
 62
     5
 10
169.12985216106739
 20
168.8883368260002
 30
0.0
 11
169.12985216106739
 21
-168.88833682591351
 31
0.0
  0
LINE
  8
DETAIL
  6
CONTINUOUS
 62
     5
 10
169.88650423270039
 20
168.8883368260002
 30
0.0
 11
169.88650423270039
 21
-168.88833682591351
 31
0.0
  0
LINE
  8
DETAIL
  6
CONTINUOUS
 62
     5
 10
169.95509841248281
 20
-168.95685498127361
 30
0.0
 11
169.95509841248281
 21
168.95685498136041
 31
0.0
  0
LINE
  8
DETAIL
  6
CONTINUOUS
 62
     5
 10
170.47192506065289
 20
171.4700924674394
 30
0.0
 11
170.47192506085281
 21
172.46825987418251
 31
0.0
  0
LINE
  8
DETAIL
  6
CONTINUOUS
 62
     5
 10
171.4700924673966
 20
170.47192506069629
 30
0.0
 11
171.4700924673966
 21
-170.47192506060941
 31
0.0
  0
LINE
  8
DETAIL
  6
CONTINUOUS
 62
     5
 10
172.46825987413919
 20
170.47192506069629
 30
0.0
 11
172.46825987413919
 21
-170.47192506060941
 31
0.0
  0
ARC
  8
DETAIL
  6
CONTINUOUS
 62
     5
 10
170.88053788041469
 20
170.95080880053979
 30
0.0
 40
2.1200152863025341
 50
1.4258589497749581
 51
86.673269282152745
  0
ARC
  8
DETAIL
  6
CONTINUOUS
 62
     5
 10
168.95541409806259
 20
168.955338025771
 30
0.0
 40
0.999685465360204
 50
0.0869425327685785
 51
89.914886357236952
  0
ARC
  8
DETAIL
  6
CONTINUOUS
 62
     5
 10
166.40965631240439
 20
168.7584637239631
 30
0.0
 40
2.7232944162752521
 50
2.733455499445884
 51
24.470147881049542
  0
ARC
  8
DETAIL
  6
CONTINUOUS
 62
     5
 10
171.0036548040346
 20
-171.0036621493945
 30
0.0
 40
1.9963106047497221
 50
269.99733398190119
 51
359.55022760048769
  0
ARC
  8
DETAIL
  6
CONTINUOUS
 62
     5
 10
168.9568838146304
 20
-168.95688381458649
 30
0.0
 40
0.9982145982691708
 50
269.99834501801968
 51
0.0016549819477626
  0
ARC
  8
DETAIL
  6
CONTINUOUS
 62
     5
 10
165.01728244699461
 20
-168.42156668796301
 30
0.0
 40
4.1389737876353569
 50
339.27166699612388
 51
353.52472962493118
  0
ARC
  8
DETAIL
  6
CONTINUOUS
 62
     5
 10
-166.94641352248729
 20
-168.88833682591351
 30
0.0
 40
2.1834386385800029
 50
180.0
 51
207.20360338048869
  0
ARC
  8
DETAIL
  6
CONTINUOUS
 62
     5
 10
-168.96384560192311
 20
-168.9639214109105
 30
0.0
 40
0.9912016531138757
 50
179.59407848856009
 51
270.40409171651743
  0
ARC
  8
DETAIL
  6
CONTINUOUS
 62
     5
 10
-171.00389940477041
 20
-171.00356191407431
 30
0.0
 40
1.9960733472560881
 50
180.0
 51
269.94325659059388
  0
ARC
  8
DETAIL
  6
CONTINUOUS
 62
     5
 10
63.4468917018919
 20
83.786411873585507
 30
0.0
 40
25.497004130178212
 50
113.6284253075425
 51
131.89255068093979
  0
ARC
  8
DETAIL
  6
CONTINUOUS
 62
     5
 10
30.901817931854112
 20
118.03831760698711
 30
0.0
 40
21.493864397557271
 50
284.92775855963379
 51
305.64283816194012
  0
ARC
  8
DETAIL
  6
CONTINUOUS
 62
     5
 10
41.126840602045597
 20
64.253785520017459
 30
0.0
 40
33.096035243110613
 50
103.4236436199951
 51
116.3147556479755
  0
ARC
  8
DETAIL
  6
CONTINUOUS
 62
     5
 10
250.71387123603401
 20
-222.28467933249689
 30
0.0
 40
387.90795394785442
 50
125.8626780453879
 51
126.87582477420371
  0
ARC
  8
DETAIL
  6
CONTINUOUS
 62
     5
 10
56.556073520193422
 20
41.24659405202749
 30
0.0
 40
61.112366542254037
 50
150.26010116024651
 51
169.30464988979949
  0
ARC
  8
DETAIL
  6
CONTINUOUS
 62
     5
 10
70.123660449954059
 20
58.989618597963272
 30
0.0
 40
126.6317808725578
 50
156.97930061150879
 51
166.8247970937187
  0
ARC
  8
DETAIL
  6
CONTINUOUS
 62
     5
 10
16.824962296527019
 20
66.620718442951556
 30
0.0
 40
71.806193182735328
 50
192.0076084509725
 51
208.25832213283701
  0
ARC
  8
DETAIL
  6
CONTINUOUS
 62
     5
 10
52910.575317125033
 20
37376.011128837643
 30
0.0
 40
64800.295853208518
 50
215.1957482993642
 51
215.19906774357949
  0
ARC
  8
DETAIL
  6
CONTINUOUS
 62
     5
 10
62.842617186675398
 20
172.79562211046681
 30
0.0
 40
196.77855230058651
 50
230.09496594856219
 51
232.6990331673056
  0
ARC
  8
DETAIL
  6
CONTINUOUS
 62
     5
 10
-19.866479843326491
 20
66.933902459431351
 30
0.0
 40
62.737559356650003
 50
211.46950870776001
 51
222.13715732367231
  0
ARC
  8
DETAIL
  6
CONTINUOUS
 62
     5
 10
-32.592094804002272
 20
60.599381248812733
 30
0.0
 40
49.257654921129287
 50
178.381646061412
 51
207.2790997928474
  0
ARC
  8
DETAIL
  6
CONTINUOUS
 62
     5
 10
-106.89422761378709
 20
65.325415180993218
 30
0.0
 40
25.28501542765397
 50
352.42102727983462
 51
21.44282234886234
  0
ARC
  8
DETAIL
  6
CONTINUOUS
 62
     5
 10
-139.67199187526651
 20
87.992221651609725
 30
0.0
 40
174.55790101088991
 50
307.48542365302029
 51
310.43552469791462
  0
ARC
  8
DETAIL
  6
CONTINUOUS
 62
     5
 10
-71.128458519379137
 20
235.40025482199951
 30
0.0
 40
296.05116195001148
 50
269.56492665667031
 51
270.9174317755942
  0
ARC
  8
DETAIL
  6
CONTINUOUS
 62
     5
 10
-62.581855654471383
 20
2.1221774440398349
 30
0.0
 40
64.036829230509099
 50
251.06659164699531
 51
257.49426054651889
  0
ARC
  8
DETAIL
  6
CONTINUOUS
 62
     5
 10
-99.057798729284741
 20
-99.494355731542271
 30
0.0
 40
44.046928240928708
 50
73.237803190388703
 51
82.545062975333209
  0
ARC
  8
DETAIL
  6
CONTINUOUS
 62
     5
 10
-100.6451441900401
 20
80.63107171311691
 30
0.0
 40
136.46015369533669
 50
268.87425862630357
 51
271.80882156352811
  0
ARC
  8
DETAIL
  6
CONTINUOUS
 62
     5
 10
-142.1718031999749
 20
27.385530695349079
 30
0.0
 40
186.8139750367562
 50
317.93351354424323
 51
321.23657654405901
  0
ARC
  8
DETAIL
  6
CONTINUOUS
 62
     5
 10
-61.447940275307928
 20
-40.260588375872999
 30
0.0
 40
81.536245698447502
 50
326.20852001142612
 51
336.77408241698879
  0
ARC
  8
DETAIL
  6
CONTINUOUS
 62
     5
 10
-49.808516268156843
 20
-44.323368003855762
 30
0.0
 40
69.173928062295403
 50
343.37442588336512
 51
0.6631192512324307
  0
ARC
  8
DETAIL
  6
CONTINUOUS
 62
     5
 10
-18.50937400029466
 20
-64.977597487022763
 30
0.0
 40
58.963799023607457
 50
339.26288801622911
 51
21.267581029631021
  0
ARC
  8
DETAIL
  6
CONTINUOUS
 62
     5
 10
-140.82925586519309
 20
27.582872359823401
 30
0.0
 40
211.4339911552934
 50
322.29674767607258
 51
325.51168307410711
  0
ARC
  8
DETAIL
  6
CONTINUOUS
 62
     5
 10
-11.74771604142188
 20
-100.6822860812625
 30
0.0
 40
36.023171856955678
 50
330.97541952921978
 51
347.78312118268269
  0
ARC
  8
DETAIL
  6
CONTINUOUS
 62
     5
 10
-4.5079921806861876
 20
-83.099790673058692
 30
0.0
 40
108.231537945008
 50
4.9060944776806634
 51
21.282008414006832
  0
ARC
  8
DETAIL
  6
CONTINUOUS
 62
     5
 10
10.405731689774029
 20
-77.13408389862434
 30
0.0
 40
92.146780397802502
 50
25.831318755175779
 51
34.484515244079432
  0
ARC
  8
DETAIL
  6
CONTINUOUS
 62
     5
 10
-76.890766744849088
 20
-156.07999136980979
 30
0.0
 40
209.67225178849171
 50
40.153048793622531
 51
43.031809095377312
  0
ARC
  8
DETAIL
  6
CONTINUOUS
 62
     5
 10
-28.43114754474573
 20
-164.6817035603265
 30
0.0
 40
210.69058067854601
 50
54.691755066309113
 51
56.988401442376187
  0
ARC
  8
DETAIL
  6
CONTINUOUS
 62
     5
 10
68.310621744680475
 20
-24.323333726733839
 30
0.0
 40
40.505867301391241
 50
30.180843858705931
 51
46.115857168963551
  0
ARC
  8
DETAIL
  6
CONTINUOUS
 62
     5
 10
176.63950298787361
 20
76.070573102080914
 30
0.0
 40
109.4655114533553
 50
230.0304625251791
 51
234.65190194558701
  0
ARC
  8
DETAIL
  6
CONTINUOUS
 62
     5
 10
124.94434116301569
 20
-9.2540217378028728
 30
0.0
 40
10.62362068880557
 50
215.5291996284017
 51
261.05466623572511
  0
LINE
  8
OUTLINE
  6
CONTINUOUS
 62
     3
 10
72.01598632477976
 20
173.06725154753539
 30
0.0
 11
-171.0035619140256
 21
173.06725154753539
 31
0.0
  0
LINE
  8
OUTLINE
  6
CONTINUOUS
 62
     3
 10
172.99991763334009
 20
91.981668867072131
 30
0.0
 11
172.9999756299101
 21
-127.23830420473389
 31
0.0
  0
LINE
  8
OUTLINE
  6
CONTINUOUS
 62
     3
 10
-171.00587623429601
 20
-172.99963428244459
 30
0.0
 11
-32.652536471604208
 21
-172.99997275198311
 31
0.0
  0
ARC
  8
OUTLINE
  6
CONTINUOUS
 62
     3
 10
171.0033938697986
 20
-171.00566886668651
 30
0.0
 40
1.994227867862526
 50
270.00482805000672
 51
359.99404230919401
  0
ARC
  8
OUTLINE
  6
CONTINUOUS
 62
     3
 10
29.949583667643989
 20
-178.69918255023279
 30
0.0
 40
1.996638911176273
 50
270.0
 51
0.0
  0
ARC
  8
OUTLINE
  6
CONTINUOUS
 62
     3
 10
-29.94958366764422
 20
-178.69918255023279
 30
0.0
 40
1.996638911176158
 50
180.0
 51
270.0
  0
ARC
  8
OUTLINE
  6
CONTINUOUS
 62
     3
 10
-172.59518454292859
 20
-127.2285807060337
 30
0.0
 40
0.4047878648773911
 50
170.5005250786983
 51
180.01493811598681
  0
ARC
  8
OUTLINE
  6
CONTINUOUS
 62
     3
 10
-172.59518454292859
 20
-109.3731302682675
 30
0.0
 40
0.4047878648776745
 50
179.9850618841956
 51
189.4994749211036
  0
ARC
  8
OUTLINE
  6
CONTINUOUS
 62
     3
 10
-171.00566886692951
 20
-171.00339386975551
 30
0.0
 40
1.9942278676629539
 50
180.0048280499025
 51
269.99404230928508
  0
LINE
  8
OUTLINE
  6
CONTINUOUS
 62
     3
 10
-172.99990390012999
 20
171.01933304525849
 30
0.0
 11
-172.99997275202671
 21
-109.3730977753652
 31
0.0
  0
LINE
  8
OUTLINE
  6
CONTINUOUS
 62
     3
 10
-31.946222578820429
 20
-172.76480142054581
 30
0.0
 11
-32.652082053160257
 21
-172.99989672736081
 31
0.0
  0
LINE
  8
OUTLINE
  6
CONTINUOUS
 62
     3
 10
31.946222578820201
 20
-172.73866282416381
 30
0.0
 11
31.946222578820201
 21
-178.69918255023279
 31
0.0
  0
LINE
  8
OUTLINE
  6
CONTINUOUS
 62
     3
 10
-31.946222578820429
 20
-178.69918255023279
 30
0.0
 11
-31.946222578820429
 21
-172.73866282416381
 31
0.0
  0
LINE
  8
OUTLINE
  6
CONTINUOUS
 62
     3
 10
31.9488347387794
 20
-172.76567143298999
 30
0.0
 11
32.652082053160029
 21
-172.99989672736081
 31
0.0
  0
LINE
  8
OUTLINE
  6
CONTINUOUS
 62
     3
 10
-172.82430757571109
 20
-126.1465855329225
 30
0.0
 11
-172.99440462566241
 21
-127.1616744352698
 31
0.0
  0
LINE
  8
OUTLINE
  6
CONTINUOUS
 62
     3
 10
32.652082053160029
 20
-172.99989672736081
 30
0.0
 11
32.652545489623442
 21
-172.9999517721001
 31
0.0
  0
LINE
  8
OUTLINE
  6
CONTINUOUS
 62
     3
 10
171.00356191411771
 20
-172.99997275198311
 30
0.0
 11
32.652535546960728
 21
-172.99997275198311
 31
0.0
  0
LINE
  8
OUTLINE
  6
CONTINUOUS
 62
     3
 10
29.949583667643989
 20
-180.695821461409
 30
0.0
 11
-29.94958366764422
 21
-180.695821461409
 31
0.0
  0
LINE
  8
OUTLINE
  6
CONTINUOUS
 62
     3
 10
172.99990390012979
 20
-171.01933304517209
 30
0.0
 11
172.99989672740389
 21
-127.2383042047546
 31
0.0
  0
LINE
  8
OUTLINE
  6
CONTINUOUS
 62
     3
 10
-32.652082053160257
 20
-172.99989672736081
 30
0.0
 11
-32.652543835208462
 21
-172.9999579662732
 31
0.0
  0
LINE
  8
OUTLINE
  6
CONTINUOUS
 62
     3
 10
-172.99989672760401
 20
-109.3652753835713
 30
0.0
 11
-172.99997365790111
 21
-109.3730247319245
 31
0.0
  0
LINE
  8
OUTLINE
  6
CONTINUOUS
 62
     3
 10
-172.82431086277759
 20
-110.4551058255995
 30
0.0
 11
-172.82430757571109
 21
-126.1465855329225
 31
0.0
  0
LINE
  8
OUTLINE
  6
CONTINUOUS
 62
     3
 10
-172.99997275202671
 20
-171.0035619140746
 30
0.0
 11
-172.99997275202671
 21
-127.228613198936
 31
0.0
  0
LINE
  8
OUTLINE
  6
CONTINUOUS
 62
     3
 10
-172.99997365790111
 20
-127.22868624217701
 30
0.0
 11
-172.99989672760401
 21
-127.2364355907297
 31
0.0
  0
LINE
  8
OUTLINE
  6
CONTINUOUS
 62
     3
 10
-172.99440462566241
 20
-109.4400365390314
 30
0.0
 11
-172.82431086277759
 21
-110.4551058255995
 31
0.0
  0
ARC
  8
OUTLINE
  6
CONTINUOUS
 62
     3
 10
-170.88053788041449
 20
170.9508088005397
 30
0.0
 40
2.1200152863025341
 50
93.326730717847255
 51
178.57414105022499
  0
LINE
  8
OUTLINE
  6
CONTINUOUS
 62
     3
 10
-72.015986324779533
 20
173.06725154753539
 30
0.0
 11
171.00356191402579
 21
173.06725154753539
 31
0.0
  0
LINE
  8
OUTLINE
  6
CONTINUOUS
 62
     3
 10
172.99990390013019
 20
171.01933304525849
 30
0.0
 11
172.99997275202671
 21
-109.3730977753652
 31
0.0
  0
ARC
  8
OUTLINE
  6
CONTINUOUS
 62
     3
 10
170.88053788041469
 20
170.9508088005397
 30
0.0
 40
2.1200152863025341
 50
1.4258589497749581
 51
86.673269282152745
  0
ARC
  8
OUTLINE
  6
CONTINUOUS
 62
     3
 10
171.0036548040346
 20
-171.0036621493947
 30
0.0
 40
1.9963106047497221
 50
269.99733398190119
 51
359.55022760048769
  0
ARC
  8
OUTLINE
  6
CONTINUOUS
 62
     3
 10
-171.00389940477041
 20
-171.0035619140746
 30
0.0
 40
1.9960733472560881
 50
180.0
 51
269.94325659059388
  0
ENDSEC
  0
EOF
