  0
SECTION
  2
HEADER
  9
$ACADVER
  1
AC1009
  9
$DWGCODEPAGE
  3
dos932
  9
$INSBASE
 10
0.0
 20
0.0
 30
0.0
  9
$EXTMIN
 10
-499.05321012503049
 20
-391.99999995840932
 30
0.0
  9
$EXTMAX
 10
1001.2882990895311
 20
445.17476101558191
 30
0.0
  9
$LIMMIN
 10
-2970.0
 20
-2100.0
  9
$LIMMAX
 10
2970.0
 20
2100.0
  9
$ORTHOMODE
 70
     1
  9
$REGENMODE
 70
     1
  9
$FILLMODE
 70
     1
  9
$QTEXTMODE
 70
     0
  9
$MIRRTEXT
 70
     0
  9
$LTSCALE
 40
20.0
  9
$ATTMODE
 70
     1
  9
$TEXTSIZE
 40
64.0
  9
$TRACEWID
 40
0.05
  9
$TEXTSTYLE
  7
STANDARD
  9
$CLAYER
  8
NOTE
  9
$CELTYPE
  6
CONTINUOUS
  9
$CECOLOR
 62
     7
  9
$DIMSCALE
 40
1.0
  9
$DIMASZ
 40
12.0
  9
$DIMEXO
 40
20.0
  9
$DIMDLI
 40
200.0
  9
$DIMRND
 40
0.0
  9
$DIMDLE
 40
0.0
  9
$DIMEXE
 40
20.0
  9
$DIMTP
 40
0.0
  9
$DIMTM
 40
0.0
  9
$DIMTXT
 40
64.0
  9
$DIMCEN
 40
0.09
  9
$DIMTSZ
 40
0.0
  9
$DIMTOL
 70
     0
  9
$DIMLIM
 70
     0
  9
$DIMTIH
 70
     0
  9
$DIMTOH
 70
     0
  9
$DIMSE1
 70
     0
  9
$DIMSE2
 70
     0
  9
$DIMTAD
 70
     1
  9
$DIMZIN
 70
     8
  9
$DIMBLK
  1

  9
$DIMASO
 70
     1
  9
$DIMSHO
 70
     0
  9
$DIMPOST
  1

  9
$DIMAPOST
  1

  9
$DIMALT
 70
     0
  9
$DIMALTD
 70
     2
  9
$DIMALTF
 40
25.399999999999999
  9
$DIMLFAC
 40
1.0
  9
$DIMTOFL
 70
     1
  9
$DIMTVP
 40
0.0
  9
$DIMTIX
 70
     1
  9
$DIMSOXD
 70
     0
  9
$DIMSAH
 70
     0
  9
$DIMBLK1
  1

  9
$DIMBLK2
  1

  9
$DIMSTYLE
  2
STANDARD
  9
$DIMCLRD
 70
     7
  9
$DIMCLRE
 70
     7
  9
$DIMCLRT
 70
     7
  9
$DIMTFAC
 40
1.0
  9
$DIMGAP
 40
25.0
  9
$LUNITS
 70
     2
  9
$LUPREC
 70
     4
  9
$SKETCHINC
 40
0.1
  9
$FILLETRAD
 40
3.0
  9
$AUNITS
 70
     1
  9
$AUPREC
 70
     3
  9
$MENU
  1
ACAD
  9
$ELEVATION
 40
0.0
  9
$PELEVATION
 40
0.0
  9
$THICKNESS
 40
50.0
  9
$LIMCHECK
 70
     0
  9
$CHAMFERA
 40
0.0
  9
$CHAMFERB
 40
0.0
  9
$SKPOLY
 70
     0
  9
$TDCREATE
 40
2453019.62301037
  9
$TDUPDATE
 40
2459017.514122257
  9
$TDINDWG
 40
1.7098707755
  9
$TDUSRTIMER
 40
1.7098707755
  9
$USRTIMER
 70
     1
  9
$ANGBASE
 50
0.0
  9
$ANGDIR
 70
     0
  9
$PDMODE
 70
     3
  9
$PDSIZE
 40
-2.0
  9
$PLINEWID
 40
0.0
  9
$SPLFRAME
 70
     0
  9
$SPLINETYPE
 70
     6
  9
$SPLINESEGS
 70
     8
  9
$SURFTAB1
 70
     6
  9
$SURFTAB2
 70
     6
  9
$SURFTYPE
 70
     6
  9
$SURFU
 70
     6
  9
$SURFV
 70
     6
  9
$UCSNAME
  2

  9
$UCSORG
 10
0.0
 20
0.0
 30
0.0
  9
$UCSXDIR
 10
1.0
 20
0.0
 30
0.0
  9
$UCSYDIR
 10
0.0
 20
1.0
 30
0.0
  9
$PUCSNAME
  2

  9
$PUCSORG
 10
0.0
 20
0.0
 30
0.0
  9
$PUCSXDIR
 10
1.0
 20
0.0
 30
0.0
  9
$PUCSYDIR
 10
0.0
 20
1.0
 30
0.0
  9
$USERI1
 70
     0
  9
$USERI2
 70
     0
  9
$USERI3
 70
     0
  9
$USERI4
 70
     0
  9
$USERI5
 70
     0
  9
$USERR1
 40
20.0
  9
$USERR2
 40
0.0
  9
$USERR3
 40
0.0
  9
$USERR4
 40
0.0
  9
$USERR5
 40
0.0
  9
$WORLDVIEW
 70
     1
  9
$SHADEDGE
 70
     3
  9
$SHADEDIF
 70
    70
  9
$TILEMODE
 70
     1
  9
$MAXACTVP
 70
    48
  9
$PINSBASE
 10
0.0
 20
0.0
 30
0.0
  9
$PLIMCHECK
 70
     0
  9
$PEXTMIN
 10
-100000000000000000000.0
 20
-100000000000000000000.0
 30
-100000000000000000000.0
  9
$PEXTMAX
 10
100000000000000000000.0
 20
100000000000000000000.0
 30
100000000000000000000.0
  9
$PLIMMIN
 10
0.0
 20
0.0
  9
$PLIMMAX
 10
12.0
 20
9.0
  9
$UNITMODE
 70
     0
  9
$VISRETAIN
 70
     0
  9
$PLINEGEN
 70
     0
  9
$PSLTSCALE
 70
     0
  9
$TREEDEPTH
 70
  3020
  9
$ATTDIA
 70
     0
  9
$ATTREQ
 70
     1
  9
$BLIPMODE
 70
     1
  9
$COORDS
 70
     1
  9
$DRAGMODE
 70
     2
  9
$OSMODE
 70
     0
  9
$HANDLING
 70
     0
  9
$HANDSEED
  5
E887
  0
ENDSEC
  0
SECTION
  2
TABLES
  0
TABLE
  2
LTYPE
 70
     2
  0
LTYPE
  2
CONTINUOUS
 70
     0
  3
実線
 72
    65
 73
     0
 40
0.0
  0
LTYPE
  2
DASHDOT
 70
     0
  3
____ _ ____ _ ____ _ ____ _ ____ _ ____ _ ____
 72
    65
 73
     4
 40
5.5
 49
4.0
 49
-0.6
 49
0.3
 49
-0.6
  0
ENDTAB
  0
TABLE
  2
LAYER
 70
    12
  0
LAYER
  2
0
 70
     0
 62
     7
  6
CONTINUOUS
  0
LAYER
  2
BASIS
 70
     0
 62
     6
  6
DASHDOT
  0
LAYER
  2
OUTLINE
 70
     0
 62
     3
  6
CONTINUOUS
  0
LAYER
  2
DETAIL
 70
     0
 62
     5
  6
CONTINUOUS
  0
LAYER
  2
SIZE
 70
     0
 62
    30
  6
CONTINUOUS
  0
LAYER
  2
ARRANGE
 70
     0
 62
     1
  6
CONTINUOUS
  0
LAYER
  2
ETC
 70
     0
 62
    61
  6
CONTINUOUS
  0
LAYER
  2
NOTE
 70
     0
 62
     4
  6
CONTINUOUS
  0
LAYER
  2
DEFPOINTS
 70
    64
 62
     7
  6
CONTINUOUS
  0
LAYER
  2
FIX
 70
    64
 62
    11
  6
CONTINUOUS
  0
LAYER
  2
SERVICESPACE
 70
    64
 62
     2
  6
DASHDOT
  0
LAYER
  2
SYMBOLLINE
 70
    64
 62
    15
  6
CONTINUOUS
  0
ENDTAB
  0
TABLE
  2
STYLE
 70
     1
  0
STYLE
  2
STANDARD
 70
     0
 40
64.0
 41
0.9
 50
0.0
 71
     0
 42
64.0
  3
SIMPLEX.shx
  4
BIGFONT.shx
  0
ENDTAB
  0
TABLE
  2
APPID
 70
    17
  0
APPID
  2
ACAD
 70
     0
  0
APPID
  2
AUTOCAD_POSTSCRIPT_FIGURE
 70
     0
  0
APPID
  2
ACAD_EXEMPT_FROM_CAD_STANDARDS
 70
     0
  0
APPID
  2
ACAD_PSEXT
 70
     0
  0
APPID
  2
ACAUTHENVIRON
 70
     0
  0
APPID
  2
GENIUS_GENOENT_13
 70
     0
  0
APPID
  2
GENIUS_GENCFG_13
 70
     0
  0
APPID
  2
GENIUS_GENCFG0_13
 70
     0
  0
APPID
  2
GENIUS_GENCFG1_13
 70
     0
  0
APPID
  2
GENIUS_GENCFG2_13
 70
     0
  0
APPID
  2
GENIUS_GENCFG3_13
 70
     0
  0
APPID
  2
GENIUS_GENCFG4_13
 70
     0
  0
APPID
  2
GENIUS_GEVCFG0_13
 70
     0
  0
APPID
  2
CONTENTBLOCKICON
 70
     0
  0
APPID
  2
CONTENTBLOCKDESCRIPTION
 70
     0
  0
APPID
  2
ACAD_NAV_VCDISPLAY
 70
     0
  0
APPID
  2
ACAD_MLEADERVER
 70
     0
  0
ENDTAB
  0
TABLE
  2
DIMSTYLE
 70
     1
  0
DIMSTYLE
  2
STANDARD
 70
     0
  3

  4

  5
_ORIGIN
  6

  7

 40
1.0
 41
12.0
 42
20.0
 43
200.0
 44
20.0
 45
0.0
 46
0.0
 47
0.0
 48
0.0
140
64.0
141
0.09
142
0.0
143
25.399999999999999
144
1.0
145
0.0
146
1.0
147
25.0
 71
     0
 72
     0
 73
     0
 74
     0
 75
     0
 76
     0
 77
     1
 78
     8
170
     0
171
     2
172
     1
173
     0
174
     1
175
     0
176
     7
177
     7
178
     7
  0
ENDTAB
  0
TABLE
  2
VIEW
 70
     1
  0
VIEW
  2
ALL
 70
     0
 40
4282.6198079999986
 10
0.0
 20
41.309904000000003
 41
5940.0
 11
0.0
 21
0.0
 31
1.0
 12
0.0
 22
0.0
 32
0.0
 42
50.0
 43
0.0
 44
0.0
 50
0.0
 71
     0
  0
ENDTAB
  0
TABLE
  2
UCS
 70
     0
  0
ENDTAB
  0
TABLE
  2
VPORT
 70
     1
  0
VPORT
  2
*ACTIVE
 70
     0
 10
0.0
 20
0.0
 11
1.0
 21
1.0
 12
251.11754448225
 22
26.587380528586319
 13
0.0
 23
0.0
 14
1.0
 24
1.0
 15
0.0
 25
0.0
 16
0.0
 26
0.0
 36
1.0
 17
0.0
 27
0.0
 37
0.0
 40
599.84317136089339
 41
2.1112877583465819
 42
50.0
 43
0.0
 44
0.0
 50
0.0
 51
0.0
 71
     0
 72
  1000
 73
     1
 74
     3
 75
     0
 76
     0
 77
     0
 78
     0
  0
ENDTAB
  0
ENDSEC
  0
SECTION
  2
BLOCKS
  0
BLOCK
  8
0
  2
_ORIGIN
 70
     0
 10
0.0
 20
0.0
 30
0.0
  3
_ORIGIN
  1
_ORIGIN
  0
CIRCLE
  8
0
  6
CONTINUOUS
 62
     7
 10
0.0
 20
0.0
 30
0.0
 40
0.5
  0
LINE
  8
0
  6
CONTINUOUS
 62
     7
 10
0.0
 20
0.0
 30
0.0
 11
-1.0
 21
0.0
 31
0.0
  0
ENDBLK
  8
0
  0
ENDSEC
  0
SECTION
  2
ENTITIES
  0
CIRCLE
  8
ARRANGE
  6
CONTINUOUS
 62
     1
 10
0.0
 20
0.0
 30
0.0
 40
40.0
  0
POINT
  8
ARRANGE
  6
CONTINUOUS
 62
     1
 10
0.0
 20
0.0
 30
0.0
  0
LINE
  8
NOTE
  6
CONTINUOUS
 62
     4
 10
-188.62523724547461
 20
-139.85872844999989
 30
0.0
 11
-238.5081484767384
 21
-139.85872844999989
 31
0.0
  0
LINE
  8
NOTE
  6
CONTINUOUS
 62
     4
 10
-210.89489847652871
 20
-107.63639977288631
 30
0.0
 11
-202.3542889894195
 21
-128.72331725871459
 31
0.0
  0
LINE
  8
NOTE
  6
CONTINUOUS
 62
     4
 10
-330.70147747652879
 20
-107.63639977288631
 30
0.0
 11
-210.89489847652871
 21
-107.63639977288631
 31
0.0
  0
TEXT
  8
NOTE
  6
CONTINUOUS
 62
     4
 10
-313.69023490510023
 20
-86.34615377288651
 30
0.0
 40
64.0
  1
EL
 41
0.9
  0
LINE
  8
NOTE
  6
CONTINUOUS
 62
     4
 10
-201.60994140271549
 20
-134.89021647632529
 30
0.0
 11
-197.88186038730669
 21
-139.85872844999989
 31
0.0
  0
LINE
  8
NOTE
  6
CONTINUOUS
 62
     4
 10
-197.88186038730669
 20
-139.85872844999989
 30
0.0
 11
-198.62620797401061
 21
-133.69182923238921
 31
0.0
  0
LINE
  8
NOTE
  6
CONTINUOUS
 62
     4
 10
-197.88186038730669
 20
-139.85872844999989
 30
0.0
 11
-202.35428898941959
 21
-128.7233172587145
 31
0.0
  0
LINE
  8
BASIS
  6
DASHDOT
 62
     6
 10
0.0
 20
250.40224599999991
 30
0.0
 11
0.0
 21
-282.92935699999998
 31
0.0
  0
LINE
  8
BASIS
  6
DASHDOT
 62
     6
 10
-277.78437999999989
 20
0.0
 30
0.0
 11
280.686418
 21
0.0
 31
0.0
  0
ARC
  8
DETAIL
  6
CONTINUOUS
 62
     5
 10
0.0163679999999999
 20
3002.5630000000001
 30
0.0
 40
3224.5629999999992
 50
269.99970899999869
 51
273.24105499999911
  0
LINE
  8
DETAIL
  6
CONTINUOUS
 62
     5
 10
-177.53917999999999
 20
-201.0
 30
0.0
 11
177.53917999999999
 21
-201.0
 31
0.0
  0
LINE
  8
DETAIL
  6
CONTINUOUS
 62
     5
 10
198.0
 20
-198.0
 30
0.0
 11
-169.5
 21
-198.0
 31
0.0
  0
LINE
  8
DETAIL
  6
CONTINUOUS
 62
     5
 10
164.39400000000001
 20
-192.5
 30
0.0
 11
-164.39400000000001
 21
-192.5
 31
0.0
  0
LINE
  8
DETAIL
  6
CONTINUOUS
 62
     5
 10
161.0
 20
183.0
 30
0.0
 11
-161.0
 21
183.0
 31
0.0
  0
LINE
  8
DETAIL
  6
CONTINUOUS
 62
     5
 10
192.0
 20
198.0
 30
0.0
 11
-192.0
 21
198.0
 31
0.0
  0
LINE
  8
DETAIL
  6
CONTINUOUS
 62
     5
 10
161.0
 20
189.0
 30
0.0
 11
-161.0
 21
189.0
 31
0.0
  0
LINE
  8
DETAIL
  6
CONTINUOUS
 62
     5
 10
5.0
 20
-198.0
 30
0.0
 11
50.0
 21
-198.0
 31
0.0
  0
LINE
  8
DETAIL
  6
CONTINUOUS
 62
     5
 10
-194.39399999999989
 20
153.0
 30
0.0
 11
-194.39399999999989
 21
-162.5
 31
0.0
  0
LINE
  8
DETAIL
  6
CONTINUOUS
 62
     5
 10
-198.0
 20
160.0
 30
0.0
 11
-198.0
 21
-160.0
 31
0.0
  0
LINE
  8
DETAIL
  6
CONTINUOUS
 62
     5
 10
-198.0
 20
192.0
 30
0.0
 11
-198.0
 21
-196.5
 31
0.0
  0
LINE
  8
DETAIL
  6
CONTINUOUS
 62
     5
 10
-198.0
 20
192.0
 30
0.0
 11
-198.0
 21
-198.0
 31
0.0
  0
LINE
  8
DETAIL
  6
CONTINUOUS
 62
     5
 10
-198.0
 20
160.0
 30
0.0
 11
-198.0
 21
-160.0
 31
0.0
  0
ARC
  8
DETAIL
  6
CONTINUOUS
 62
     5
 10
-0.0163679999999999
 20
3002.5630000000001
 30
0.0
 40
3224.5629999999992
 50
266.75894500000089
 51
270.00029100000131
  0
LINE
  8
DETAIL
  6
CONTINUOUS
 62
     5
 10
-57.0
 20
-198.0
 30
0.0
 11
-198.0
 21
-198.0
 31
0.0
  0
LINE
  8
DETAIL
  6
CONTINUOUS
 62
     5
 10
-178.53917999999999
 20
-198.5
 30
0.0
 11
-178.53917999999999
 21
-198.0
 31
0.0
  0
ARC
  8
DETAIL
  6
CONTINUOUS
 62
     5
 10
-177.53917999999999
 20
-200.0
 30
0.0
 40
1.0
 50
180.0
 51
270.0
  0
LINE
  8
DETAIL
  6
CONTINUOUS
 62
     5
 10
-178.53917999999999
 20
-200.0
 30
0.0
 11
-178.53917999999999
 21
-198.0
 31
0.0
  0
LINE
  8
DETAIL
  6
CONTINUOUS
 62
     5
 10
-169.5
 20
-198.0
 30
0.0
 11
-195.5
 21
-198.0
 31
0.0
  0
ARC
  8
DETAIL
  6
CONTINUOUS
 62
     5
 10
-164.39400000000001
 20
-162.5
 30
0.0
 40
30.0
 50
180.0
 51
270.0
  0
ARC
  8
DETAIL
  6
CONTINUOUS
 62
     5
 10
-171.0
 20
-170.00738100000001
 30
0.0
 40
20.0
 50
180.0
 51
228.65435199999871
  0
LINE
  8
DETAIL
  6
CONTINUOUS
 62
     5
 10
-193.26093399999999
 20
-198.0
 30
0.0
 11
-190.0
 21
-198.0
 31
0.0
  0
LINE
  8
DETAIL
  6
CONTINUOUS
 62
     5
 10
-179.470675
 20
-198.0
 30
0.0
 11
-169.0
 21
-198.0
 31
0.0
  0
LINE
  8
DETAIL
  6
CONTINUOUS
 62
     5
 10
-178.53917999999999
 20
-199.80000000000001
 30
0.0
 11
-178.53917999999999
 21
-198.0
 31
0.0
  0
LINE
  8
DETAIL
  6
CONTINUOUS
 62
     5
 10
-178.3852959999999
 20
-200.5329989999999
 30
0.0
 11
-178.53917999999999
 21
-199.80000000000001
 31
0.0
  0
LINE
  8
DETAIL
  6
CONTINUOUS
 62
     5
 10
-3.5
 20
-198.0
 30
0.0
 11
3.5316199999999749
 21
-198.0
 31
0.0
  0
LINE
  8
DETAIL
  6
CONTINUOUS
 62
     5
 10
-5.0
 20
-198.0
 30
0.0
 11
-50.0
 21
-198.0
 31
0.0
  0
LINE
  8
DETAIL
  6
CONTINUOUS
 62
     5
 10
-51.5
 20
-198.0
 30
0.0
 11
-55.5
 21
-198.0
 31
0.0
  0
ARC
  8
DETAIL
  6
CONTINUOUS
 62
     5
 10
-192.0
 20
192.0
 30
0.0
 40
6.0
 50
90.0
 51
180.0
  0
ARC
  8
DETAIL
  6
CONTINUOUS
 62
     5
 10
-161.0
 20
152.5
 30
0.0
 40
36.5
 50
90.0
 51
171.45264199999889
  0
LINE
  8
DETAIL
  6
CONTINUOUS
 62
     5
 10
-191.0
 20
153.0
 30
0.0
 11
-191.0
 21
-6.0
 31
0.0
  0
LINE
  8
DETAIL
  6
CONTINUOUS
 62
     5
 10
-191.0
 20
133.49999999999989
 30
0.0
 11
-191.0
 21
-170.00738100000001
 31
0.0
  0
ARC
  8
DETAIL
  6
CONTINUOUS
 62
     5
 10
-161.0
 20
153.0
 30
0.0
 40
30.0
 50
90.0
 51
180.0
  0
ARC
  8
DETAIL
  6
CONTINUOUS
 62
     5
 10
-161.0
 20
153.0
 30
0.0
 40
30.0
 50
90.0
 51
180.0
  0
ARC
  8
DETAIL
  6
CONTINUOUS
 62
     5
 10
-164.39400000000001
 20
153.0
 30
0.0
 40
30.0
 50
90.0
 51
180.0
  0
LINE
  8
DETAIL
  6
CONTINUOUS
 62
     5
 10
191.0
 20
112.9878129999999
 30
0.0
 11
191.0
 21
-50.922393
 31
0.0
  0
LINE
  8
DETAIL
  6
CONTINUOUS
 62
     5
 10
191.0
 20
153.0
 30
0.0
 11
191.0
 21
-170.00738100000001
 31
0.0
  0
LINE
  8
DETAIL
  6
CONTINUOUS
 62
     5
 10
194.39399999999989
 20
153.0
 30
0.0
 11
194.39399999999989
 21
-162.5
 31
0.0
  0
LINE
  8
DETAIL
  6
CONTINUOUS
 62
     5
 10
198.0
 20
192.0
 30
0.0
 11
198.0
 21
-198.0
 31
0.0
  0
ARC
  8
DETAIL
  6
CONTINUOUS
 62
     5
 10
164.39400000000001
 20
-162.5
 30
0.0
 40
30.0
 50
270.0
 51
0.0
  0
LINE
  8
DETAIL
  6
CONTINUOUS
 62
     5
 10
51.5
 20
-198.0
 30
0.0
 11
55.5
 21
-198.0
 31
0.0
  0
LINE
  8
DETAIL
  6
CONTINUOUS
 62
     5
 10
191.0
 20
-50.922393
 30
0.0
 11
191.0
 21
-162.5
 31
0.0
  0
ARC
  8
DETAIL
  6
CONTINUOUS
 62
     5
 10
177.53917999999999
 20
-200.0
 30
0.0
 40
1.0
 50
270.0
 51
0.0
  0
LINE
  8
DETAIL
  6
CONTINUOUS
 62
     5
 10
178.53917999999999
 20
-200.0
 30
0.0
 11
178.53917999999999
 21
-198.0
 31
0.0
  0
ARC
  8
DETAIL
  6
CONTINUOUS
 62
     5
 10
171.0
 20
-170.00738100000001
 30
0.0
 40
20.0
 50
311.34564800000129
 51
0.0
  0
LINE
  8
DETAIL
  6
CONTINUOUS
 62
     5
 10
178.53917999999999
 20
-199.80000000000001
 30
0.0
 11
178.53917999999999
 21
-198.0
 31
0.0
  0
LINE
  8
DETAIL
  6
CONTINUOUS
 62
     5
 10
178.53917999999999
 20
-199.80000000000001
 30
0.0
 11
178.3852959999999
 21
-200.5329989999999
 31
0.0
  0
LINE
  8
DETAIL
  6
CONTINUOUS
 62
     5
 10
198.0
 20
-198.0
 30
0.0
 11
198.0
 21
-199.8939179999999
 31
0.0
  0
ARC
  8
DETAIL
  6
CONTINUOUS
 62
     5
 10
181.0
 20
-199.8939179999999
 30
0.0
 40
17.0
 50
274.46425799999952
 51
0.0
  0
LINE
  8
DETAIL
  6
CONTINUOUS
 62
     5
 10
-198.0
 20
-198.0
 30
0.0
 11
-198.0
 21
-199.8939179999999
 31
0.0
  0
ARC
  8
DETAIL
  6
CONTINUOUS
 62
     5
 10
-181.0
 20
-199.8939179999999
 30
0.0
 40
17.0
 50
180.0
 51
265.53574200000048
  0
ARC
  8
DETAIL
  6
CONTINUOUS
 62
     5
 10
192.0
 20
192.0
 30
0.0
 40
6.0
 50
0.0
 51
90.0
  0
ARC
  8
DETAIL
  6
CONTINUOUS
 62
     5
 10
161.0
 20
152.5
 30
0.0
 40
36.5
 50
8.5473580000010934
 51
90.0
  0
ARC
  8
DETAIL
  6
CONTINUOUS
 62
     5
 10
164.39400000000001
 20
153.0
 30
0.0
 40
30.0
 50
0.0
 51
90.0
  0
ARC
  8
DETAIL
  6
CONTINUOUS
 62
     5
 10
161.0
 20
153.0
 30
0.0
 40
30.0
 50
0.0
 51
90.0
  0
LINE
  8
SIZE
  6
CONTINUOUS
 62
    30
 10
-198.0
 20
212.0
 30
0.0
 11
-198.0
 21
356.98393599999991
 31
0.0
  0
LINE
  8
SIZE
  6
CONTINUOUS
 62
    30
 10
198.0
 20
212.0
 30
0.0
 11
198.0
 21
356.98393599999991
 31
0.0
  0
LINE
  8
SIZE
  6
CONTINUOUS
 62
    30
 10
-186.0
 20
336.98393599999991
 30
0.0
 11
186.0
 21
336.98393599999991
 31
0.0
  0
CIRCLE
  8
SIZE
  6
CONTINUOUS
 62
    30
 10
-198.0
 20
336.98393599999991
 30
0.0
 40
6.0
  0
LINE
  8
SIZE
  6
CONTINUOUS
 62
    30
 10
-198.0
 20
336.98393599999991
 30
0.0
 11
-186.0
 21
336.98393599999991
 31
0.0
  0
CIRCLE
  8
SIZE
  6
CONTINUOUS
 62
    30
 10
198.0
 20
336.98393599999991
 30
0.0
 40
6.0
  0
LINE
  8
SIZE
  6
CONTINUOUS
 62
    30
 10
198.0
 20
336.98393599999991
 30
0.0
 11
186.0
 21
336.98393599999991
 31
0.0
  0
TEXT
  8
SIZE
  6
CONTINUOUS
 62
    30
 10
-72.685714285714297
 20
361.98393599999991
 30
0.0
 40
64.0
  1
396
 41
0.9
 72
     1
 11
0.0
 21
361.98393599999991
 31
0.0
  0
LINE
  8
SIZE
  6
CONTINUOUS
 62
    30
 10
212.0
 20
198.0
 30
0.0
 11
414.71098007658662
 21
198.0
 31
0.0
  0
LINE
  8
SIZE
  6
CONTINUOUS
 62
    30
 10
20.0
 20
-222.0
 30
0.0
 11
414.71098007658662
 21
-222.0
 31
0.0
  0
LINE
  8
SIZE
  6
CONTINUOUS
 62
    30
 10
394.71098007658662
 20
186.0
 30
0.0
 11
394.71098007658662
 21
-210.0
 31
0.0
  0
CIRCLE
  8
SIZE
  6
CONTINUOUS
 62
    30
 10
394.71098007658662
 20
198.0
 30
0.0
 40
6.0
  0
LINE
  8
SIZE
  6
CONTINUOUS
 62
    30
 10
394.71098007658662
 20
198.0
 30
0.0
 11
394.71098007658662
 21
186.0
 31
0.0
  0
CIRCLE
  8
SIZE
  6
CONTINUOUS
 62
    30
 10
394.71098007658662
 20
-222.0
 30
0.0
 40
6.0
  0
LINE
  8
SIZE
  6
CONTINUOUS
 62
    30
 10
394.71098007658662
 20
-222.0
 30
0.0
 11
394.71098007658662
 21
-210.0
 31
0.0
  0
TEXT
  8
SIZE
  6
CONTINUOUS
 62
    30
 10
369.71098007658662
 20
-86.05714285714285
 30
0.0
 40
64.0
  1
420
 50
90.0
 41
0.9
 72
     1
 11
369.71098007658662
 21
-12.0
 31
0.0
  0
LINE
  8
NOTE
  6
CONTINUOUS
 62
     4
 10
-198.0
 20
-170.0
 30
0.0
 11
-198.0
 21
-130.0
 31
0.0
  0
LINE
  8
OUTLINE
  6
CONTINUOUS
 62
     3
 10
192.0
 20
198.0
 30
0.0
 11
-192.0
 21
198.0
 31
0.0
  0
ARC
  8
OUTLINE
  6
CONTINUOUS
 62
     3
 10
0.0163679999999999
 20
3002.5630000000001
 30
0.0
 40
3224.5629999999992
 50
269.99970899999869
 51
273.24105499999911
  0
LINE
  8
OUTLINE
  6
CONTINUOUS
 62
     3
 10
-198.0
 20
160.0
 30
0.0
 11
-198.0
 21
-160.0
 31
0.0
  0
LINE
  8
OUTLINE
  6
CONTINUOUS
 62
     3
 10
-198.0
 20
192.0
 30
0.0
 11
-198.0
 21
-198.0
 31
0.0
  0
LINE
  8
OUTLINE
  6
CONTINUOUS
 62
     3
 10
-198.0
 20
192.0
 30
0.0
 11
-198.0
 21
-196.5
 31
0.0
  0
LINE
  8
OUTLINE
  6
CONTINUOUS
 62
     3
 10
-198.0
 20
160.0
 30
0.0
 11
-198.0
 21
-160.0
 31
0.0
  0
ARC
  8
OUTLINE
  6
CONTINUOUS
 62
     3
 10
-181.0
 20
-199.8939179999999
 30
0.0
 40
17.0
 50
180.0
 51
265.53574200000048
  0
ARC
  8
OUTLINE
  6
CONTINUOUS
 62
     3
 10
-0.0163679999999999
 20
3002.5630000000001
 30
0.0
 40
3224.5629999999992
 50
266.75894500000089
 51
270.00029100000131
  0
LINE
  8
OUTLINE
  6
CONTINUOUS
 62
     3
 10
-198.0
 20
-198.0
 30
0.0
 11
-198.0
 21
-199.8939179999999
 31
0.0
  0
ARC
  8
OUTLINE
  6
CONTINUOUS
 62
     3
 10
-192.0
 20
192.0
 30
0.0
 40
6.0
 50
90.0
 51
180.0
  0
LINE
  8
OUTLINE
  6
CONTINUOUS
 62
     3
 10
198.0
 20
192.0
 30
0.0
 11
198.0
 21
-198.0
 31
0.0
  0
ARC
  8
OUTLINE
  6
CONTINUOUS
 62
     3
 10
181.0
 20
-199.8939179999999
 30
0.0
 40
17.0
 50
274.46425799999952
 51
0.0
  0
LINE
  8
OUTLINE
  6
CONTINUOUS
 62
     3
 10
198.0
 20
-198.0
 30
0.0
 11
198.0
 21
-199.8939179999999
 31
0.0
  0
ARC
  8
OUTLINE
  6
CONTINUOUS
 62
     3
 10
192.0
 20
192.0
 30
0.0
 40
6.0
 50
0.0
 51
90.0
  0
LINE
  8
DETAIL
  6
CONTINUOUS
 62
     5
 10
1.5
 20
-105.89067899999991
 30
0.0
 11
1.5
 21
10.320805999999999
 31
0.0
  0
LINE
  8
DETAIL
  6
CONTINUOUS
 62
     5
 10
-1.5
 20
-109.258162
 30
0.0
 11
-1.5
 21
6.6137370000000146
 31
0.0
  0
LINE
  8
DETAIL
  6
CONTINUOUS
 62
     5
 10
1.5
 20
15.16495099999997
 30
0.0
 11
1.5
 21
104.330449
 31
0.0
  0
LINE
  8
DETAIL
  6
CONTINUOUS
 62
     5
 10
-1.5
 20
11.37350300000003
 30
0.0
 11
-1.5
 21
100.63748699999989
 31
0.0
  0
LINE
  8
DETAIL
  6
CONTINUOUS
 62
     5
 10
1.5
 20
109.143146
 30
0.0
 11
1.5
 21
183.0
 31
0.0
  0
LINE
  8
DETAIL
  6
CONTINUOUS
 62
     5
 10
-1.5
 20
105.388684
 30
0.0
 11
-1.5
 21
177.948769
 31
0.0
  0
ARC
  8
DETAIL
  6
CONTINUOUS
 62
     5
 10
-93.933443000000011
 20
-191.0
 30
0.0
 40
0.5
 50
270.0
 51
302.65157300000209
  0
ARC
  8
DETAIL
  6
CONTINUOUS
 62
     5
 10
-97.660195999999985
 20
-191.0
 30
0.0
 40
0.5
 50
122.2611620000022
 51
270.0
  0
LINE
  8
DETAIL
  6
CONTINUOUS
 62
     5
 10
-93.933443000000011
 20
-191.5
 30
0.0
 11
-97.660195999999985
 21
-191.5
 31
0.0
  0
ARC
  8
DETAIL
  6
CONTINUOUS
 62
     5
 10
-192.19179299999999
 20
-110.07943899999989
 30
0.0
 40
0.5
 50
180.0
 51
282.55140700000118
  0
ARC
  8
DETAIL
  6
CONTINUOUS
 62
     5
 10
-192.19179299999999
 20
-108.030174
 30
0.0
 40
0.5
 50
102.626342999999
 51
180.0
  0
LINE
  8
DETAIL
  6
CONTINUOUS
 62
     5
 10
-192.69179299999999
 20
-108.030174
 30
0.0
 11
-192.69179299999999
 21
-110.07943899999989
 31
0.0
  0
ARC
  8
DETAIL
  6
CONTINUOUS
 62
     5
 10
-192.19179299999999
 20
-14.47969999999998
 30
0.0
 40
0.5
 50
180.0
 51
279.23229900000109
  0
ARC
  8
DETAIL
  6
CONTINUOUS
 62
     5
 10
-192.19179299999999
 20
-12.45326799999998
 30
0.0
 40
0.5
 50
99.296422999998484
 51
180.0
  0
LINE
  8
DETAIL
  6
CONTINUOUS
 62
     5
 10
-192.69179299999999
 20
-12.45326799999998
 30
0.0
 11
-192.69179299999999
 21
-14.47969999999998
 31
0.0
  0
ARC
  8
DETAIL
  6
CONTINUOUS
 62
     5
 10
-190.50820699999991
 20
65.798058999999967
 30
0.0
 40
0.5
 50
180.0
 51
279.02618500000068
  0
ARC
  8
DETAIL
  6
CONTINUOUS
 62
     5
 10
-190.50820699999991
 20
67.823311999999987
 30
0.0
 40
0.5
 50
99.088852000001097
 51
180.0
  0
ARC
  8
DETAIL
  6
CONTINUOUS
 62
     5
 10
-192.19179299999999
 20
65.535641999999996
 30
0.0
 40
0.5
 50
180.0
 51
278.69241700000038
  0
ARC
  8
DETAIL
  6
CONTINUOUS
 62
     5
 10
-192.19179299999999
 20
67.559043999999972
 30
0.0
 40
0.5
 50
98.75272900000023
 51
180.0
  0
LINE
  8
DETAIL
  6
CONTINUOUS
 62
     5
 10
-192.69179299999999
 20
67.559043999999972
 30
0.0
 11
-192.69179299999999
 21
65.535641999999996
 31
0.0
  0
ARC
  8
DETAIL
  6
CONTINUOUS
 62
     5
 10
-636.76431100000002
 20
174.670389
 30
0.0
 40
803.0
 50
332.79031200000168
 51
349.56321999999949
  0
ARC
  8
DETAIL
  6
CONTINUOUS
 62
     5
 10
377.44885199999999
 20
-4.4116690000000176
 30
0.0
 40
227.0
 50
145.22122600000031
 51
171.45831100000481
  0
ARC
  8
DETAIL
  6
CONTINUOUS
 62
     5
 10
-343.4655479999999
 20
198.40978299999981
 30
0.0
 40
463.0
 50
302.40324400000111
 51
330.90776800000231
  0
ARC
  8
DETAIL
  6
CONTINUOUS
 62
     5
 10
-578.17713700000002
 20
310.96752400000008
 30
0.0
 40
723.0
 50
332.16228699999942
 51
339.79128099999917
  0
ARC
  8
DETAIL
  6
CONTINUOUS
 62
     5
 10
360.44069300000001
 20
-33.990283999999967
 30
0.0
 40
277.0
 50
130.64158000000279
 51
159.8966070000009
  0
ARC
  8
DETAIL
  6
CONTINUOUS
 62
     5
 10
-266.622342
 20
224.23529800000011
 30
0.0
 40
343.0
 50
282.55140700000118
 51
324.5938600000016
  0
ARC
  8
DETAIL
  6
CONTINUOUS
 62
     5
 10
-454.072047
 20
374.48596199999997
 30
0.0
 40
583.0
 50
323.22438899999878
 51
331.78245399999889
  0
ARC
  8
DETAIL
  6
CONTINUOUS
 62
     5
 10
360.22949699999998
 20
-53.541651000000002
 30
0.0
 40
337.0
 50
135.42003699999881
 51
153.10683099999781
  0
ARC
  8
DETAIL
  6
CONTINUOUS
 62
     5
 10
-239.11980299999991
 20
274.23124799999982
 30
0.0
 40
293.0
 50
279.23229900000109
 51
315.57818400000139
  0
ARC
  8
DETAIL
  6
CONTINUOUS
 62
     5
 10
-359.36135400000001
 20
394.41334000000012
 30
0.0
 40
463.0
 50
315.36974000000038
 51
325.55794499999661
  0
ARC
  8
DETAIL
  6
CONTINUOUS
 62
     5
 10
1201.2159999999999
 20
-723.84640999999999
 30
0.0
 40
1457.0
 50
141.50790899999629
 51
144.0033980000037
  0
ARC
  8
DETAIL
  6
CONTINUOUS
 62
     5
 10
-236.39731499999999
 20
354.67595699999993
 30
0.0
 40
293.0
 50
278.69241700000038
 51
304.17447599999849
  0
ARC
  8
DETAIL
  6
CONTINUOUS
 62
     5
 10
-276.5540749999999
 20
412.0193099999999
 30
0.0
 40
363.0
 50
304.33559099999928
 51
316.98070699999943
  0
ARC
  8
DETAIL
  6
CONTINUOUS
 62
     5
 10
463.91507199999978
 20
-163.10520099999991
 30
0.0
 40
577.0
 50
143.141867999998
 51
145.39930000000021
  0
ARC
  8
DETAIL
  6
CONTINUOUS
 62
     5
 10
-343.4655479999999
 20
198.40978299999981
 30
0.0
 40
460.0
 50
301.80965600000138
 51
330.90776800000231
  0
ARC
  8
DETAIL
  6
CONTINUOUS
 62
     5
 10
-236.39731499999999
 20
354.67595699999993
 30
0.0
 40
290.0
 50
278.75272900000022
 51
304.17447599999849
  0
ARC
  8
DETAIL
  6
CONTINUOUS
 62
     5
 10
-276.5540749999999
 20
412.0193099999999
 30
0.0
 40
360.0
 50
304.33559099999928
 51
316.94559300000111
  0
ARC
  8
DETAIL
  6
CONTINUOUS
 62
     5
 10
-266.622342
 20
224.23529800000011
 30
0.0
 40
340.0
 50
282.626342999999
 51
324.5938600000016
  0
ARC
  8
DETAIL
  6
CONTINUOUS
 62
     5
 10
-239.11980299999991
 20
274.23124799999982
 30
0.0
 40
290.0
 50
279.29642299999853
 51
315.57818400000139
  0
ARC
  8
DETAIL
  6
CONTINUOUS
 62
     5
 10
463.91507199999978
 20
-163.10520099999991
 30
0.0
 40
580.0
 50
143.36371999999949
 51
145.39930000000021
  0
LINE
  8
DETAIL
  6
CONTINUOUS
 62
     5
 10
-1.5
 20
-192.5
 30
0.0
 11
-1.5
 21
-113.7257069999999
 31
0.0
  0
LINE
  8
DETAIL
  6
CONTINUOUS
 62
     5
 10
1.5
 20
-192.5
 30
0.0
 11
1.5
 21
-110.4069439999999
 31
0.0
  0
ARC
  8
DETAIL
  6
CONTINUOUS
 62
     5
 10
1201.2159999999999
 20
-723.84640999999999
 30
0.0
 40
1460.0
 50
141.60147000000151
 51
144.0033980000037
  0
ARC
  8
DETAIL
  6
CONTINUOUS
 62
     5
 10
-359.36135400000001
 20
394.41334000000012
 30
0.0
 40
460.0
 50
315.36974000000038
 51
325.55794499999661
  0
ARC
  8
DETAIL
  6
CONTINUOUS
 62
     5
 10
-454.072047
 20
374.48596199999997
 30
0.0
 40
580.0
 50
323.22438899999878
 51
331.78245399999889
  0
ARC
  8
DETAIL
  6
CONTINUOUS
 62
     5
 10
360.22949699999998
 20
-53.541651000000002
 30
0.0
 40
340.0
 50
135.91611900000089
 51
153.10683099999781
  0
ARC
  8
DETAIL
  6
CONTINUOUS
 62
     5
 10
377.44885199999999
 20
-4.4116690000000176
 30
0.0
 40
230.0
 50
144.15921100000341
 51
171.45831100000481
  0
ARC
  8
DETAIL
  6
CONTINUOUS
 62
     5
 10
360.44069300000001
 20
-33.990283999999967
 30
0.0
 40
280.0
 50
130.78262800000169
 51
159.8966070000009
  0
ARC
  8
DETAIL
  6
CONTINUOUS
 62
     5
 10
-578.17713700000002
 20
310.96752400000008
 30
0.0
 40
720.0
 50
332.16228699999942
 51
339.79128099999917
  0
ARC
  8
DETAIL
  6
CONTINUOUS
 62
     5
 10
-636.76431100000002
 20
174.670389
 30
0.0
 40
800.0
 50
332.67978900000219
 51
349.56321999999949
  0
LINE
  8
SIZE
  6
CONTINUOUS
 62
    30
 10
-297.78437999999989
 20
0.0
 30
0.0
 11
-430.05321012503049
 21
0.0000000000000568
 31
0.0
  0
LINE
  8
SIZE
  6
CONTINUOUS
 62
    30
 10
-258.50814847673843
 20
-139.85872844999989
 30
0.0
 11
-430.0532101250306
 21
-139.85872844999989
 31
0.0
  0
LINE
  8
SIZE
  6
CONTINUOUS
 62
    30
 10
-410.05321012503049
 20
-11.99999999999994
 30
0.0
 11
-410.05321012503049
 21
-127.8587284499999
 31
0.0
  0
LINE
  8
SIZE
  6
CONTINUOUS
 62
    30
 10
-410.0532101250306
 20
-139.85872844999989
 30
0.0
 11
-410.0532101250306
 21
-339.00158559285711
 31
0.0
  0
CIRCLE
  8
SIZE
  6
CONTINUOUS
 62
    30
 10
-410.05321012503049
 20
0.0000000000000568
 30
0.0
 40
6.0
  0
LINE
  8
SIZE
  6
CONTINUOUS
 62
    30
 10
-410.05321012503049
 20
0.0000000000000568
 30
0.0
 11
-410.05321012503049
 21
-11.99999999999994
 31
0.0
  0
CIRCLE
  8
SIZE
  6
CONTINUOUS
 62
    30
 10
-410.0532101250306
 20
-139.85872844999989
 30
0.0
 40
6.0
  0
LINE
  8
SIZE
  6
CONTINUOUS
 62
    30
 10
-410.0532101250306
 20
-139.85872844999989
 30
0.0
 11
-410.0532101250306
 21
-127.8587284499999
 31
0.0
  0
TEXT
  8
SIZE
  6
CONTINUOUS
 62
    30
 10
-435.05321012503049
 20
-314.001585592857
 30
0.0
 40
64.0
  1
140
 50
90.0
 41
0.9
 72
     1
 11
-435.05321012503049
 21
-245.43015702142841
 31
0.0
  0
ARC
  8
DETAIL
  6
CONTINUOUS
 62
     5
 10
3.3333656310880428
 20
-198.2999981925567
 30
0.0
 40
0.5000001903452704
 50
0.0
 51
36.929608896757351
  0
ARC
  8
DETAIL
  6
CONTINUOUS
 62
     5
 10
26.33337438698095
 20
-198.2999981925567
 30
0.0
 40
0.5000001903454864
 50
143.07039110360091
 51
180.0
  0
ARC
  8
DETAIL
  6
CONTINUOUS
 62
     5
 10
30.33337590974509
 20
-198.2999981925567
 30
0.0
 40
0.5000001903454984
 50
0.0
 51
36.929608896323529
  0
ARC
  8
DETAIL
  6
CONTINUOUS
 62
     5
 10
24.833373815944359
 20
-198.2999981925567
 30
0.0
 40
0.5000001903454984
 50
0.0
 51
36.920058216908558
  0
ARC
  8
DETAIL
  6
CONTINUOUS
 62
     5
 10
4.8333659238241466
 20
-198.2999981925567
 30
0.0
 40
0.5000001903454183
 50
143.07992339258331
 51
180.0
  0
ARC
  8
DETAIL
  6
CONTINUOUS
 62
     5
 10
31.833376202481649
 20
-198.2999981925567
 30
0.0
 40
0.5000001903462422
 50
143.07992339315601
 51
180.0
  0
ARC
  8
DETAIL
  6
CONTINUOUS
 62
     5
 10
-30.666647312406269
 20
-198.2999981925567
 30
0.0
 40
0.5000001903457064
 50
143.07039110260661
 51
180.0
  0
ARC
  8
DETAIL
  6
CONTINUOUS
 62
     5
 10
-26.6666457896427
 20
-198.2999981925567
 30
0.0
 40
0.5000001903457264
 50
0.0
 51
36.929608897319653
  0
ARC
  8
DETAIL
  6
CONTINUOUS
 62
     5
 10
-3.6666370337489411
 20
-198.2999981925567
 30
0.0
 40
0.5000001903459702
 50
143.0703911031363
 51
180.0
  0
ARC
  8
DETAIL
  6
CONTINUOUS
 62
     5
 10
-32.166647883442749
 20
-198.2999981925567
 30
0.0
 40
0.5000001903450423
 50
0.0
 51
36.920058218020458
  0
ARC
  8
DETAIL
  6
CONTINUOUS
 62
     5
 10
-5.1666376047858762
 20
-198.2999981925567
 30
0.0
 40
0.5000001903457264
 50
0.0
 51
36.920058217485348
  0
ARC
  8
DETAIL
  6
CONTINUOUS
 62
     5
 10
-25.166645496906138
 20
-198.2999981925567
 30
0.0
 40
0.5000001903455184
 50
143.07992339209429
 51
180.0
  0
LINE
  8
DETAIL
  6
CONTINUOUS
 62
     5
 10
-108.2684217348927
 20
-197.99999999994989
 30
0.0
 11
107.935150364531
 21
-198.00000000004991
 31
0.0
  0
LINE
  8
DETAIL
  6
CONTINUOUS
 62
     5
 10
-228.38673492890439
 20
-210.32431710670789
 30
0.0
 11
-229.74941102840771
 21
-209.9805111663195
 31
0.0
  0
LINE
  8
DETAIL
  6
CONTINUOUS
 62
     5
 10
-229.74941102840771
 20
-209.9805111663195
 30
0.0
 11
-230.99664863697711
 21
-209.9227919208561
 31
0.0
  0
LINE
  8
DETAIL
  6
CONTINUOUS
 62
     5
 10
-230.99664863697711
 20
-209.9227919208561
 30
0.0
 11
-230.99664863697711
 21
-209.9227919208561
 31
0.0
  0
LINE
  8
DETAIL
  6
CONTINUOUS
 62
     5
 10
-230.99664863697711
 20
-209.9227919208561
 30
0.0
 11
-232.053161782263
 21
-210.28918365295661
 31
0.0
  0
LINE
  8
DETAIL
  6
CONTINUOUS
 62
     5
 10
-232.053161782263
 20
-210.28918365295661
 30
0.0
 11
-233.00427456625991
 21
-210.6254609961147
 31
0.0
  0
LINE
  8
DETAIL
  6
CONTINUOUS
 62
     5
 10
-233.00427456625991
 20
-210.6254609961147
 30
0.0
 11
-233.00427456625991
 21
-210.6254609961147
 31
0.0
  0
LINE
  8
DETAIL
  6
CONTINUOUS
 62
     5
 10
-233.00427456625991
 20
-210.6254609961147
 30
0.0
 11
-233.95287781784421
 21
-210.4824176486477
 31
0.0
  0
LINE
  8
DETAIL
  6
CONTINUOUS
 62
     5
 10
-233.95287781784421
 20
-210.4824176486477
 30
0.0
 11
-234.91151919907429
 21
-210.02317321731331
 31
0.0
  0
LINE
  8
DETAIL
  6
CONTINUOUS
 62
     5
 10
-228.38673492890439
 20
-212.72503527994701
 30
0.0
 11
-229.74941102840771
 21
-212.3812293395581
 31
0.0
  0
LINE
  8
DETAIL
  6
CONTINUOUS
 62
     5
 10
-229.74941102840771
 20
-212.3812293395581
 30
0.0
 11
-230.99664863697711
 21
-212.3235100940951
 31
0.0
  0
LINE
  8
DETAIL
  6
CONTINUOUS
 62
     5
 10
-230.99664863697711
 20
-212.3235100940951
 30
0.0
 11
-230.99664863697711
 21
-212.3235100940951
 31
0.0
  0
LINE
  8
DETAIL
  6
CONTINUOUS
 62
     5
 10
-230.99664863697711
 20
-212.3235100940951
 30
0.0
 11
-232.053161782263
 21
-212.68990182619521
 31
0.0
  0
LINE
  8
DETAIL
  6
CONTINUOUS
 62
     5
 10
-232.053161782263
 20
-212.68990182619521
 30
0.0
 11
-233.00427456625991
 21
-213.0261791693533
 31
0.0
  0
LINE
  8
DETAIL
  6
CONTINUOUS
 62
     5
 10
-233.00427456625991
 20
-213.0261791693533
 30
0.0
 11
-233.00427456625991
 21
-213.0261791693533
 31
0.0
  0
LINE
  8
DETAIL
  6
CONTINUOUS
 62
     5
 10
-233.00427456625991
 20
-213.0261791693533
 30
0.0
 11
-233.95287781784421
 21
-212.8831358218863
 31
0.0
  0
LINE
  8
DETAIL
  6
CONTINUOUS
 62
     5
 10
-233.95287781784421
 20
-212.8831358218863
 30
0.0
 11
-234.91151919907429
 21
-212.42389139055189
 31
0.0
  0
LINE
  8
DETAIL
  6
CONTINUOUS
 62
     5
 10
-224.56034366330141
 20
-254.87077974197061
 30
0.0
 11
-224.56034366330141
 21
-242.86718887577669
 31
0.0
  0
LINE
  8
DETAIL
  6
CONTINUOUS
 62
     5
 10
-237.36417392057521
 20
-252.5669686042188
 30
0.0
 11
-237.36417392057521
 21
-245.17100001352861
 31
0.0
  0
LINE
  8
DETAIL
  6
CONTINUOUS
 62
     5
 10
-235.8635302618745
 20
-243.57363803818771
 30
0.0
 11
-224.56034366330141
 21
-242.86718887577669
 31
0.0
  0
LINE
  8
DETAIL
  6
CONTINUOUS
 62
     5
 10
-211.67119719640851
 20
-246.3482302269731
 30
0.0
 11
-224.56034366330141
 21
-246.3482302269731
 31
0.0
  0
ARC
  8
DETAIL
  6
CONTINUOUS
 62
     5
 10
-235.76369513841581
 20
-245.17100001352861
 30
0.0
 40
1.600478782159207
 50
93.576334375004677
 51
180.0
  0
LINE
  8
DETAIL
  6
CONTINUOUS
 62
     5
 10
-235.76369513841581
 20
-242.90758121350879
 30
0.0
 11
-235.76369513841581
 21
-240.46647070253809
 31
0.0
  0
LINE
  8
DETAIL
  6
CONTINUOUS
 62
     5
 10
-227.7613012276199
 20
-242.21543292632529
 30
0.0
 11
-227.7613012276199
 21
-240.46647070253769
 31
0.0
  0
LINE
  8
DETAIL
  6
CONTINUOUS
 62
     5
 10
-229.7175862788369
 20
-226.8624010541844
 30
0.0
 11
-233.8074100871988
 21
-226.8624010541844
 31
0.0
  0
LINE
  8
DETAIL
  6
CONTINUOUS
 62
     5
 10
-235.76369513841581
 20
-240.46647070253809
 30
0.0
 11
-234.20478920462551
 21
-227.2157702653212
 31
0.0
  0
LINE
  8
DETAIL
  6
CONTINUOUS
 62
     5
 10
-227.7613012276199
 20
-240.46647070253769
 30
0.0
 11
-229.3202071614096
 21
-227.2157702653212
 31
0.0
  0
ARC
  8
DETAIL
  6
CONTINUOUS
 62
     5
 10
-236.5639345294953
 20
-242.90758121350879
 30
0.0
 40
0.8002393910795758
 50
289.47122063447898
 51
0.0
  0
ARC
  8
DETAIL
  6
CONTINUOUS
 62
     5
 10
-226.96106183654021
 20
-242.21543292632529
 30
0.0
 40
0.8002393910795439
 50
180.0
 51
273.57633437500471
  0
ARC
  8
DETAIL
  6
CONTINUOUS
 62
     5
 10
-233.8074100871988
 20
-227.26252074972399
 30
0.0
 40
0.4001196955397739
 50
90.0
 51
173.2901631922409
  0
ARC
  8
DETAIL
  6
CONTINUOUS
 62
     5
 10
-229.7175862788369
 20
-227.26252074972399
 30
0.0
 40
0.4001196955399539
 50
6.7098368077460888
 51
90.0
  0
LINE
  8
DETAIL
  6
CONTINUOUS
 62
     5
 10
-229.17348838834801
 20
-228.46287983634329
 30
0.0
 11
-231.7624981830179
 21
-228.46287983634329
 31
0.0
  0
LINE
  8
DETAIL
  6
CONTINUOUS
 62
     5
 10
-229.0322696722755
 20
-229.66323892296259
 30
0.0
 11
-231.7624981830179
 21
-229.66323892296259
 31
0.0
  0
LINE
  8
DETAIL
  6
CONTINUOUS
 62
     5
 10
-231.7624981830179
 20
-230.86359800958229
 30
0.0
 11
-234.6339454098329
 21
-230.86359800958229
 31
0.0
  0
LINE
  8
DETAIL
  6
CONTINUOUS
 62
     5
 10
-231.7624981830179
 20
-232.06395709620159
 30
0.0
 11
-234.77516412590549
 21
-232.06395709620159
 31
0.0
  0
LINE
  8
DETAIL
  6
CONTINUOUS
 62
     5
 10
-228.60861352405681
 20
-233.26431618282089
 30
0.0
 11
-231.7624981830179
 21
-233.26431618282089
 31
0.0
  0
LINE
  8
DETAIL
  6
CONTINUOUS
 62
     5
 10
-228.46739480798391
 20
-234.4646752694407
 30
0.0
 11
-231.7624981830179
 21
-234.4646752694407
 31
0.0
  0
LINE
  8
DETAIL
  6
CONTINUOUS
 62
     5
 10
-231.7624981830179
 20
-235.66503435606049
 30
0.0
 11
-235.1988202741245
 21
-235.66503435606049
 31
0.0
  0
LINE
  8
DETAIL
  6
CONTINUOUS
 62
     5
 10
-231.7624981830179
 20
-236.86539344267931
 30
0.0
 11
-235.3400389901974
 21
-236.86539344267931
 31
0.0
  0
LINE
  8
DETAIL
  6
CONTINUOUS
 62
     5
 10
-228.04373865976549
 20
-238.06575252929861
 30
0.0
 11
-231.7624981830179
 21
-238.06575252929861
 31
0.0
  0
LINE
  8
DETAIL
  6
CONTINUOUS
 62
     5
 10
-227.9025199436926
 20
-239.26611161591839
 30
0.0
 11
-231.7624981830179
 21
-239.26611161591839
 31
0.0
  0
LINE
  8
DETAIL
  6
CONTINUOUS
 62
     5
 10
-232.56273757409741
 20
-236.86539344267931
 30
0.0
 11
-232.56273757409741
 21
-235.66503435606049
 31
0.0
  0
LINE
  8
DETAIL
  6
CONTINUOUS
 62
     5
 10
-230.96225879193821
 20
-239.26611161591839
 30
0.0
 11
-230.96225879193821
 21
-238.06575252929861
 31
0.0
  0
LINE
  8
DETAIL
  6
CONTINUOUS
 62
     5
 10
-232.56273757409741
 20
-232.06395709620159
 30
0.0
 11
-232.56273757409741
 21
-230.86359800958229
 31
0.0
  0
LINE
  8
DETAIL
  6
CONTINUOUS
 62
     5
 10
-230.96225879193821
 20
-229.66323892296259
 30
0.0
 11
-230.96225879193821
 21
-228.46287983634329
 31
0.0
  0
LINE
  8
DETAIL
  6
CONTINUOUS
 62
     5
 10
-230.96225879193821
 20
-234.4646752694407
 30
0.0
 11
-230.96225879193821
 21
-233.26431618282089
 31
0.0
  0
LINE
  8
DETAIL
  6
CONTINUOUS
 62
     5
 10
-224.56034366330141
 20
-245.26790704901529
 30
0.0
 11
-233.36297696517701
 21
-245.26790704901529
 31
0.0
  0
LINE
  8
DETAIL
  6
CONTINUOUS
 62
     5
 10
-233.36297696517701
 20
-252.47006156873201
 30
0.0
 11
-233.36297696517701
 21
-245.26790704901529
 31
0.0
  0
LINE
  8
DETAIL
  6
CONTINUOUS
 62
     5
 10
-232.9628572696374
 20
-226.8624010541844
 30
0.0
 11
-232.9628572696374
 21
-226.77186194278369
 31
0.0
  0
LINE
  8
DETAIL
  6
CONTINUOUS
 62
     5
 10
-230.56213909639831
 20
-226.8624010541844
 30
0.0
 11
-230.56213909639831
 21
-226.77186194278369
 31
0.0
  0
LINE
  8
DETAIL
  6
CONTINUOUS
 62
     5
 10
-224.56034366330141
 20
-254.87077974197061
 30
0.0
 11
-235.8635302618745
 21
-254.1643305795601
 31
0.0
  0
LINE
  8
DETAIL
  6
CONTINUOUS
 62
     5
 10
-211.67119719640851
 20
-251.38973839077471
 30
0.0
 11
-224.56034366330141
 21
-251.38973839077471
 31
0.0
  0
CIRCLE
  8
DETAIL
  6
CONTINUOUS
 62
     5
 10
-215.19754278766959
 20
-248.86898430887371
 30
0.0
 40
1.2403710561733969
  0
CIRCLE
  8
DETAIL
  6
CONTINUOUS
 62
     5
 10
-215.19754278766959
 20
-248.86898430887371
 30
0.0
 40
1.5604668126052359
  0
ARC
  8
DETAIL
  6
CONTINUOUS
 62
     5
 10
-235.76369513841581
 20
-252.5669686042188
 30
0.0
 40
1.6004787821593149
 50
180.0
 51
266.42366562499529
  0
LINE
  8
DETAIL
  6
CONTINUOUS
 62
     5
 10
-224.56034366330141
 20
-252.47006156873201
 30
0.0
 11
-233.36297696517701
 21
-252.47006156873201
 31
0.0
  0
LINE
  8
DETAIL
  6
CONTINUOUS
 62
     5
 10
-230.56213909639831
 20
-226.8624010541844
 30
0.0
 11
-230.56213909639831
 21
-212.29335441758349
 31
0.0
  0
LINE
  8
DETAIL
  6
CONTINUOUS
 62
     5
 10
-232.9628572696374
 20
-226.8624010541844
 30
0.0
 11
-232.9628572696374
 21
-213.02026528530359
 31
0.0
  0
ARC
  8
DETAIL
  6
CONTINUOUS
 62
     5
 10
-215.7577103614253
 20
-248.86898430887371
 30
0.0
 40
4.8014363464776784
 50
328.33175674645992
 51
31.66824325354014
  0
LINE
  8
DETAIL
  6
CONTINUOUS
 62
     5
 10
-211.67119719640851
 20
-251.38973839077471
 30
0.0
 11
-211.67119719640851
 21
-246.3482302269731
 31
0.0
  0
LINE
  8
DETAIL
  6
CONTINUOUS
 62
     5
 10
-215.49074157659371
 20
-137.55510235400061
 30
0.0
 11
-215.49074157659371
 21
-142.50765664996561
 31
0.0
  0
LINE
  8
DETAIL
  6
CONTINUOUS
 62
     5
 10
-215.49074157659371
 20
-137.55510235400061
 30
0.0
 11
-197.88186038730669
 21
-137.55510235400061
 31
0.0
  0
LINE
  8
DETAIL
  6
CONTINUOUS
 62
     5
 10
-215.49074157659371
 20
-142.50765664996561
 30
0.0
 11
-197.87638338101829
 21
-142.50765664996561
 31
0.0
  0
LINE
  8
DETAIL
  6
CONTINUOUS
 62
     5
 10
-4.30061187129769
 20
-199.83204958329489
 30
0.0
 11
-4.9749329670060547
 21
-201.0000079816258
 31
0.0
  0
LINE
  8
DETAIL
  6
CONTINUOUS
 62
     5
 10
-31.20072168942357
 20
-199.72716528336639
 30
0.0
 11
-31.492912769958199
 21
-200.8176372411989
 31
0.0
  0
LINE
  8
DETAIL
  6
CONTINUOUS
 62
     5
 10
-3.166636843403523
 20
-197.99999999994989
 30
0.0
 11
-3.166636843403523
 21
-201.0000075946258
 31
0.0
  0
LINE
  8
DETAIL
  6
CONTINUOUS
 62
     5
 10
-4.1666372240950409
 20
-198.2999981925567
 30
0.0
 11
-4.1666372240950409
 21
-199.33204939294899
 31
0.0
  0
LINE
  8
DETAIL
  6
CONTINUOUS
 62
     5
 10
-4.6666374144402312
 20
-197.99999999994989
 30
0.0
 11
-4.6666374144402312
 21
-199.0999984971094
 31
0.0
  0
LINE
  8
DETAIL
  6
CONTINUOUS
 62
     5
 10
-25.66664540895118
 20
-199.0999984971094
 30
0.0
 11
-25.66664540895118
 21
-197.99999999994989
 31
0.0
  0
LINE
  8
DETAIL
  6
CONTINUOUS
 62
     5
 10
-26.166645599296832
 20
-199.4683461397361
 30
0.0
 11
-26.166645599296832
 21
-198.2999981925567
 31
0.0
  0
LINE
  8
DETAIL
  6
CONTINUOUS
 62
     5
 10
-27.21202570976385
 20
-197.99999999994989
 30
0.0
 11
-27.21202570976385
 21
-201.00000013212261
 31
0.0
  0
LINE
  8
DETAIL
  6
CONTINUOUS
 62
     5
 10
-30.121267392285571
 20
-200.9999988640219
 30
0.0
 11
-30.121267392285571
 21
-197.99999999994989
 31
0.0
  0
LINE
  8
DETAIL
  6
CONTINUOUS
 62
     5
 10
-31.166647502751911
 20
-198.2999981925567
 30
0.0
 11
-31.166647502751911
 21
-199.4683461397361
 31
0.0
  0
LINE
  8
DETAIL
  6
CONTINUOUS
 62
     5
 10
-31.666647693097559
 20
-197.99999999994989
 30
0.0
 11
-31.666647693097559
 21
-199.0999984971094
 31
0.0
  0
LINE
  8
DETAIL
  6
CONTINUOUS
 62
     5
 10
-25.840380332190591
 20
-200.8176372411989
 30
0.0
 11
-26.132571412625168
 21
-199.72716528336639
 31
0.0
  0
LINE
  8
DETAIL
  6
CONTINUOUS
 62
     5
 10
-5.1666376047858762
 20
-199.59999868745479
 30
0.0
 11
-25.166645218605989
 21
-199.59999868745479
 31
0.0
  0
ARC
  8
DETAIL
  6
CONTINUOUS
 62
     5
 10
-32.166647605242872
 20
-199.0999984971094
 30
0.0
 40
0.5000001903455184
 50
270.0
 51
0.0
  0
ARC
  8
DETAIL
  6
CONTINUOUS
 62
     5
 10
-25.166645218605989
 20
-199.0999984971094
 30
0.0
 40
0.5000001903452704
 50
180.0
 51
270.0
  0
ARC
  8
DETAIL
  6
CONTINUOUS
 62
     5
 10
-5.1666373265857706
 20
-199.0999984971094
 30
0.0
 40
0.5000001903455184
 50
270.0
 51
0.0
  0
ARC
  8
DETAIL
  6
CONTINUOUS
 62
     5
 10
-32.166647883442749
 20
-199.4683461397361
 30
0.0
 40
1.000000380690641
 50
344.99999999999892
 51
0.0
  0
ARC
  8
DETAIL
  6
CONTINUOUS
 62
     5
 10
-25.166645218605989
 20
-199.4683461397361
 30
0.0
 40
1.0000003806909969
 50
180.0
 51
195.00000000000111
  0
ARC
  8
DETAIL
  6
CONTINUOUS
 62
     5
 10
-5.1666376047858762
 20
-199.33204939294899
 30
0.0
 40
1.0000003806910209
 50
329.99999999999989
 51
0.0
  0
ARC
  8
DETAIL
  6
CONTINUOUS
 62
     5
 10
-33.424765157896957
 20
-200.2999989539388
 30
0.0
 40
2.000000761381894
 50
339.50053971289589
 51
345.00000000000563
  0
ARC
  8
DETAIL
  6
CONTINUOUS
 62
     5
 10
-23.908527944152009
 20
-200.2999989539388
 30
0.0
 40
2.000000761382402
 50
194.99999999999449
 51
200.49953814749739
  0
LINE
  8
DETAIL
  6
CONTINUOUS
 62
     5
 10
-178.53917999999999
 20
-199.59999868745479
 30
0.0
 11
-32.166647883442749
 21
-199.59999868745479
 31
0.0
  0
LINE
  8
DETAIL
  6
CONTINUOUS
 62
     5
 10
128.3334132174634
 20
-200.9999992954225
 30
0.0
 11
-128.66668462012541
 21
-200.99999930802221
 31
0.0
  0
ARC
  8
DETAIL
  6
CONTINUOUS
 62
     5
 10
4.8333662021240684
 20
-199.0999984971094
 30
0.0
 40
0.5000001903452704
 50
180.0
 51
270.0
  0
ARC
  8
DETAIL
  6
CONTINUOUS
 62
     5
 10
4.8333662021240684
 20
-199.33204939294899
 30
0.0
 40
1.0000003806907689
 50
180.0
 51
210.00000000000011
  0
LINE
  8
DETAIL
  6
CONTINUOUS
 62
     5
 10
4.3333660117786508
 20
-199.0999984971094
 30
0.0
 11
4.3333660117786508
 21
-197.99999999994989
 31
0.0
  0
LINE
  8
DETAIL
  6
CONTINUOUS
 62
     5
 10
3.8333658214332331
 20
-199.33204939294899
 30
0.0
 11
3.8333658214332331
 21
-198.2999981925567
 31
0.0
  0
LINE
  8
DETAIL
  6
CONTINUOUS
 62
     5
 10
2.83336544074217
 20
-197.99999999994989
 30
0.0
 11
2.83336544074217
 21
-201.00000631052521
 31
0.0
  0
LINE
  8
DETAIL
  6
CONTINUOUS
 62
     5
 10
4.6416603760434896
 20
-201.00000592352481
 30
0.0
 11
3.9673404686358822
 21
-199.83204958329489
 31
0.0
  0
LINE
  8
DETAIL
  6
CONTINUOUS
 62
     5
 10
24.833373815944359
 20
-199.59999868745479
 30
0.0
 11
4.8333662021240684
 21
-199.59999868745479
 31
0.0
  0
LINE
  8
DETAIL
  6
CONTINUOUS
 62
     5
 10
31.83337648078145
 20
-199.59999868745479
 30
0.0
 11
178.53917999999999
 21
-199.59999868745479
 31
0.0
  0
ARC
  8
DETAIL
  6
CONTINUOUS
 62
     5
 10
24.833374094144229
 20
-199.0999984971094
 30
0.0
 40
0.5000001903455184
 50
270.0
 51
0.0
  0
ARC
  8
DETAIL
  6
CONTINUOUS
 62
     5
 10
31.83337648078145
 20
-199.0999984971094
 30
0.0
 40
0.5000001903454984
 50
180.0
 51
270.0
  0
ARC
  8
DETAIL
  6
CONTINUOUS
 62
     5
 10
24.833373815944359
 20
-199.4683461397361
 30
0.0
 40
1.0000003806910811
 50
345.00000000000563
 51
0.0
  0
ARC
  8
DETAIL
  6
CONTINUOUS
 62
     5
 10
31.83337648078145
 20
-199.4683461397361
 30
0.0
 40
1.0000003806907689
 50
180.0
 51
194.99999999999449
  0
ARC
  8
DETAIL
  6
CONTINUOUS
 62
     5
 10
23.57525654149072
 20
-200.2999989539388
 30
0.0
 40
2.0000007613818331
 50
339.5004397311011
 51
344.99999999999892
  0
ARC
  8
DETAIL
  6
CONTINUOUS
 62
     5
 10
33.091493755235213
 20
-200.2999989539388
 30
0.0
 40
2.000000761381961
 50
195.00000000000111
 51
200.49953064810339
  0
LINE
  8
DETAIL
  6
CONTINUOUS
 62
     5
 10
25.799300009963869
 20
-199.72716528336639
 30
0.0
 11
25.50710892942902
 21
-200.8176372411989
 31
0.0
  0
LINE
  8
DETAIL
  6
CONTINUOUS
 62
     5
 10
31.333376290436039
 20
-199.0999984971094
 30
0.0
 11
31.333376290436039
 21
-198.00000000004991
 31
0.0
  0
LINE
  8
DETAIL
  6
CONTINUOUS
 62
     5
 10
30.833376100090621
 20
-199.4683461397361
 30
0.0
 11
30.833376100090621
 21
-198.2999981925567
 31
0.0
  0
LINE
  8
DETAIL
  6
CONTINUOUS
 62
     5
 10
29.78799598962382
 20
-198.00000000004991
 30
0.0
 11
29.78799598962382
 21
-201.00000059962341
 31
0.0
  0
LINE
  8
DETAIL
  6
CONTINUOUS
 62
     5
 10
26.878754307101762
 20
-198.00000000004991
 30
0.0
 11
26.878754307101762
 21
-201.0000011644232
 31
0.0
  0
LINE
  8
DETAIL
  6
CONTINUOUS
 62
     5
 10
25.833374196635301
 20
-198.2999981925567
 30
0.0
 11
25.833374196635301
 21
-199.4683461397361
 31
0.0
  0
LINE
  8
DETAIL
  6
CONTINUOUS
 62
     5
 10
25.33337400628989
 20
-198.00000000004991
 30
0.0
 11
25.33337400628989
 21
-199.0999984971094
 31
0.0
  0
LINE
  8
DETAIL
  6
CONTINUOUS
 62
     5
 10
31.159641367196851
 20
-200.8176372411989
 30
0.0
 11
30.86745028676194
 21
-199.72716528336639
 31
0.0
  0
LINE
  8
DETAIL
  6
CONTINUOUS
 62
     5
 10
-19.16664293445962
 20
-213.77677725952509
 30
0.0
 11
-19.16664293445962
 21
-210.50000283698719
 31
0.0
  0
ARC
  8
DETAIL
  6
CONTINUOUS
 62
     5
 10
-17.16664217307795
 20
-210.50000283698719
 30
0.0
 40
2.000000761382025
 50
90.0
 51
180.0
  0
ARC
  8
DETAIL
  6
CONTINUOUS
 62
     5
 10
-0.166650836736892
 20
2375.4865023579409
 30
0.0
 40
2591.6468272710608
 50
269.62416378259968
 51
270.37583688669872
  0
LINE
  8
DETAIL
  6
CONTINUOUS
 62
     5
 10
-17.16664217307795
 20
-208.50000207560501
 30
0.0
 11
16.833370770416082
 21
-208.50000207560501
 31
0.0
  0
LINE
  8
DETAIL
  6
CONTINUOUS
 62
     5
 10
-17.53044625899901
 20
-215.42221246832679
 30
0.0
 11
16.469566684495021
 21
-215.42221246832679
 31
0.0
  0
ARC
  8
DETAIL
  6
CONTINUOUS
 62
     5
 10
16.833370770416082
 20
-210.50000283698719
 30
0.0
 40
2.0000007613824491
 50
0.0
 51
90.0
  0
LINE
  8
DETAIL
  6
CONTINUOUS
 62
     5
 10
18.833371531798779
 20
-210.50000283698719
 30
0.0
 11
18.833371531798779
 21
-213.77677690372491
 31
0.0
  0
ARC
  8
DETAIL
  6
CONTINUOUS
 62
     5
 10
-222.79981700292589
 20
-148.82140963009169
 30
0.0
 40
9.9229684493872394
 50
90.0
 51
180.0
  0
ARC
  8
DETAIL
  6
CONTINUOUS
 62
     5
 10
-222.79981730819321
 20
-148.82140963009169
 30
0.0
 40
8.0023939107961688
 50
90.0
 51
180.0
  0
LINE
  8
DETAIL
  6
CONTINUOUS
 62
     5
 10
-232.72278545231319
 20
-210.56364926390319
 30
0.0
 11
-232.72278545231319
 21
-148.82140963009169
 31
0.0
  0
LINE
  8
DETAIL
  6
CONTINUOUS
 62
     5
 10
-230.80221121898941
 20
-209.90044277549259
 30
0.0
 11
-230.80221121898941
 21
-148.82140963009169
 31
0.0
  0
LINE
  8
DETAIL
  6
CONTINUOUS
 62
     5
 10
-222.79981730819321
 20
-140.81901571929569
 30
0.0
 11
-215.49074157659371
 21
-140.81901571929569
 31
0.0
  0
LINE
  8
DETAIL
  6
CONTINUOUS
 62
     5
 10
-222.79981700292589
 20
-138.89844118070459
 30
0.0
 11
-215.49074157659371
 21
-138.89844118070459
 31
0.0
  0
ARC
  8
DETAIL
  6
CONTINUOUS
 62
     5
 10
16.755275060285609
 20
-213.28908603261351
 30
0.0
 40
2.134555534691092
 50
272.09671445158688
 51
346.79274176261049
  0
ARC
  8
DETAIL
  6
CONTINUOUS
 62
     5
 10
16.717006584448431
 20
-213.98151003534039
 30
0.0
 40
2.126244634456353
 50
273.13722578194898
 51
5.5254915308720189
  0
ARC
  8
DETAIL
  6
CONTINUOUS
 62
     5
 10
-17.08949308252198
 20
-213.32144646067951
 30
0.0
 40
2.134555534691136
 50
193.3180146284451
 51
259.7917916364778
  0
ARC
  8
DETAIL
  6
CONTINUOUS
 62
     5
 10
-17.10359901535827
 20
-214.03091889789931
 30
0.0
 40
2.0745052364114751
 50
173.97443488111381
 51
268.38277152691239
  0
LINE
  8
SIZE
  6
CONTINUOUS
 62
    30
 10
-212.0
 20
198.0
 30
0.0
 11
-430.05321012503049
 21
198.00000000000011
 31
0.0
  0
LINE
  8
SIZE
  6
CONTINUOUS
 62
    30
 10
-297.78437999999989
 20
0.0
 30
0.0
 11
-430.05321012503049
 21
0.0000000000000568
 31
0.0
  0
LINE
  8
SIZE
  6
CONTINUOUS
 62
    30
 10
-410.05321012503049
 20
186.0
 30
0.0
 11
-410.05321012503049
 21
12.00000000000006
 31
0.0
  0
CIRCLE
  8
SIZE
  6
CONTINUOUS
 62
    30
 10
-410.05321012503049
 20
198.0
 30
0.0
 40
6.0
  0
LINE
  8
SIZE
  6
CONTINUOUS
 62
    30
 10
-410.05321012503049
 20
198.0
 30
0.0
 11
-410.05321012503049
 21
186.0
 31
0.0
  0
CIRCLE
  8
SIZE
  6
CONTINUOUS
 62
    30
 10
-410.05321012503049
 20
0.0000000000000568
 30
0.0
 40
6.0
  0
LINE
  8
SIZE
  6
CONTINUOUS
 62
    30
 10
-410.05321012503049
 20
0.0000000000000568
 30
0.0
 11
-410.05321012503049
 21
12.00000000000006
 31
0.0
  0
TEXT
  8
SIZE
  6
CONTINUOUS
 62
    30
 10
-435.05321012503049
 20
24.42857142857137
 30
0.0
 40
64.0
  1
198
 50
90.0
 41
0.9
 72
     1
 11
-435.05321012503049
 21
92.999999999999943
 31
0.0
  0
LINE
  8
SIZE
  6
CONTINUOUS
 62
    30
 10
218.0
 20
-198.0
 30
0.0
 11
335.14873834751722
 21
-198.0
 31
0.0
  0
LINE
  8
SIZE
  6
CONTINUOUS
 62
    30
 10
20.00000925928612
 20
-221.99999995840929
 30
0.0
 11
335.14873834751722
 21
-221.9999999584094
 31
0.0
  0
LINE
  8
SIZE
  6
CONTINUOUS
 62
    30
 10
315.14873834751722
 20
-186.0
 30
0.0
 11
315.14873834751722
 21
-174.0
 31
0.0
  0
LINE
  8
SIZE
  6
CONTINUOUS
 62
    30
 10
315.14873834751722
 20
-233.99999995840929
 30
0.0
 11
315.14873834751722
 21
-391.99999995840932
 31
0.0
  0
LINE
  8
SIZE
  6
CONTINUOUS
 62
    30
 10
315.14873834751722
 20
-198.0
 30
0.0
 11
315.14873834751722
 21
-221.99999995840929
 31
0.0
  0
CIRCLE
  8
SIZE
  6
CONTINUOUS
 62
    30
 10
315.14873834751722
 20
-198.0
 30
0.0
 40
6.0
  0
LINE
  8
SIZE
  6
CONTINUOUS
 62
    30
 10
315.14873834751722
 20
-198.0
 30
0.0
 11
315.14873834751722
 21
-186.0
 31
0.0
  0
CIRCLE
  8
SIZE
  6
CONTINUOUS
 62
    30
 10
315.14873834751722
 20
-221.99999995840929
 30
0.0
 40
6.0
  0
LINE
  8
SIZE
  6
CONTINUOUS
 62
    30
 10
315.14873834751722
 20
-221.99999995840929
 30
0.0
 11
315.14873834751722
 21
-233.99999995840929
 31
0.0
  0
TEXT
  8
SIZE
  6
CONTINUOUS
 62
    30
 10
290.14873834751722
 20
-366.99999995840921
 30
0.0
 40
64.0
  1
24
 50
90.0
 41
0.9
 72
     1
 11
290.14873834751722
 21
-318.99999995840921
 31
0.0
  0
TEXT
  8
ETC
  6
CONTINUOUS
 62
    61
 10
452.71687051810198
 20
381.17476101558191
 30
0.0
 40
64.0
  1
EX-30EF8_2
 41
0.9
  0
TEXT
  8
ETC
  6
CONTINUOUS
 62
    61
 10
448.53087651810159
 20
263.21945100075072
 30
0.0
 40
64.0
  1
換気扇
 41
0.9
  0
TEXT
  8
ETC
  6
CONTINUOUS
 62
    61
 10
499.23227476665761
 20
155.07067811452541
 30
0.0
 40
40.0
  1
EX-30EF8
 50
0.0
 41
0.9
 51
0.0
  7
STANDARD
 71
     0
 11
0.0
 21
0.0
 31
0.0
210
0.0
220
0.0
230
1.0
  0
TEXT
  8
ETC
  6
CONTINUOUS
 62
    61
 10
499.23227476665761
 20
89.070678114525407
 30
0.0
 40
40.0
  1
EX-30FF8
 50
0.0
 41
0.9
 51
0.0
  7
STANDARD
 71
     0
 11
0.0
 21
0.0
 31
0.0
210
0.0
220
0.0
230
1.0
  0
ENDSEC
  0
EOF
