  0
SECTION
  2
HEADER
  9
$ACADVER
  1
AC1009
  9
$DWGCODEPAGE
  3
dos932
  9
$INSBASE
 10
0.0
 20
0.0
 30
0.0
  9
$EXTMIN
 10
-249.70548837411479
 20
-369.78148234749818
 30
-0.0154663864535678
  9
$EXTMAX
 10
1239.9170040035569
 20
512.05445128965039
 30
0.0019589945222265
  9
$LIMMIN
 10
-2970.0
 20
-2100.0
  9
$LIMMAX
 10
2970.0
 20
2100.0
  9
$ORTHOMODE
 70
     1
  9
$REGENMODE
 70
     1
  9
$FILLMODE
 70
     1
  9
$QTEXTMODE
 70
     0
  9
$MIRRTEXT
 70
     0
  9
$LTSCALE
 40
20.0
  9
$ATTMODE
 70
     1
  9
$TEXTSIZE
 40
64.0
  9
$TRACEWID
 40
0.05
  9
$TEXTSTYLE
  7
STANDARD
  9
$CLAYER
  8
NOTE
  9
$CELTYPE
  6
CONTINUOUS
  9
$CECOLOR
 62
     7
  9
$DIMSCALE
 40
1.0
  9
$DIMASZ
 40
12.0
  9
$DIMEXO
 40
20.0
  9
$DIMDLI
 40
200.0
  9
$DIMRND
 40
0.0
  9
$DIMDLE
 40
0.0
  9
$DIMEXE
 40
20.0
  9
$DIMTP
 40
0.0
  9
$DIMTM
 40
0.0
  9
$DIMTXT
 40
64.0
  9
$DIMCEN
 40
0.09
  9
$DIMTSZ
 40
0.0
  9
$DIMTOL
 70
     0
  9
$DIMLIM
 70
     0
  9
$DIMTIH
 70
     0
  9
$DIMTOH
 70
     0
  9
$DIMSE1
 70
     0
  9
$DIMSE2
 70
     0
  9
$DIMTAD
 70
     1
  9
$DIMZIN
 70
     8
  9
$DIMBLK
  1

  9
$DIMASO
 70
     1
  9
$DIMSHO
 70
     0
  9
$DIMPOST
  1

  9
$DIMAPOST
  1

  9
$DIMALT
 70
     0
  9
$DIMALTD
 70
     2
  9
$DIMALTF
 40
25.399999999999999
  9
$DIMLFAC
 40
1.0
  9
$DIMTOFL
 70
     1
  9
$DIMTVP
 40
0.0
  9
$DIMTIX
 70
     1
  9
$DIMSOXD
 70
     0
  9
$DIMSAH
 70
     0
  9
$DIMBLK1
  1

  9
$DIMBLK2
  1

  9
$DIMSTYLE
  2
STANDARD
  9
$DIMCLRD
 70
     7
  9
$DIMCLRE
 70
     7
  9
$DIMCLRT
 70
     7
  9
$DIMTFAC
 40
1.0
  9
$DIMGAP
 40
25.0
  9
$LUNITS
 70
     2
  9
$LUPREC
 70
     4
  9
$SKETCHINC
 40
0.1
  9
$FILLETRAD
 40
3.0
  9
$AUNITS
 70
     1
  9
$AUPREC
 70
     3
  9
$MENU
  1
ACAD
  9
$ELEVATION
 40
0.0
  9
$PELEVATION
 40
0.0
  9
$THICKNESS
 40
50.0
  9
$LIMCHECK
 70
     0
  9
$CHAMFERA
 40
0.0
  9
$CHAMFERB
 40
0.0
  9
$SKPOLY
 70
     0
  9
$TDCREATE
 40
2453019.62301037
  9
$TDUPDATE
 40
2459017.515094826
  9
$TDINDWG
 40
1.7187355093
  9
$TDUSRTIMER
 40
1.7187355093
  9
$USRTIMER
 70
     1
  9
$ANGBASE
 50
0.0
  9
$ANGDIR
 70
     0
  9
$PDMODE
 70
     3
  9
$PDSIZE
 40
-2.0
  9
$PLINEWID
 40
0.0
  9
$SPLFRAME
 70
     0
  9
$SPLINETYPE
 70
     6
  9
$SPLINESEGS
 70
     8
  9
$SURFTAB1
 70
     6
  9
$SURFTAB2
 70
     6
  9
$SURFTYPE
 70
     6
  9
$SURFU
 70
     6
  9
$SURFV
 70
     6
  9
$UCSNAME
  2

  9
$UCSORG
 10
0.0
 20
0.0
 30
0.0
  9
$UCSXDIR
 10
1.0
 20
0.0
 30
0.0
  9
$UCSYDIR
 10
0.0
 20
1.0
 30
0.0
  9
$PUCSNAME
  2

  9
$PUCSORG
 10
0.0
 20
0.0
 30
0.0
  9
$PUCSXDIR
 10
1.0
 20
0.0
 30
0.0
  9
$PUCSYDIR
 10
0.0
 20
1.0
 30
0.0
  9
$USERI1
 70
     0
  9
$USERI2
 70
     0
  9
$USERI3
 70
     0
  9
$USERI4
 70
     0
  9
$USERI5
 70
     0
  9
$USERR1
 40
20.0
  9
$USERR2
 40
0.0
  9
$USERR3
 40
0.0
  9
$USERR4
 40
0.0
  9
$USERR5
 40
0.0
  9
$WORLDVIEW
 70
     1
  9
$SHADEDGE
 70
     3
  9
$SHADEDIF
 70
    70
  9
$TILEMODE
 70
     1
  9
$MAXACTVP
 70
    48
  9
$PINSBASE
 10
0.0
 20
0.0
 30
0.0
  9
$PLIMCHECK
 70
     0
  9
$PEXTMIN
 10
-100000000000000000000.0
 20
-100000000000000000000.0
 30
-100000000000000000000.0
  9
$PEXTMAX
 10
100000000000000000000.0
 20
100000000000000000000.0
 30
100000000000000000000.0
  9
$PLIMMIN
 10
0.0
 20
0.0
  9
$PLIMMAX
 10
12.0
 20
9.0
  9
$UNITMODE
 70
     0
  9
$VISRETAIN
 70
     0
  9
$PLINEGEN
 70
     0
  9
$PSLTSCALE
 70
     0
  9
$TREEDEPTH
 70
  3020
  9
$ATTDIA
 70
     0
  9
$ATTREQ
 70
     1
  9
$BLIPMODE
 70
     1
  9
$COORDS
 70
     1
  9
$DRAGMODE
 70
     2
  9
$OSMODE
 70
     0
  9
$HANDLING
 70
     0
  9
$HANDSEED
  5
F95C
  0
ENDSEC
  0
SECTION
  2
TABLES
  0
TABLE
  2
LTYPE
 70
     2
  0
LTYPE
  2
CONTINUOUS
 70
     0
  3
実線
 72
    65
 73
     0
 40
0.0
  0
LTYPE
  2
DASHDOT
 70
     0
  3
____ _ ____ _ ____ _ ____ _ ____ _ ____ _ ____
 72
    65
 73
     4
 40
5.5
 49
4.0
 49
-0.6
 49
0.3
 49
-0.6
  0
ENDTAB
  0
TABLE
  2
LAYER
 70
    12
  0
LAYER
  2
0
 70
     0
 62
     7
  6
CONTINUOUS
  0
LAYER
  2
BASIS
 70
     0
 62
     6
  6
DASHDOT
  0
LAYER
  2
OUTLINE
 70
     0
 62
     3
  6
CONTINUOUS
  0
LAYER
  2
DETAIL
 70
     0
 62
     5
  6
CONTINUOUS
  0
LAYER
  2
SIZE
 70
     0
 62
    30
  6
CONTINUOUS
  0
LAYER
  2
ARRANGE
 70
     0
 62
     1
  6
CONTINUOUS
  0
LAYER
  2
ETC
 70
     0
 62
    61
  6
CONTINUOUS
  0
LAYER
  2
FIX
 70
     0
 62
    11
  6
CONTINUOUS
  0
LAYER
  2
NOTE
 70
     0
 62
     4
  6
CONTINUOUS
  0
LAYER
  2
DEFPOINTS
 70
    64
 62
     7
  6
CONTINUOUS
  0
LAYER
  2
SERVICESPACE
 70
    64
 62
     2
  6
DASHDOT
  0
LAYER
  2
SYMBOLLINE
 70
    64
 62
    15
  6
CONTINUOUS
  0
ENDTAB
  0
TABLE
  2
STYLE
 70
     1
  0
STYLE
  2
STANDARD
 70
     0
 40
64.0
 41
0.9
 50
0.0
 71
     0
 42
64.0
  3
SIMPLEX.shx
  4
BIGFONT.shx
  0
ENDTAB
  0
TABLE
  2
APPID
 70
    17
  0
APPID
  2
ACAD
 70
     0
  0
APPID
  2
AUTOCAD_POSTSCRIPT_FIGURE
 70
     0
  0
APPID
  2
ACAD_EXEMPT_FROM_CAD_STANDARDS
 70
     0
  0
APPID
  2
ACAD_PSEXT
 70
     0
  0
APPID
  2
ACAUTHENVIRON
 70
     0
  0
APPID
  2
GENIUS_GENOENT_13
 70
     0
  0
APPID
  2
GENIUS_GENCFG_13
 70
     0
  0
APPID
  2
GENIUS_GENCFG0_13
 70
     0
  0
APPID
  2
GENIUS_GENCFG1_13
 70
     0
  0
APPID
  2
GENIUS_GENCFG2_13
 70
     0
  0
APPID
  2
GENIUS_GENCFG3_13
 70
     0
  0
APPID
  2
GENIUS_GENCFG4_13
 70
     0
  0
APPID
  2
GENIUS_GEVCFG0_13
 70
     0
  0
APPID
  2
CONTENTBLOCKICON
 70
     0
  0
APPID
  2
CONTENTBLOCKDESCRIPTION
 70
     0
  0
APPID
  2
ACAD_NAV_VCDISPLAY
 70
     0
  0
APPID
  2
ACAD_MLEADERVER
 70
     0
  0
ENDTAB
  0
TABLE
  2
DIMSTYLE
 70
     1
  0
DIMSTYLE
  2
STANDARD
 70
     0
  3

  4

  5
_ORIGIN
  6

  7

 40
1.0
 41
12.0
 42
20.0
 43
200.0
 44
20.0
 45
0.0
 46
0.0
 47
0.0
 48
0.0
140
64.0
141
0.09
142
0.0
143
25.399999999999999
144
1.0
145
0.0
146
1.0
147
25.0
 71
     0
 72
     0
 73
     0
 74
     0
 75
     0
 76
     0
 77
     1
 78
     8
170
     0
171
     2
172
     1
173
     0
174
     1
175
     0
176
     7
177
     7
178
     7
  0
ENDTAB
  0
TABLE
  2
VIEW
 70
     1
  0
VIEW
  2
ALL
 70
     0
 40
4282.6198079999986
 10
0.0
 20
41.309904000000003
 41
5940.0
 11
0.0
 21
0.0
 31
1.0
 12
0.0
 22
0.0
 32
0.0
 42
50.0
 43
0.0
 44
0.0
 50
0.0
 71
     0
  0
ENDTAB
  0
TABLE
  2
UCS
 70
     0
  0
ENDTAB
  0
TABLE
  2
VPORT
 70
     1
  0
VPORT
  2
*ACTIVE
 70
     0
 10
0.0
 20
0.0
 11
1.0
 21
1.0
 12
495.10575781472102
 22
71.136484471076074
 13
0.0
 23
0.0
 14
1.0
 24
1.0
 15
0.0
 25
0.0
 16
0.0
 26
0.0
 36
1.0
 17
0.0
 27
0.0
 37
0.0
 40
694.45205599921519
 41
1.988684582743989
 42
50.0
 43
0.0
 44
0.0
 50
0.0
 51
0.0
 71
     0
 72
  1000
 73
     1
 74
     3
 75
     0
 76
     0
 77
     0
 78
     0
  0
ENDTAB
  0
ENDSEC
  0
SECTION
  2
BLOCKS
  0
BLOCK
  8
0
  2
_ORIGIN
 70
     0
 10
0.0
 20
0.0
 30
0.0
  3
_ORIGIN
  1
_ORIGIN
  0
CIRCLE
  8
0
  6
CONTINUOUS
 62
     7
 10
0.0
 20
0.0
 30
0.0
 40
0.5
  0
LINE
  8
0
  6
CONTINUOUS
 62
     7
 10
0.0
 20
0.0
 30
0.0
 11
-1.0
 21
0.0
 31
0.0
  0
ENDBLK
  8
0
  0
ENDSEC
  0
SECTION
  2
ENTITIES
  0
CIRCLE
  8
ARRANGE
  6
CONTINUOUS
 62
     1
 10
0.0
 20
0.0
 30
0.0
 40
40.0
  0
POINT
  8
ARRANGE
  6
CONTINUOUS
 62
     1
 10
0.0
 20
0.0
 30
0.0
  0
LINE
  8
BASIS
  6
DASHDOT
 62
     6
 10
192.61880181955709
 20
0.0
 30
0.0
 11
-110.4750828588972
 21
0.0
 31
0.0
  0
CIRCLE
  8
FIX
  6
CONTINUOUS
 62
    11
 10
-0.0000000000012506
 20
182.5
 30
0.0
 40
5.0
  0
LINE
  8
BASIS
  6
DASHDOT
 62
     6
 10
-0.0000000000012506
 20
172.5
 30
0.0
 11
-0.0000000000012506
 21
192.5
 31
0.0
  0
LINE
  8
BASIS
  6
DASHDOT
 62
     6
 10
-10.000000000001251
 20
182.5
 30
0.0
 11
9.9999999999987494
 21
182.5
 31
0.0
  0
CIRCLE
  8
FIX
  6
CONTINUOUS
 62
    11
 10
-0.0000000000000568
 20
-182.49999999999889
 30
0.0
 40
5.0
  0
LINE
  8
BASIS
  6
DASHDOT
 62
     6
 10
-0.0000000000000568
 20
-172.49999999999889
 30
0.0
 11
0.0000000000000568
 21
-192.49999999999889
 31
0.0
  0
LINE
  8
BASIS
  6
DASHDOT
 62
     6
 10
-10.00000000000006
 20
-182.49999999999909
 30
0.0
 11
9.9999999999999432
 21
-182.49999999999889
 31
0.0
  0
LINE
  8
SIZE
  6
CONTINUOUS
 62
    30
 10
-79.882997489829904
 20
213.56862231961441
 30
0.0
 11
-79.882997489829904
 21
377.95509258382532
 31
0.0
  0
LINE
  8
SIZE
  6
CONTINUOUS
 62
    30
 10
0.0
 20
209.70522336498499
 30
0.0
 11
0.0
 21
377.95509258382532
 31
0.0
  0
LINE
  8
SIZE
  6
CONTINUOUS
 62
    30
 10
-12.0
 20
357.95509258382532
 30
0.0
 11
-67.882997489829904
 21
357.95509258382532
 31
0.0
  0
LINE
  8
SIZE
  6
CONTINUOUS
 62
    30
 10
-79.882997489829904
 20
357.95509258382532
 30
0.0
 11
-235.1401403469728
 21
357.95509258382532
 31
0.0
  0
CIRCLE
  8
SIZE
  6
CONTINUOUS
 62
    30
 10
0.0
 20
357.95509258382532
 30
0.0
 40
6.0
  0
LINE
  8
SIZE
  6
CONTINUOUS
 62
    30
 10
0.0
 20
357.95509258382532
 30
0.0
 11
-12.0
 21
357.95509258382532
 31
0.0
  0
CIRCLE
  8
SIZE
  6
CONTINUOUS
 62
    30
 10
-79.882997489829904
 20
357.95509258382532
 30
0.0
 40
6.0
  0
LINE
  8
SIZE
  6
CONTINUOUS
 62
    30
 10
-79.882997489829904
 20
357.95509258382532
 30
0.0
 11
-67.882997489829904
 21
357.95509258382532
 31
0.0
  0
TEXT
  8
SIZE
  6
CONTINUOUS
 62
    30
 10
-210.14014034697269
 20
382.95509258382532
 30
0.0
 40
64.0
  1
80
 41
0.9
 72
     1
 11
-163.51156891840131
 21
382.95509258382532
 31
0.0
  0
LINE
  8
SIZE
  6
CONTINUOUS
 62
    30
 10
-20.507982175265401
 20
197.99305496882761
 30
0.0
 11
-180.5821502334492
 21
197.99305496882761
 31
0.0
  0
LINE
  8
SIZE
  6
CONTINUOUS
 62
    30
 10
-20.507982175265401
 20
-198.00917136346811
 30
0.0
 11
-180.58215023344931
 21
-198.00917136346811
 31
0.0
  0
LINE
  8
SIZE
  6
CONTINUOUS
 62
    30
 10
-160.5821502334492
 20
185.99305496882761
 30
0.0
 11
-160.58215023344931
 21
-186.00917136346811
 31
0.0
  0
CIRCLE
  8
SIZE
  6
CONTINUOUS
 62
    30
 10
-160.5821502334492
 20
197.99305496882761
 30
0.0
 40
6.0
  0
LINE
  8
SIZE
  6
CONTINUOUS
 62
    30
 10
-160.5821502334492
 20
197.99305496882761
 30
0.0
 11
-160.5821502334492
 21
185.99305496882761
 31
0.0
  0
CIRCLE
  8
SIZE
  6
CONTINUOUS
 62
    30
 10
-160.58215023344931
 20
-198.00917136346811
 30
0.0
 40
6.0
  0
LINE
  8
SIZE
  6
CONTINUOUS
 62
    30
 10
-160.58215023344931
 20
-198.00917136346811
 30
0.0
 11
-160.58215023344931
 21
-186.00917136346811
 31
0.0
  0
TEXT
  8
SIZE
  6
CONTINUOUS
 62
    30
 10
-185.58215023344931
 20
-109.1737724830345
 30
0.0
 40
64.0
  1
□396
 50
90.0
 41
0.9
 72
     1
 11
-185.58215023344931
 21
-0.0080581973202243
 31
0.0
  0
LINE
  8
SIZE
  6
CONTINUOUS
 62
    30
 10
29.999999999998749
 20
182.5
 30
0.0
 11
491.25305671522682
 21
182.49999999999989
 31
0.0
  0
LINE
  8
SIZE
  6
CONTINUOUS
 62
    30
 10
29.99999999999994
 20
-182.49999999999889
 30
0.0
 11
491.25305671522659
 21
-182.49999999999909
 31
0.0
  0
LINE
  8
SIZE
  6
CONTINUOUS
 62
    30
 10
471.25305671522682
 20
170.49999999999989
 30
0.0
 11
471.25305671522659
 21
-170.49999999999909
 31
0.0
  0
CIRCLE
  8
SIZE
  6
CONTINUOUS
 62
    30
 10
471.25305671522682
 20
182.49999999999989
 30
0.0
 40
6.0
  0
LINE
  8
SIZE
  6
CONTINUOUS
 62
    30
 10
471.25305671522682
 20
182.49999999999989
 30
0.0
 11
471.25305671522682
 21
170.49999999999989
 31
0.0
  0
CIRCLE
  8
SIZE
  6
CONTINUOUS
 62
    30
 10
471.25305671522659
 20
-182.49999999999909
 30
0.0
 40
6.0
  0
LINE
  8
SIZE
  6
CONTINUOUS
 62
    30
 10
471.25305671522659
 20
-182.49999999999909
 30
0.0
 11
471.25305671522659
 21
-170.49999999999909
 31
0.0
  0
TEXT
  8
SIZE
  6
CONTINUOUS
 62
    30
 10
446.25305671522659
 20
-74.057142857142907
 30
0.0
 40
64.0
  1
365
 50
90.0
 41
0.9
 72
     1
 11
446.25305671522659
 21
-0.0000000000000568
 31
0.0
  0
LINE
  8
SIZE
  6
CONTINUOUS
 62
    30
 10
0.0
 20
209.70522336498499
 30
0.0
 11
0.0
 21
252.5632332436638
 31
0.0
  0
LINE
  8
SIZE
  6
CONTINUOUS
 62
    30
 10
30.000000000000451
 20
197.49125801287201
 30
0.0
 11
30.000000000000451
 21
252.5632332436638
 31
0.0
  0
LINE
  8
SIZE
  6
CONTINUOUS
 62
    30
 10
42.000000000000448
 20
232.5632332436638
 30
0.0
 11
54.000000000000448
 21
232.5632332436638
 31
0.0
  0
LINE
  8
SIZE
  6
CONTINUOUS
 62
    30
 10
-12.0
 20
232.5632332436638
 30
0.0
 11
-221.89613821122941
 21
232.5632332436638
 31
0.0
  0
LINE
  8
SIZE
  6
CONTINUOUS
 62
    30
 10
30.000000000000451
 20
232.5632332436638
 30
0.0
 11
0.0
 21
232.5632332436638
 31
0.0
  0
CIRCLE
  8
SIZE
  6
CONTINUOUS
 62
    30
 10
30.000000000000451
 20
232.5632332436638
 30
0.0
 40
6.0
  0
LINE
  8
SIZE
  6
CONTINUOUS
 62
    30
 10
30.000000000000451
 20
232.5632332436638
 30
0.0
 11
42.000000000000448
 21
232.5632332436638
 31
0.0
  0
CIRCLE
  8
SIZE
  6
CONTINUOUS
 62
    30
 10
0.0
 20
232.5632332436638
 30
0.0
 40
6.0
  0
LINE
  8
SIZE
  6
CONTINUOUS
 62
    30
 10
0.0
 20
232.5632332436638
 30
0.0
 11
-12.0
 21
232.5632332436638
 31
0.0
  0
TEXT
  8
SIZE
  6
CONTINUOUS
 62
    30
 10
-196.8961382112293
 20
257.56323324366389
 30
0.0
 40
64.0
  1
30
 41
0.9
 72
     1
 11
-150.26756678265789
 21
257.56323324366389
 31
0.0
  0
LINE
  8
SIZE
  6
CONTINUOUS
 62
    30
 10
0.0
 20
209.70522336498499
 30
0.0
 11
0.0
 21
377.95509258382532
 31
0.0
  0
LINE
  8
SIZE
  6
CONTINUOUS
 62
    30
 10
90.213089223860607
 20
190.15054886600899
 30
0.0
 11
90.213089223860607
 21
377.95509258382532
 31
0.0
  0
LINE
  8
SIZE
  6
CONTINUOUS
 62
    30
 10
-12.0
 20
357.95509258382532
 30
0.0
 11
-24.0
 21
357.95509258382532
 31
0.0
  0
LINE
  8
SIZE
  6
CONTINUOUS
 62
    30
 10
102.21308922386061
 20
357.95509258382532
 30
0.0
 11
114.21308922386061
 21
357.95509258382532
 31
0.0
  0
LINE
  8
SIZE
  6
CONTINUOUS
 62
    30
 10
0.0
 20
357.95509258382532
 30
0.0
 11
90.213089223860607
 21
357.95509258382532
 31
0.0
  0
CIRCLE
  8
SIZE
  6
CONTINUOUS
 62
    30
 10
0.0
 20
357.95509258382532
 30
0.0
 40
6.0
  0
LINE
  8
SIZE
  6
CONTINUOUS
 62
    30
 10
0.0
 20
357.95509258382532
 30
0.0
 11
-12.0
 21
357.95509258382532
 31
0.0
  0
CIRCLE
  8
SIZE
  6
CONTINUOUS
 62
    30
 10
90.213089223860607
 20
357.95509258382532
 30
0.0
 40
6.0
  0
LINE
  8
SIZE
  6
CONTINUOUS
 62
    30
 10
90.213089223860607
 20
357.95509258382532
 30
0.0
 11
102.21308922386061
 21
357.95509258382532
 31
0.0
  0
TEXT
  8
SIZE
  6
CONTINUOUS
 62
    30
 10
-1.522026816641123
 20
382.95509258382532
 30
0.0
 40
64.0
  1
90
 41
0.9
 72
     1
 11
45.106544611930303
 21
382.95509258382532
 31
0.0
  0
LINE
  8
SIZE
  6
CONTINUOUS
 62
    30
 10
90.213089223860607
 20
190.15054886600899
 30
0.0
 11
90.213089223860607
 21
252.5632332436638
 31
0.0
  0
LINE
  8
SIZE
  6
CONTINUOUS
 62
    30
 10
175.23006259105219
 20
132.81540038919039
 30
0.0
 11
175.23006259105219
 21
252.5632332436638
 31
0.0
  0
LINE
  8
SIZE
  6
CONTINUOUS
 62
    30
 10
102.21308922386061
 20
232.5632332436638
 30
0.0
 11
163.23006259105219
 21
232.5632332436638
 31
0.0
  0
LINE
  8
SIZE
  6
CONTINUOUS
 62
    30
 10
175.23006259105219
 20
232.5632332436638
 30
0.0
 11
330.48720544819503
 21
232.5632332436638
 31
0.0
  0
CIRCLE
  8
SIZE
  6
CONTINUOUS
 62
    30
 10
90.213089223860607
 20
232.5632332436638
 30
0.0
 40
6.0
  0
LINE
  8
SIZE
  6
CONTINUOUS
 62
    30
 10
90.213089223860607
 20
232.5632332436638
 30
0.0
 11
102.21308922386061
 21
232.5632332436638
 31
0.0
  0
CIRCLE
  8
SIZE
  6
CONTINUOUS
 62
    30
 10
175.23006259105219
 20
232.5632332436638
 30
0.0
 40
6.0
  0
LINE
  8
SIZE
  6
CONTINUOUS
 62
    30
 10
175.23006259105219
 20
232.5632332436638
 30
0.0
 11
163.23006259105219
 21
232.5632332436638
 31
0.0
  0
TEXT
  8
SIZE
  6
CONTINUOUS
 62
    30
 10
212.2300625910523
 20
257.56323324366389
 30
0.0
 40
64.0
  1
85
 41
0.9
 72
     1
 11
258.85863401962371
 21
257.56323324366389
 31
0.0
  0
LINE
  8
SIZE
  6
CONTINUOUS
 62
    30
 10
110.21308922386061
 20
170.15054886600899
 30
0.0
 11
333.20224098639852
 21
170.15054886600899
 31
0.0
  0
LINE
  8
SIZE
  6
CONTINUOUS
 62
    30
 10
109.848751002932
 20
-170.28411896514669
 30
0.0
 11
333.20224098639852
 21
-170.2841189651468
 31
0.0
  0
LINE
  8
SIZE
  6
CONTINUOUS
 62
    30
 10
313.20224098639852
 20
158.15054886600899
 30
0.0
 11
313.20224098639852
 21
-158.28411896514669
 31
0.0
  0
CIRCLE
  8
SIZE
  6
CONTINUOUS
 62
    30
 10
313.20224098639852
 20
170.15054886600899
 30
0.0
 40
6.0
  0
LINE
  8
SIZE
  6
CONTINUOUS
 62
    30
 10
313.20224098639852
 20
170.15054886600899
 30
0.0
 11
313.20224098639852
 21
158.15054886600899
 31
0.0
  0
CIRCLE
  8
SIZE
  6
CONTINUOUS
 62
    30
 10
313.20224098639852
 20
-170.28411896514669
 30
0.0
 40
6.0
  0
LINE
  8
SIZE
  6
CONTINUOUS
 62
    30
 10
313.20224098639852
 20
-170.28411896514669
 30
0.0
 11
313.20224098639852
 21
-158.28411896514669
 31
0.0
  0
TEXT
  8
SIZE
  6
CONTINUOUS
 62
    30
 10
288.20224098639852
 20
-110.5870654729827
 30
0.0
 40
64.0
  1
□340
 50
90.0
 41
0.9
 72
     1
 11
288.20224098639852
 21
-0.0499226158398756
 31
0.0
  0
TEXT
  8
NOTE
  6
CONTINUOUS
 62
     4
 10
135.83173373917691
 20
-329.61892952636799
 30
0.0
 40
64.0
  1
4-φ5×8
 41
0.9
  0
LINE
  8
NOTE
  6
CONTINUOUS
 62
     4
 10
1.684636881428901
 20
-188.47885422700011
 30
0.0
 11
-0.0000000000002842
 21
-182.49999999999901
 31
0.0
  0
LINE
  8
NOTE
  6
CONTINUOUS
 62
     4
 10
-0.0000000000002842
 20
-182.49999999999901
 30
0.0
 11
4.4483719823516026
 21
-186.83551450195
 31
0.0
  0
LINE
  8
NOTE
  6
CONTINUOUS
 62
     4
 10
-0.0000000000002842
 20
-182.49999999999901
 30
0.0
 11
6.1330088637807876
 21
-192.814368728951
 31
0.0
  0
LINE
  8
NOTE
  6
CONTINUOUS
 62
     4
 10
6.1330088637807876
 20
-192.814368728951
 30
0.0
 11
111.3576369122224
 21
-369.77899362423142
 31
0.0
  0
LINE
  8
NOTE
  6
CONTINUOUS
 62
     4
 10
111.3576369122224
 20
-369.77899362423142
 30
0.0
 11
497.24906548365078
 21
-369.77899362423142
 31
0.0
  0
LINE
  8
NOTE
  6
CONTINUOUS
 62
     4
 10
30.000000000000451
 20
162.80983971914611
 30
0.0
 11
30.000000000000451
 21
177.49125801287201
 31
0.0
  0
LINE
  8
OUTLINE
  6
CONTINUOUS
 62
     3
 10
-43.953075501241763
 20
-197.25083443867149
 30
0.0
 11
-15.976599498025729
 21
-197.73916564375691
 31
0.0
  0
LINE
  8
OUTLINE
  6
CONTINUOUS
 62
     3
 10
-78.901886903014201
 20
-194.58312410077889
 30
0.0
 11
-71.404142447484219
 21
-194.7139977170105
 31
0.0
  0
LINE
  8
OUTLINE
  6
CONTINUOUS
 62
     3
 10
-70.896160272218367
 20
-181.0156327826254
 30
0.0
 11
-44.934186088057231
 21
-181.468800727592
 31
0.0
  0
LINE
  8
OUTLINE
  6
CONTINUOUS
 62
     3
 10
-79.882997489829904
 20
-193.58473871425491
 30
0.0
 11
-79.882997489829904
 21
193.56862231961441
 31
0.0
  0
LINE
  8
OUTLINE
  6
CONTINUOUS
 62
     3
 10
-70.896160272218367
 20
194.19868862918281
 30
0.0
 11
-70.896160272218367
 21
180.99951638798501
 31
0.0
  0
LINE
  8
OUTLINE
  6
CONTINUOUS
 62
     3
 10
-70.896160272218367
 20
-181.0156327826254
 30
0.0
 11
-70.896160272218367
 21
-194.21480502382329
 31
0.0
  0
LINE
  8
OUTLINE
  6
CONTINUOUS
 62
     3
 10
-44.934186088057231
 20
-196.2524490521474
 30
0.0
 11
-44.934186088057231
 21
-181.468800727592
 31
0.0
  0
LINE
  8
OUTLINE
  6
CONTINUOUS
 62
     3
 10
-44.934186088057231
 20
181.45268433295141
 30
0.0
 11
-44.934186088057231
 21
196.23633265750701
 31
0.0
  0
LINE
  8
OUTLINE
  6
CONTINUOUS
 62
     3
 10
0.0
 20
197.4938622756404
 30
0.0
 11
0.0
 21
170.75161431212859
 31
0.0
  0
LINE
  8
OUTLINE
  6
CONTINUOUS
 62
     3
 10
0.0045261583827596
 20
-170.88518441126581
 30
0.0
 11
0.0
 21
-197.5099786702809
 31
0.0
  0
LINE
  8
OUTLINE
  6
CONTINUOUS
 62
     3
 10
-70.896160272218367
 20
180.99951638798501
 30
0.0
 11
-44.934186088057231
 21
181.45268433295141
 31
0.0
  0
LINE
  8
OUTLINE
  6
CONTINUOUS
 62
     3
 10
-78.901886903014201
 20
194.5670077061385
 30
0.0
 11
-71.404142447484219
 21
194.69788132236999
 31
0.0
  0
LINE
  8
OUTLINE
  6
CONTINUOUS
 62
     3
 10
-43.953075501241763
 20
197.23471804403101
 30
0.0
 11
-0.507982175265397
 21
197.99305496882761
 31
0.0
  0
ARC
  8
OUTLINE
  6
CONTINUOUS
 62
     3
 10
-78.884460021306268
 20
-193.58473871425491
 30
0.0
 40
0.9985374686734612
 50
180.0
 51
268.99999999999818
  0
ARC
  8
OUTLINE
  6
CONTINUOUS
 62
     3
 10
-43.935648619383983
 20
-196.2524490521474
 30
0.0
 40
0.9985374686734612
 50
180.0
 51
268.99999999999818
  0
ARC
  8
OUTLINE
  6
CONTINUOUS
 62
     3
 10
-71.395429006630138
 20
-194.21480502382329
 30
0.0
 40
0.4992687342618574
 50
268.99999999999181
 51
0.0
  0
ARC
  8
OUTLINE
  6
CONTINUOUS
 62
     3
 10
-0.4992687342617046
 20
-197.5099786702809
 30
0.0
 40
0.4992687342618528
 50
268.99999999999818
 51
0.0
  0
ARC
  8
OUTLINE
  6
CONTINUOUS
 62
     3
 10
-78.884460021306268
 20
193.56862231961441
 30
0.0
 40
0.9985374686734428
 50
91.000000000001776
 51
180.0
  0
ARC
  8
OUTLINE
  6
CONTINUOUS
 62
     3
 10
-43.935648619383983
 20
196.23633265750701
 30
0.0
 40
0.9985374686734428
 50
91.000000000001776
 51
180.0
  0
ARC
  8
OUTLINE
  6
CONTINUOUS
 62
     3
 10
-71.395429006630138
 20
194.19868862918281
 30
0.0
 40
0.4992687342618255
 50
0.0
 51
91.000000000008285
  0
ARC
  8
OUTLINE
  6
CONTINUOUS
 62
     3
 10
-0.4992687342617046
 20
197.4938573447125
 30
0.0
 40
0.4992687342618345
 50
0.0005658579048856
 51
90.999990124694619
  0
LINE
  8
OUTLINE
  6
CONTINUOUS
 62
     3
 10
0.6010654461197191
 20
170.15054886600899
 30
0.0
 11
2.6714019827527409
 21
170.15054886600899
 31
0.0
  0
ARC
  8
OUTLINE
  6
CONTINUOUS
 62
     3
 10
0.6010654461197191
 20
170.75161431212859
 30
0.0
 40
0.601065446119214
 50
180.0
 51
270.0
  0
LINE
  8
OUTLINE
  6
CONTINUOUS
 62
     3
 10
90.213089223860607
 20
-169.6772320706186
 30
0.0
 11
90.213089223860607
 21
170.15054886600899
 31
0.0
  0
LINE
  8
OUTLINE
  6
CONTINUOUS
 62
     3
 10
4.0603752800943766
 20
-170.28411896514669
 30
0.0
 11
35.988155132367872
 21
-170.28411896514669
 31
0.0
  0
LINE
  8
OUTLINE
  6
CONTINUOUS
 62
     3
 10
35.920354071989998
 20
-170.28411896514669
 30
0.0
 11
66.842848033159044
 21
-170.28411896514669
 31
0.0
  0
LINE
  8
OUTLINE
  6
CONTINUOUS
 62
     3
 10
66.842848033159044
 20
-170.28411896514669
 30
0.0
 11
90.217615382242911
 21
-170.28411896514669
 31
0.0
  0
LINE
  8
OUTLINE
  6
CONTINUOUS
 62
     3
 10
2.0035514870648972
 20
-170.28411896514669
 30
0.0
 11
3.931331339338612
 21
-170.28411896514669
 31
0.0
  0
LINE
  8
OUTLINE
  6
CONTINUOUS
 62
     3
 10
0.605591604502024
 20
-170.28411896514669
 30
0.0
 11
2.0080776454476559
 21
-170.28411896514669
 31
0.0
  0
ARC
  8
OUTLINE
  6
CONTINUOUS
 62
     3
 10
0.605591604502024
 20
-170.88518441126581
 30
0.0
 40
0.60106544611915
 50
90.0
 51
180.0
  0
LINE
  8
OUTLINE
  6
CONTINUOUS
 62
     3
 10
90.213089223860607
 20
170.15054886600899
 30
0.0
 11
2.6714019827527409
 21
170.15054886600899
 31
0.0
  0
LINE
  8
DETAIL
  6
CONTINUOUS
 62
     5
 10
-14.478793295090551
 20
-197.78273948474211
 30
0.0
 11
-13.97952456067901
 21
-197.7740247165321
 31
0.0
  0
LINE
  8
DETAIL
  6
CONTINUOUS
 62
     5
 10
-14.478793295090551
 20
-205.70677673371119
 30
0.0
 11
-15.47733076361396
 21
-205.70677673371119
 31
0.0
  0
LINE
  8
DETAIL
  6
CONTINUOUS
 62
     5
 10
-13.97952456067901
 20
-205.20750799944949
 30
0.0
 11
-13.77981706700416
 21
-205.20750799944949
 31
0.0
  0
LINE
  8
DETAIL
  6
CONTINUOUS
 62
     5
 10
-13.97952456067901
 20
-204.80809301195021
 30
0.0
 11
-13.380402079504851
 21
-204.80809301195021
 31
0.0
  0
LINE
  8
DETAIL
  6
CONTINUOUS
 62
     5
 10
-13.97952456067901
 20
-204.6083855182753
 30
0.0
 11
-13.380402079504851
 21
-204.6083855182753
 31
0.0
  0
LINE
  8
DETAIL
  6
CONTINUOUS
 62
     5
 10
-13.77981706700416
 20
-204.2089705307761
 30
0.0
 11
-13.97952456067901
 21
-204.2089705307761
 31
0.0
  0
LINE
  8
DETAIL
  6
CONTINUOUS
 62
     5
 10
-15.976599498025729
 20
-203.7097017965142
 30
0.0
 11
-13.97952456067901
 21
-203.7097017965142
 31
0.0
  0
LINE
  8
DETAIL
  6
CONTINUOUS
 62
     5
 10
0.0
 20
-196.0124005904197
 30
0.0
 11
-0.507982175265397
 21
-196.01240059027
 31
0.0
  0
LINE
  8
DETAIL
  6
CONTINUOUS
 62
     5
 10
-44.934186088057231
 20
-195.25406366562319
 30
0.0
 11
-43.953075501241763
 21
-195.25406366562319
 31
0.0
  0
LINE
  8
DETAIL
  6
CONTINUOUS
 62
     5
 10
-70.896160272218367
 20
-193.71561233048629
 30
0.0
 11
-71.404142447484219
 21
-193.7156123309357
 31
0.0
  0
LINE
  8
DETAIL
  6
CONTINUOUS
 62
     5
 10
-75.60671263916106
 20
-193.65886381228751
 30
0.0
 11
-74.655262882563193
 21
-193.65886381228751
 31
0.0
  0
LINE
  8
DETAIL
  6
CONTINUOUS
 62
     5
 10
-43.953075501241763
 20
-197.25083443867149
 30
0.0
 11
-0.507982175265397
 21
-198.00917136346811
 31
0.0
  0
LINE
  8
DETAIL
  6
CONTINUOUS
 62
     5
 10
-43.953075501241763
 20
-195.25406366562319
 30
0.0
 11
-0.507982175265397
 21
-196.0124005904197
 31
0.0
  0
LINE
  8
DETAIL
  6
CONTINUOUS
 62
     5
 10
-78.901886903014201
 20
-194.58312410077889
 30
0.0
 11
-71.404142447484219
 21
-194.7139977170105
 31
0.0
  0
LINE
  8
DETAIL
  6
CONTINUOUS
 62
     5
 10
-75.60671263916106
 20
-193.65886381228751
 30
0.0
 11
-79.882997489829904
 21
-193.58422098256281
 31
0.0
  0
LINE
  8
DETAIL
  6
CONTINUOUS
 62
     5
 10
-74.655262882563193
 20
-193.65886381228751
 30
0.0
 11
-71.404142447484219
 21
-193.71561233048629
 31
0.0
  0
LINE
  8
DETAIL
  6
CONTINUOUS
 62
     5
 10
-70.896160272218367
 20
-181.0156327826254
 30
0.0
 11
-44.934186088057231
 21
-181.468800727592
 31
0.0
  0
LINE
  8
DETAIL
  6
CONTINUOUS
 62
     5
 10
-70.896160272218367
 20
-180.01724739610131
 30
0.0
 11
-44.934186088057231
 21
-180.47041534106771
 31
0.0
  0
LINE
  8
DETAIL
  6
CONTINUOUS
 62
     5
 10
-70.896160272218367
 20
-170.48552048538781
 30
0.0
 11
-44.934186088057231
 21
-170.0323525404211
 31
0.0
  0
LINE
  8
DETAIL
  6
CONTINUOUS
 62
     5
 10
-70.896160272218367
 20
-169.48713509886369
 30
0.0
 11
-44.934186088057231
 21
-169.03396715389709
 31
0.0
  0
LINE
  8
DETAIL
  6
CONTINUOUS
 62
     5
 10
-44.934186088057231
 20
-165.0663017607848
 30
0.0
 11
-70.896160272218367
 21
-165.0663017607848
 31
0.0
  0
LINE
  8
DETAIL
  6
CONTINUOUS
 62
     5
 10
-70.896160272218367
 20
-163.26893431726251
 30
0.0
 11
-44.934186088057231
 21
-163.26893431726251
 31
0.0
  0
LINE
  8
DETAIL
  6
CONTINUOUS
 62
     5
 10
-47.929798493927592
 20
-165.0663017607848
 30
0.0
 11
-70.896160272218367
 21
-168.86867953868821
 31
0.0
  0
LINE
  8
DETAIL
  6
CONTINUOUS
 62
     5
 10
-0.507982175265397
 20
-147.2448980796724
 30
0.0
 11
-8.2454086692137025
 21
-146.4711554302325
 31
0.0
  0
LINE
  8
DETAIL
  6
CONTINUOUS
 62
     5
 10
0.0
 20
-146.7930660849747
 30
0.0
 11
-8.1869957328940473
 21
-145.97436651170031
 31
0.0
  0
LINE
  8
DETAIL
  6
CONTINUOUS
 62
     5
 10
-8.1870378594426256
 20
-137.62639518469399
 30
0.0
 11
0.0
 21
-136.8076913986898
 31
0.0
  0
LINE
  8
DETAIL
  6
CONTINUOUS
 62
     5
 10
-8.2454086692137025
 20
-137.129602053432
 30
0.0
 11
-0.507982175265397
 21
-136.35585940399241
 31
0.0
  0
LINE
  8
DETAIL
  6
CONTINUOUS
 62
     5
 10
-10.4933568614008
 20
-143.98720063751111
 30
0.0
 11
-9.9853746862847856
 21
-143.98720063751111
 31
0.0
  0
LINE
  8
DETAIL
  6
CONTINUOUS
 62
     5
 10
-10.4933568614008
 20
-139.61355684615339
 30
0.0
 11
-9.9853746862847856
 21
-139.61355684630331
 31
0.0
  0
LINE
  8
DETAIL
  6
CONTINUOUS
 62
     5
 10
-79.882997489829904
 20
-193.58473871425491
 30
0.0
 11
-79.882997489829904
 21
193.56862231961441
 31
0.0
  0
LINE
  8
DETAIL
  6
CONTINUOUS
 62
     5
 10
-75.60671263916106
 20
193.642747417647
 30
0.0
 11
-75.60671263916106
 21
-193.65886381228751
 31
0.0
  0
LINE
  8
DETAIL
  6
CONTINUOUS
 62
     5
 10
-74.655262882563193
 20
193.642747417647
 30
0.0
 11
-74.655262882563193
 21
-193.65886381228751
 31
0.0
  0
LINE
  8
DETAIL
  6
CONTINUOUS
 62
     5
 10
-71.404142447484219
 20
193.69954010779841
 30
0.0
 11
-71.404142447484219
 21
-193.71561233048629
 31
0.0
  0
LINE
  8
DETAIL
  6
CONTINUOUS
 62
     5
 10
-70.896160272218367
 20
194.19868862918281
 30
0.0
 11
-70.896160272218367
 21
-194.21480502382329
 31
0.0
  0
LINE
  8
DETAIL
  6
CONTINUOUS
 62
     5
 10
-45.93272355673048
 20
165.05018536614421
 30
0.0
 11
-45.93272355673048
 21
163.2528179226222
 31
0.0
  0
LINE
  8
DETAIL
  6
CONTINUOUS
 62
     5
 10
-45.93272355673048
 20
-165.0663017607848
 30
0.0
 11
-45.93272355673048
 21
-163.26893431726251
 31
0.0
  0
LINE
  8
DETAIL
  6
CONTINUOUS
 62
     5
 10
-44.934186088057231
 20
-196.2524490521474
 30
0.0
 11
-44.934186088057231
 21
196.23633265750701
 31
0.0
  0
LINE
  8
DETAIL
  6
CONTINUOUS
 62
     5
 10
-43.953075501241763
 20
-195.25406366562319
 30
0.0
 11
-43.953075501241763
 21
195.23794727098289
 31
0.0
  0
LINE
  8
DETAIL
  6
CONTINUOUS
 62
     5
 10
-15.976599498025729
 20
-205.20750799944949
 30
0.0
 11
-15.976599498025729
 21
-197.73916564384251
 31
0.0
  0
LINE
  8
DETAIL
  6
CONTINUOUS
 62
     5
 10
-15.47733076361396
 20
-205.70677673371119
 30
0.0
 11
-15.47733076361396
 21
-197.7478804120523
 31
0.0
  0
LINE
  8
DETAIL
  6
CONTINUOUS
 62
     5
 10
-14.478793295090551
 20
-205.70677673371119
 30
0.0
 11
-14.478793295090551
 21
-197.78273948474211
 31
0.0
  0
LINE
  8
DETAIL
  6
CONTINUOUS
 62
     5
 10
-13.97952456067901
 20
-205.20750799944949
 30
0.0
 11
-13.97952456067901
 21
-197.7740247165321
 31
0.0
  0
LINE
  8
DETAIL
  6
CONTINUOUS
 62
     5
 10
-13.77981706700416
 20
-205.20750799944949
 30
0.0
 11
-13.77981706700416
 21
-204.2089705307761
 31
0.0
  0
LINE
  8
DETAIL
  6
CONTINUOUS
 62
     5
 10
-13.380402079504851
 20
-204.80809301195021
 30
0.0
 11
-13.380402079504851
 21
-204.6083855182753
 31
0.0
  0
LINE
  8
DETAIL
  6
CONTINUOUS
 62
     5
 10
-10.4933568614008
 20
-143.98720063751111
 30
0.0
 11
-10.4933568614008
 21
-139.61355684615339
 31
0.0
  0
LINE
  8
DETAIL
  6
CONTINUOUS
 62
     5
 10
-9.9853746862847856
 20
-143.98720063751111
 30
0.0
 11
-9.9853746862847856
 21
-139.61355684630331
 31
0.0
  0
LINE
  8
DETAIL
  6
CONTINUOUS
 62
     5
 10
-0.507982175265397
 20
195.99628419577951
 30
0.0
 11
-0.507982175265397
 21
-136.35585940399241
 31
0.0
  0
LINE
  8
DETAIL
  6
CONTINUOUS
 62
     5
 10
-0.507982175265397
 20
-147.2448980796724
 30
0.0
 11
-0.507982175265397
 21
-196.0124005904197
 31
0.0
  0
LINE
  8
DETAIL
  6
CONTINUOUS
 62
     5
 10
-0.4493418608806223
 20
-146.74813189888681
 30
0.0
 11
-0.4493418608806223
 21
-136.85262558477791
 31
0.0
  0
LINE
  8
DETAIL
  6
CONTINUOUS
 62
     5
 10
0.0
 20
197.4938622756404
 30
0.0
 11
0.0
 21
-136.8076913986898
 31
0.0
  0
LINE
  8
DETAIL
  6
CONTINUOUS
 62
     5
 10
0.0
 20
-146.7930660849747
 30
0.0
 11
0.0
 21
-197.5099786702809
 31
0.0
  0
LINE
  8
DETAIL
  6
CONTINUOUS
 62
     5
 10
0.0
 20
-146.7930660849747
 30
0.0
 11
0.0
 21
-136.8076913986898
 31
0.0
  0
LINE
  8
DETAIL
  6
CONTINUOUS
 62
     5
 10
-70.896160272218367
 20
168.85256314404759
 30
0.0
 11
-47.929798493927592
 21
165.05018536614421
 31
0.0
  0
LINE
  8
DETAIL
  6
CONTINUOUS
 62
     5
 10
-44.934186088057231
 20
163.2528179226222
 30
0.0
 11
-70.896160272218367
 21
163.2528179226222
 31
0.0
  0
LINE
  8
DETAIL
  6
CONTINUOUS
 62
     5
 10
-70.896160272218367
 20
165.05018536614421
 30
0.0
 11
-44.934186088057231
 21
165.05018536614421
 31
0.0
  0
LINE
  8
DETAIL
  6
CONTINUOUS
 62
     5
 10
-70.896160272218367
 20
169.47101870422321
 30
0.0
 11
-44.934186088057231
 21
169.01785075925659
 31
0.0
  0
LINE
  8
DETAIL
  6
CONTINUOUS
 62
     5
 10
-70.896160272218367
 20
170.4694040907473
 30
0.0
 11
-44.934186088057231
 21
170.01623614578071
 31
0.0
  0
LINE
  8
DETAIL
  6
CONTINUOUS
 62
     5
 10
-70.896160272218367
 20
180.00113100146061
 30
0.0
 11
-44.934186088057231
 21
180.4542989464276
 31
0.0
  0
LINE
  8
DETAIL
  6
CONTINUOUS
 62
     5
 10
-70.896160272218367
 20
180.99951638798501
 30
0.0
 11
-44.934186088057231
 21
181.45268433295141
 31
0.0
  0
LINE
  8
DETAIL
  6
CONTINUOUS
 62
     5
 10
-74.655262882563193
 20
193.642747417647
 30
0.0
 11
-71.404142447484219
 21
193.69954010779841
 31
0.0
  0
LINE
  8
DETAIL
  6
CONTINUOUS
 62
     5
 10
-79.882997489829904
 20
193.56810458792211
 30
0.0
 11
-75.60671263916106
 21
193.642747417647
 31
0.0
  0
LINE
  8
DETAIL
  6
CONTINUOUS
 62
     5
 10
-78.901886903014201
 20
194.5670077061385
 30
0.0
 11
-71.404142447484219
 21
194.69788132236999
 31
0.0
  0
LINE
  8
DETAIL
  6
CONTINUOUS
 62
     5
 10
-43.953075501241763
 20
195.23794727098289
 30
0.0
 11
-0.507982175265397
 21
195.99628419577951
 31
0.0
  0
LINE
  8
DETAIL
  6
CONTINUOUS
 62
     5
 10
-43.953075501241763
 20
197.23471804403101
 30
0.0
 11
-0.507982175265397
 21
197.99305496882761
 31
0.0
  0
LINE
  8
DETAIL
  6
CONTINUOUS
 62
     5
 10
-74.655262882563193
 20
193.642747417647
 30
0.0
 11
-75.60671263916106
 21
193.642747417647
 31
0.0
  0
LINE
  8
DETAIL
  6
CONTINUOUS
 62
     5
 10
-70.896160272218367
 20
193.69949593584579
 30
0.0
 11
-71.404142447484219
 21
193.69949593584579
 31
0.0
  0
LINE
  8
DETAIL
  6
CONTINUOUS
 62
     5
 10
-44.934186088057231
 20
195.23794727098289
 30
0.0
 11
-43.953075501241763
 21
195.23794727098289
 31
0.0
  0
LINE
  8
DETAIL
  6
CONTINUOUS
 62
     5
 10
0.0
 20
195.99628419577951
 30
0.0
 11
-0.507982175265397
 21
195.99628419577951
 31
0.0
  0
ARC
  8
DETAIL
  6
CONTINUOUS
 62
     5
 10
-78.884460021306268
 20
-193.58473871425491
 30
0.0
 40
0.9985374686734612
 50
180.0
 51
268.99999999999818
  0
ARC
  8
DETAIL
  6
CONTINUOUS
 62
     5
 10
-43.935648619383983
 20
-196.2524490521474
 30
0.0
 40
0.9985374686734612
 50
180.0
 51
268.99999999999818
  0
ARC
  8
DETAIL
  6
CONTINUOUS
 62
     5
 10
-71.395429006630138
 20
-194.21480502382329
 30
0.0
 40
0.4992687342618574
 50
268.99999999999181
 51
0.0
  0
ARC
  8
DETAIL
  6
CONTINUOUS
 62
     5
 10
-15.47733076361396
 20
-205.20750799944949
 30
0.0
 40
0.4992687342618255
 50
180.0
 51
270.0
  0
ARC
  8
DETAIL
  6
CONTINUOUS
 62
     5
 10
-0.4992687342617046
 20
-197.5099786702809
 30
0.0
 40
0.4992687342618528
 50
268.99999999999818
 51
0.0
  0
ARC
  8
DETAIL
  6
CONTINUOUS
 62
     5
 10
-14.478793295090551
 20
-205.20750799944949
 30
0.0
 40
0.4992687342617615
 50
270.0
 51
0.0
  0
ARC
  8
DETAIL
  6
CONTINUOUS
 62
     5
 10
-13.77981706700416
 20
-204.6083855182753
 30
0.0
 40
0.3994149874993703
 50
0.0
 51
90.0
  0
ARC
  8
DETAIL
  6
CONTINUOUS
 62
     5
 10
-13.77981706700416
 20
-204.80809301195021
 30
0.0
 40
0.3994149874993703
 50
270.0
 51
0.0
  0
ARC
  8
DETAIL
  6
CONTINUOUS
 62
     5
 10
-7.9970051489692651
 20
-143.98719336056939
 30
0.0
 40
2.4963517125812591
 50
180.00016701930019
 51
264.28923984319732
  0
ARC
  8
DETAIL
  6
CONTINUOUS
 62
     5
 10
-7.9970051549605614
 20
-139.61356411770311
 30
0.0
 40
2.4963517064402869
 50
95.710760030099777
 51
179.9998331073993
  0
ARC
  8
DETAIL
  6
CONTINUOUS
 62
     5
 10
-7.988299748937834
 20
-139.61355684615339
 30
0.0
 40
1.9970749371970971
 50
95.711219592705646
 51
180.00058091170041
  0
ARC
  8
DETAIL
  6
CONTINUOUS
 62
     5
 10
-7.988299748937834
 20
-143.98720063751111
 30
0.0
 40
1.99707493719703
 50
180.00062521039919
 51
264.28999504060363
  0
ARC
  8
DETAIL
  6
CONTINUOUS
 62
     5
 10
-78.884460021306268
 20
193.56862231961441
 30
0.0
 40
0.9985374686734428
 50
91.000000000001776
 51
180.0
  0
ARC
  8
DETAIL
  6
CONTINUOUS
 62
     5
 10
-43.935648619383983
 20
196.23633265750701
 30
0.0
 40
0.9985374686734428
 50
91.000000000001776
 51
180.0
  0
ARC
  8
DETAIL
  6
CONTINUOUS
 62
     5
 10
-71.395429006630138
 20
194.19868862918281
 30
0.0
 40
0.4992687342618255
 50
0.0
 51
91.000000000008285
  0
ARC
  8
DETAIL
  6
CONTINUOUS
 62
     5
 10
-0.4992687342617046
 20
197.4938573447125
 30
0.0
 40
0.4992687342618345
 50
0.0005658579048856
 51
90.999990124694619
  0
LINE
  8
DETAIL
  6
CONTINUOUS
 62
     5
 10
0.6010654461197191
 20
170.15054886600899
 30
0.0
 11
2.6714019827527409
 21
170.15054886600899
 31
0.0
  0
ARC
  8
DETAIL
  6
CONTINUOUS
 62
     5
 10
0.6010654461197191
 20
170.75161431212859
 30
0.0
 40
0.601065446119214
 50
180.0
 51
270.0
  0
LINE
  8
DETAIL
  6
CONTINUOUS
 62
     5
 10
90.213089223860607
 20
-169.6772320706186
 30
0.0
 11
90.213089223860607
 21
170.15054886600899
 31
0.0
  0
LINE
  8
DETAIL
  6
CONTINUOUS
 62
     5
 10
4.0603752800943766
 20
-170.28411896514669
 30
0.0
 11
35.988155132367872
 21
-170.28411896514669
 31
0.0
  0
LINE
  8
DETAIL
  6
CONTINUOUS
 62
     5
 10
35.920354071989998
 20
-170.28411896514669
 30
0.0
 11
66.842848033159044
 21
-170.28411896514669
 31
0.0
  0
LINE
  8
DETAIL
  6
CONTINUOUS
 62
     5
 10
66.842848033159044
 20
-170.28411896514669
 30
0.0
 11
90.217615382242911
 21
-170.28411896514669
 31
0.0
  0
LINE
  8
DETAIL
  6
CONTINUOUS
 62
     5
 10
2.0035514870648972
 20
-170.28411896514669
 30
0.0
 11
3.931331339338612
 21
-170.28411896514669
 31
0.0
  0
LINE
  8
DETAIL
  6
CONTINUOUS
 62
     5
 10
0.605591604502024
 20
-170.28411896514669
 30
0.0
 11
2.0080776454476559
 21
-170.28411896514669
 31
0.0
  0
ARC
  8
DETAIL
  6
CONTINUOUS
 62
     5
 10
0.605591604502024
 20
-170.88518441126581
 30
0.0
 40
0.60106544611915
 50
90.0
 51
180.0
  0
LINE
  8
DETAIL
  6
CONTINUOUS
 62
     5
 10
90.213089223860607
 20
170.15054886600899
 30
0.0
 11
2.6714019827527409
 21
170.15054886600899
 31
0.0
  0
LINE
  8
DETAIL
  6
CONTINUOUS
 62
     5
 10
85.924079287151017
 20
-132.44544847304749
 30
0.0
 11
85.924079287151017
 21
132.31187837390979
 31
0.0
  0
LINE
  8
DETAIL
  6
CONTINUOUS
 62
     5
 10
67.788079333045062
 20
132.31187837390979
 30
0.0
 11
67.788079333045062
 21
-132.44544847304749
 31
0.0
  0
CIRCLE
  8
DETAIL
  6
CONTINUOUS
 62
     5
 10
76.856079310098266
 20
127.4926596268605
 30
0.0
 40
5.3428039655048876
  0
LINE
  8
DETAIL
  6
CONTINUOUS
 62
     5
 10
74.872668280933794
 20
129.47607700921861
 30
0.0
 11
78.839490339262284
 21
125.5092422445023
 31
0.0
  0
LINE
  8
DETAIL
  6
CONTINUOUS
 62
     5
 10
78.839496692455668
 20
129.47607065602449
 30
0.0
 11
74.872661927739045
 21
125.5092485976965
 31
0.0
  0
CIRCLE
  8
DETAIL
  6
CONTINUOUS
 62
     5
 10
76.856079310098266
 20
32.657889239148737
 30
0.0
 40
5.3428039655048876
  0
LINE
  8
DETAIL
  6
CONTINUOUS
 62
     5
 10
74.872668280933794
 20
34.641306621506892
 30
0.0
 11
78.839490339262284
 21
30.67447185679055
 31
0.0
  0
LINE
  8
DETAIL
  6
CONTINUOUS
 62
     5
 10
78.839496692455668
 20
34.641300268312762
 30
0.0
 11
74.872661927739045
 21
30.67447820998467
 31
0.0
  0
CIRCLE
  8
DETAIL
  6
CONTINUOUS
 62
     5
 10
76.856079310098266
 20
-62.176881148563041
 30
0.0
 40
5.3428039655048876
  0
LINE
  8
DETAIL
  6
CONTINUOUS
 62
     5
 10
74.872668280933794
 20
-60.193463766205006
 30
0.0
 11
78.839490339262284
 21
-64.160298530921182
 31
0.0
  0
LINE
  8
DETAIL
  6
CONTINUOUS
 62
     5
 10
78.839496692455668
 20
-60.193470119399016
 30
0.0
 11
74.872661927739045
 21
-64.160292177727115
 31
0.0
  0
ARC
  8
DETAIL
  6
CONTINUOUS
 62
     5
 10
93.210561067548042
 20
127.0998862706036
 30
0.0
 40
0.400543334788876
 50
73.000000000004931
 51
163.00000000000171
  0
ARC
  8
DETAIL
  6
CONTINUOUS
 62
     5
 10
92.444478075492043
 20
127.33410134581879
 30
0.0
 40
0.4005433347889172
 50
253.00000000000489
 51
342.99999999999778
  0
ARC
  8
DETAIL
  6
CONTINUOUS
 62
     5
 10
174.54058789820169
 20
113.0261939568843
 30
0.0
 40
0.3604890013101735
 50
343.00000000000807
 51
72.999999999977732
  0
ARC
  8
DETAIL
  6
CONTINUOUS
 62
     5
 10
174.4071984040414
 20
112.5898965806319
 30
0.0
 40
0.3604890013099816
 50
238.56687775720411
 51
343.00000000000807
  0
ARC
  8
DETAIL
  6
CONTINUOUS
 62
     5
 10
174.4071984040414
 20
112.5898965806319
 30
0.0
 40
0.7209780026200956
 50
238.56687775721221
 51
343.00000000000489
  0
ARC
  8
DETAIL
  6
CONTINUOUS
 62
     5
 10
174.54058789820169
 20
113.0261939568843
 30
0.0
 40
0.7209780026202283
 50
343.00000000000489
 51
72.999999999998096
  0
LINE
  8
DETAIL
  6
CONTINUOUS
 62
     5
 10
170.22823942785939
 20
114.7215715703834
 30
0.0
 11
174.2192023171086
 21
112.28230953378799
 31
0.0
  0
LINE
  8
DETAIL
  6
CONTINUOUS
 62
     5
 10
174.03120623017529
 20
111.9747224869441
 30
0.0
 11
170.04024334096519
 21
114.4139845236673
 31
0.0
  0
LINE
  8
DETAIL
  6
CONTINUOUS
 62
     5
 10
174.75138146589529
 20
113.7156686497345
 30
0.0
 11
90.213089223860607
 21
134.57820823846711
 31
0.0
  0
LINE
  8
DETAIL
  6
CONTINUOUS
 62
     5
 10
174.64598468204881
 20
113.3709313033095
 30
0.0
 11
161.92900701392031
 21
117.2589015518809
 31
0.0
  0
LINE
  8
DETAIL
  6
CONTINUOUS
 62
     5
 10
95.498237082647393
 20
126.8193183868553
 30
0.0
 11
93.32766860515585
 21
127.4829277666316
 31
0.0
  0
LINE
  8
DETAIL
  6
CONTINUOUS
 62
     5
 10
157.5290015406193
 20
112.0003308788847
 30
0.0
 11
95.264022007432231
 21
126.0532353947993
 31
0.0
  0
LINE
  8
DETAIL
  6
CONTINUOUS
 62
     5
 10
90.213089223860607
 20
127.59746051672261
 30
0.0
 11
92.327370537884235
 21
126.9510598497907
 31
0.0
  0
LINE
  8
DETAIL
  6
CONTINUOUS
 62
     5
 10
157.52900153016009
 20
112.0003308816637
 30
0.0
 11
160.86332842169111
 21
113.7732239380264
 31
0.0
  0
LINE
  8
DETAIL
  6
CONTINUOUS
 62
     5
 10
95.264022007432231
 20
126.0532353947993
 30
0.0
 11
95.498237082647393
 21
126.8193183868553
 31
0.0
  0
LINE
  8
DETAIL
  6
CONTINUOUS
 62
     5
 10
170.04024334096519
 20
114.4139845236673
 30
0.0
 11
170.22823942785939
 21
114.7215715703834
 31
0.0
  0
LINE
  8
DETAIL
  6
CONTINUOUS
 62
     5
 10
160.86332842169111
 20
113.7732239380264
 30
0.0
 11
162.03440379776691
 21
117.603638898306
 31
0.0
  0
LINE
  8
DETAIL
  6
CONTINUOUS
 62
     5
 10
174.64598468204881
 20
113.3709313033095
 30
0.0
 11
174.75138146589529
 21
113.7156686497345
 31
0.0
  0
LINE
  8
DETAIL
  6
CONTINUOUS
 62
     5
 10
174.75193575046691
 20
112.4844997967853
 30
0.0
 11
174.8853252446273
 21
112.9207971730375
 31
0.0
  0
LINE
  8
DETAIL
  6
CONTINUOUS
 62
     5
 10
175.2300625910523
 20
112.8154003891907
 30
0.0
 11
175.09667309689189
 21
112.3791030129383
 31
0.0
  0
LINE
  8
DETAIL
  6
CONTINUOUS
 62
     5
 10
174.75138146589529
 20
18.880898262022701
 30
0.0
 11
90.213089223860607
 21
39.743437850755299
 31
0.0
  0
LINE
  8
DETAIL
  6
CONTINUOUS
 62
     5
 10
90.213089223860607
 20
32.762690129010707
 30
0.0
 11
92.327370537884235
 21
32.116289462078953
 31
0.0
  0
ARC
  8
DETAIL
  6
CONTINUOUS
 62
     5
 10
93.210561067548042
 20
32.265115882891727
 30
0.0
 40
0.4005433347889309
 50
72.999999999984439
 51
162.99999999999781
  0
ARC
  8
DETAIL
  6
CONTINUOUS
 62
     5
 10
92.444478075492043
 20
32.499330958107009
 30
0.0
 40
0.400543334788949
 50
252.99999999998451
 51
342.99999999999147
  0
ARC
  8
DETAIL
  6
CONTINUOUS
 62
     5
 10
174.54058789820169
 20
18.1914235691724
 30
0.0
 40
0.360489001310009
 50
343.00000000000489
 51
73.000000000004931
  0
ARC
  8
DETAIL
  6
CONTINUOUS
 62
     5
 10
174.4071984040414
 20
17.755126192920219
 30
0.0
 40
0.3604890013099771
 50
238.56687775720411
 51
343.00000000000171
  0
ARC
  8
DETAIL
  6
CONTINUOUS
 62
     5
 10
174.4071984040414
 20
17.755126192920219
 30
0.0
 40
0.7209780026200912
 50
238.56687775721221
 51
343.00000000000171
  0
ARC
  8
DETAIL
  6
CONTINUOUS
 62
     5
 10
174.54058789820169
 20
18.1914235691724
 30
0.0
 40
0.7209780026200683
 50
343.00000000000171
 51
73.000000000004931
  0
LINE
  8
DETAIL
  6
CONTINUOUS
 62
     5
 10
170.22823942785939
 20
19.886801182671551
 30
0.0
 11
174.2192023171086
 21
17.44753914607622
 31
0.0
  0
LINE
  8
DETAIL
  6
CONTINUOUS
 62
     5
 10
174.03120623017489
 20
17.13995209923235
 30
0.0
 11
170.04024334096519
 21
19.5792141359554
 31
0.0
  0
LINE
  8
DETAIL
  6
CONTINUOUS
 62
     5
 10
174.64598468204829
 20
18.53616091559752
 30
0.0
 11
161.92900701392031
 21
22.424131164169129
 31
0.0
  0
LINE
  8
DETAIL
  6
CONTINUOUS
 62
     5
 10
95.498237082647393
 20
31.984547999143441
 30
0.0
 11
93.32766860515585
 21
32.648157378919677
 31
0.0
  0
LINE
  8
DETAIL
  6
CONTINUOUS
 62
     5
 10
157.5290015406193
 20
17.165560491172869
 30
0.0
 11
95.264022007432231
 21
31.218465007087559
 31
0.0
  0
LINE
  8
DETAIL
  6
CONTINUOUS
 62
     5
 10
157.52900153016009
 20
17.16556049395194
 30
0.0
 11
160.86332842169111
 21
18.938453550314531
 31
0.0
  0
LINE
  8
DETAIL
  6
CONTINUOUS
 62
     5
 10
95.264022007432231
 20
31.218465007087559
 30
0.0
 11
95.498237082647393
 21
31.984547999143441
 31
0.0
  0
LINE
  8
DETAIL
  6
CONTINUOUS
 62
     5
 10
170.04024334096519
 20
19.5792141359554
 30
0.0
 11
170.22823942785939
 21
19.886801182671551
 31
0.0
  0
LINE
  8
DETAIL
  6
CONTINUOUS
 62
     5
 10
160.86332842169111
 20
18.938453550314531
 30
0.0
 11
162.03440379776691
 21
22.768868510594249
 31
0.0
  0
LINE
  8
DETAIL
  6
CONTINUOUS
 62
     5
 10
174.64598468204829
 20
18.53616091559752
 30
0.0
 11
174.75138146589529
 21
18.880898262022701
 31
0.0
  0
LINE
  8
DETAIL
  6
CONTINUOUS
 62
     5
 10
174.7519357504664
 20
17.649729409073419
 30
0.0
 11
174.88532524462681
 21
18.086026785325711
 31
0.0
  0
LINE
  8
DETAIL
  6
CONTINUOUS
 62
     5
 10
175.2300625910519
 20
17.98063000147874
 30
0.0
 11
175.09667309689189
 21
17.544332625226559
 31
0.0
  0
LINE
  8
DETAIL
  6
CONTINUOUS
 62
     5
 10
174.75138146589529
 20
-75.953872125689031
 30
0.0
 11
90.213089223860607
 21
-55.0913325369566
 31
0.0
  0
LINE
  8
DETAIL
  6
CONTINUOUS
 62
     5
 10
90.213089223860607
 20
-62.072080258701021
 30
0.0
 11
92.327370537884235
 21
-62.718480925632953
 31
0.0
  0
ARC
  8
DETAIL
  6
CONTINUOUS
 62
     5
 10
93.210561067548042
 20
-62.569654504819987
 30
0.0
 40
0.4005433347888989
 50
72.999999999984439
 51
163.00000000000489
  0
ARC
  8
DETAIL
  6
CONTINUOUS
 62
     5
 10
92.444478075492043
 20
-62.335439429604889
 30
0.0
 40
0.4005433347889309
 50
252.99999999998451
 51
342.99999999998749
  0
ARC
  8
DETAIL
  6
CONTINUOUS
 62
     5
 10
174.54058789820169
 20
-76.643346818539328
 30
0.0
 40
0.3604890013100136
 50
343.00000000000489
 51
73.000000000011738
  0
ARC
  8
DETAIL
  6
CONTINUOUS
 62
     5
 10
174.4071984040414
 20
-77.07964419479157
 30
0.0
 40
0.3604890013099496
 50
238.56687775719681
 51
343.00000000000489
  0
ARC
  8
DETAIL
  6
CONTINUOUS
 62
     5
 10
174.4071984040414
 20
-77.07964419479157
 30
0.0
 40
0.7209780026200912
 50
238.56687775721221
 51
342.99999999999778
  0
ARC
  8
DETAIL
  6
CONTINUOUS
 62
     5
 10
174.54058789820169
 20
-76.643346818539328
 30
0.0
 40
0.7209780026200774
 50
342.99999999999778
 51
73.000000000004931
  0
LINE
  8
DETAIL
  6
CONTINUOUS
 62
     5
 10
170.22823942785939
 20
-74.947969205040181
 30
0.0
 11
174.2192023171086
 21
-77.387231241635561
 31
0.0
  0
LINE
  8
DETAIL
  6
CONTINUOUS
 62
     5
 10
174.03120623017489
 20
-77.694818288479439
 30
0.0
 11
170.04024334096519
 21
-75.255556251756332
 31
0.0
  0
LINE
  8
DETAIL
  6
CONTINUOUS
 62
     5
 10
174.64598468204829
 20
-76.298609472114094
 30
0.0
 11
161.92900701392031
 21
-72.410639223542773
 31
0.0
  0
LINE
  8
DETAIL
  6
CONTINUOUS
 62
     5
 10
95.498237082647393
 20
-62.850222388568341
 30
0.0
 11
93.32766860515585
 21
-62.186613008792158
 31
0.0
  0
LINE
  8
DETAIL
  6
CONTINUOUS
 62
     5
 10
157.5290015406193
 20
-77.669209896538916
 30
0.0
 11
95.264022007432231
 21
-63.61630538062434
 31
0.0
  0
LINE
  8
DETAIL
  6
CONTINUOUS
 62
     5
 10
157.52900153016009
 20
-77.669209893759955
 30
0.0
 11
160.86332842169111
 21
-75.89631683739708
 31
0.0
  0
LINE
  8
DETAIL
  6
CONTINUOUS
 62
     5
 10
95.264022007432231
 20
-63.61630538062434
 30
0.0
 11
95.498237082647393
 21
-62.850222388568341
 31
0.0
  0
LINE
  8
DETAIL
  6
CONTINUOUS
 62
     5
 10
170.04024334096519
 20
-75.255556251756332
 30
0.0
 11
170.22823942785939
 21
-74.947969205040181
 31
0.0
  0
LINE
  8
DETAIL
  6
CONTINUOUS
 62
     5
 10
160.86332842169111
 20
-75.89631683739708
 30
0.0
 11
162.03440379776691
 21
-72.065901877117653
 31
0.0
  0
LINE
  8
DETAIL
  6
CONTINUOUS
 62
     5
 10
174.64598468204829
 20
-76.298609472114094
 30
0.0
 11
174.75138146589529
 21
-75.953872125689031
 31
0.0
  0
LINE
  8
DETAIL
  6
CONTINUOUS
 62
     5
 10
174.7519357504664
 20
-77.185040978638369
 30
0.0
 11
174.88532524462681
 21
-76.748743602386128
 31
0.0
  0
LINE
  8
DETAIL
  6
CONTINUOUS
 62
     5
 10
175.2300625910519
 20
-76.854140386232984
 30
0.0
 11
175.09667309689189
 21
-77.290437762485169
 31
0.0
  0
LINE
  8
DETAIL
  6
CONTINUOUS
 62
     5
 10
27.32859801724771
 20
175.8940631289274
 30
0.0
 11
30.000000000000451
 21
175.8940631289274
 31
0.0
  0
LINE
  8
DETAIL
  6
CONTINUOUS
 62
     5
 10
25.992897025871571
 20
174.5583621375512
 30
0.0
 11
30.000000000000451
 21
174.5583621375512
 31
0.0
  0
LINE
  8
DETAIL
  6
CONTINUOUS
 62
     5
 10
25.992897025871571
 20
170.15054886600899
 30
0.0
 11
25.992897025871571
 21
174.5583621375512
 31
0.0
  0
LINE
  8
DETAIL
  6
CONTINUOUS
 62
     5
 10
27.32859801724771
 20
170.15054886600899
 30
0.0
 11
27.32859801724771
 21
175.8940631289274
 31
0.0
  0
LINE
  8
DETAIL
  6
CONTINUOUS
 62
     5
 10
27.328552784741529
 20
175.8940151049263
 30
0.0
 11
25.992994492100021
 21
174.55845681228499
 31
0.0
  0
LINE
  8
DETAIL
  6
CONTINUOUS
 62
     5
 10
32.671401982752741
 20
175.8940631289274
 30
0.0
 11
30.000000000000451
 21
175.8940631289274
 31
0.0
  0
LINE
  8
DETAIL
  6
CONTINUOUS
 62
     5
 10
34.007102974128877
 20
174.5583621375512
 30
0.0
 11
30.000000000000451
 21
174.5583621375512
 31
0.0
  0
LINE
  8
DETAIL
  6
CONTINUOUS
 62
     5
 10
34.007102974128877
 20
170.15054886600899
 30
0.0
 11
34.007102974128877
 21
174.5583621375512
 31
0.0
  0
LINE
  8
DETAIL
  6
CONTINUOUS
 62
     5
 10
32.671401982752741
 20
170.15054886600899
 30
0.0
 11
32.671401982752741
 21
175.8940631289274
 31
0.0
  0
LINE
  8
DETAIL
  6
CONTINUOUS
 62
     5
 10
32.671448892132048
 20
175.89381334154481
 30
0.0
 11
34.007007184773101
 21
174.55825504890339
 31
0.0
  0
ARC
  8
DETAIL
  6
CONTINUOUS
 62
     5
 10
76.856079310097812
 20
130.7747685878719
 30
0.0
 40
9.1973545151945881
 50
9.620714433936298
 51
170.37928556606369
  0
ARC
  8
DETAIL
  6
CONTINUOUS
 62
     5
 10
76.856079310097812
 20
-130.90833868701031
 30
0.0
 40
9.1973545151942222
 50
189.6207144339331
 51
350.37928556606693
  0
TEXT
  8
ETC
  6
CONTINUOUS
 62
    61
 10
551.39705389852816
 20
447.74709127087613
 30
0.0
 40
64.0
  1
EX-30EK8-C_4
 41
0.9
  0
TEXT
  8
ETC
  6
CONTINUOUS
 62
    61
 10
547.21105989852776
 20
329.79178125604489
 30
0.0
 40
64.0
  1
換気扇
 41
0.9
  0
TEXT
  8
ETC
  6
CONTINUOUS
 62
    61
 10
597.91245814708373
 20
221.64300836981971
 30
0.0
 40
40.0
  1
EX-30EK8-C
 50
0.0
 41
0.9
 51
0.0
  7
STANDARD
 71
     0
 11
0.0
 21
0.0
 31
0.0
210
0.0
220
0.0
230
1.0
  0
TEXT
  8
ETC
  6
CONTINUOUS
 62
    61
 10
597.91245814708373
 20
155.64300836981971
 30
0.0
 40
40.0
  1
EX-30FK8-C
 50
0.0
 41
0.9
 51
0.0
  7
STANDARD
 71
     0
 11
0.0
 21
0.0
 31
0.0
210
0.0
220
0.0
230
1.0
  0
TEXT
  8
ETC
  6
CONTINUOUS
 62
    61
 10
597.91245814708373
 20
89.643008369819711
 30
0.0
 40
40.0
  1
EX-30RK8-C
 50
0.0
 41
0.9
 51
0.0
  7
STANDARD
 71
     0
 11
0.0
 21
0.0
 31
0.0
210
0.0
220
0.0
230
1.0
  0
LINE
  8
OUTLINE
  6
CONTINUOUS
 62
     3
 10
-14.478793295090551
 20
-205.70677673371119
 30
0.0
 11
-15.47733076361396
 21
-205.70677673371119
 31
0.0
  0
LINE
  8
OUTLINE
  6
CONTINUOUS
 62
     3
 10
-13.97952456067901
 20
-205.20750799944949
 30
0.0
 11
-13.77981706700416
 21
-205.20750799944949
 31
0.0
  0
LINE
  8
OUTLINE
  6
CONTINUOUS
 62
     3
 10
-13.77981706700416
 20
-204.2089705307761
 30
0.0
 11
-13.97952456067901
 21
-204.2089705307761
 31
0.0
  0
LINE
  8
OUTLINE
  6
CONTINUOUS
 62
     3
 10
-15.976599498025729
 20
-205.20750799944949
 30
0.0
 11
-15.976599498025729
 21
-197.73916564384251
 31
0.0
  0
LINE
  8
OUTLINE
  6
CONTINUOUS
 62
     3
 10
-13.97952456067901
 20
-204.2089705307761
 30
0.0
 11
-13.97952456067901
 21
-197.7740247165321
 31
0.0
  0
LINE
  8
OUTLINE
  6
CONTINUOUS
 62
     3
 10
-13.380402079504851
 20
-204.80809301195021
 30
0.0
 11
-13.380402079504851
 21
-204.6083855182753
 31
0.0
  0
ARC
  8
OUTLINE
  6
CONTINUOUS
 62
     3
 10
-15.47733076361396
 20
-205.20750799944949
 30
0.0
 40
0.4992687342618255
 50
180.0
 51
270.0
  0
ARC
  8
OUTLINE
  6
CONTINUOUS
 62
     3
 10
-14.478793295090551
 20
-205.20750799944949
 30
0.0
 40
0.4992687342617615
 50
270.0
 51
0.0
  0
ARC
  8
OUTLINE
  6
CONTINUOUS
 62
     3
 10
-13.77981706700416
 20
-204.6083855182753
 30
0.0
 40
0.3994149874993703
 50
0.0
 51
90.0
  0
ARC
  8
OUTLINE
  6
CONTINUOUS
 62
     3
 10
-13.77981706700416
 20
-204.80809301195021
 30
0.0
 40
0.3994149874993703
 50
270.0
 51
0.0
  0
LINE
  8
OUTLINE
  6
CONTINUOUS
 62
     3
 10
-13.97952456067901
 20
-197.77402471645391
 30
0.0
 11
-0.507982175265397
 21
-198.00917136346811
 31
0.0
  0
ENDSEC
  0
EOF
