  0
SECTION
  2
HEADER
  9
$ACADVER
  1
AC1009
  9
$DWGCODEPAGE
  3
dos932
  9
$INSBASE
 10
0.0
 20
0.0
 30
0.0
  9
$EXTMIN
 10
-473.57939000192528
 20
-262.11546659715901
 30
-0.0015257624927045
  9
$EXTMAX
 10
1019.668590661217
 20
537.36878237380733
 30
0.0022888765696933
  9
$LIMMIN
 10
-2970.0
 20
-2100.0
  9
$LIMMAX
 10
2970.0
 20
2100.0
  9
$ORTHOMODE
 70
     1
  9
$REGENMODE
 70
     1
  9
$FILLMODE
 70
     1
  9
$QTEXTMODE
 70
     0
  9
$MIRRTEXT
 70
     0
  9
$LTSCALE
 40
20.0
  9
$ATTMODE
 70
     1
  9
$TEXTSIZE
 40
64.0
  9
$TRACEWID
 40
0.05
  9
$TEXTSTYLE
  7
STANDARD
  9
$CLAYER
  8
SIZE
  9
$CELTYPE
  6
CONTINUOUS
  9
$CECOLOR
 62
     7
  9
$DIMSCALE
 40
1.0
  9
$DIMASZ
 40
12.0
  9
$DIMEXO
 40
20.0
  9
$DIMDLI
 40
200.0
  9
$DIMRND
 40
0.0
  9
$DIMDLE
 40
0.0
  9
$DIMEXE
 40
20.0
  9
$DIMTP
 40
0.0
  9
$DIMTM
 40
0.0
  9
$DIMTXT
 40
64.0
  9
$DIMCEN
 40
0.09
  9
$DIMTSZ
 40
0.0
  9
$DIMTOL
 70
     0
  9
$DIMLIM
 70
     0
  9
$DIMTIH
 70
     0
  9
$DIMTOH
 70
     0
  9
$DIMSE1
 70
     0
  9
$DIMSE2
 70
     0
  9
$DIMTAD
 70
     1
  9
$DIMZIN
 70
     8
  9
$DIMBLK
  1

  9
$DIMASO
 70
     1
  9
$DIMSHO
 70
     0
  9
$DIMPOST
  1

  9
$DIMAPOST
  1

  9
$DIMALT
 70
     0
  9
$DIMALTD
 70
     2
  9
$DIMALTF
 40
25.399999999999999
  9
$DIMLFAC
 40
1.0
  9
$DIMTOFL
 70
     1
  9
$DIMTVP
 40
0.0
  9
$DIMTIX
 70
     1
  9
$DIMSOXD
 70
     0
  9
$DIMSAH
 70
     0
  9
$DIMBLK1
  1

  9
$DIMBLK2
  1

  9
$DIMSTYLE
  2
STANDARD
  9
$DIMCLRD
 70
     7
  9
$DIMCLRE
 70
     7
  9
$DIMCLRT
 70
     7
  9
$DIMTFAC
 40
1.0
  9
$DIMGAP
 40
25.0
  9
$LUNITS
 70
     2
  9
$LUPREC
 70
     4
  9
$SKETCHINC
 40
0.1
  9
$FILLETRAD
 40
3.0
  9
$AUNITS
 70
     1
  9
$AUPREC
 70
     3
  9
$MENU
  1
ACAD
  9
$ELEVATION
 40
0.0
  9
$PELEVATION
 40
0.0
  9
$THICKNESS
 40
50.0
  9
$LIMCHECK
 70
     0
  9
$CHAMFERA
 40
0.0
  9
$CHAMFERB
 40
0.0
  9
$SKPOLY
 70
     0
  9
$TDCREATE
 40
2453019.62301037
  9
$TDUPDATE
 40
2459017.515816389
  9
$TDINDWG
 40
1.7120543981
  9
$TDUSRTIMER
 40
1.7120543981
  9
$USRTIMER
 70
     1
  9
$ANGBASE
 50
0.0
  9
$ANGDIR
 70
     0
  9
$PDMODE
 70
     3
  9
$PDSIZE
 40
-2.0
  9
$PLINEWID
 40
0.0
  9
$SPLFRAME
 70
     0
  9
$SPLINETYPE
 70
     6
  9
$SPLINESEGS
 70
     8
  9
$SURFTAB1
 70
     6
  9
$SURFTAB2
 70
     6
  9
$SURFTYPE
 70
     6
  9
$SURFU
 70
     6
  9
$SURFV
 70
     6
  9
$UCSNAME
  2

  9
$UCSORG
 10
0.0
 20
0.0
 30
0.0
  9
$UCSXDIR
 10
1.0
 20
0.0
 30
0.0
  9
$UCSYDIR
 10
0.0
 20
1.0
 30
0.0
  9
$PUCSNAME
  2

  9
$PUCSORG
 10
0.0
 20
0.0
 30
0.0
  9
$PUCSXDIR
 10
1.0
 20
0.0
 30
0.0
  9
$PUCSYDIR
 10
0.0
 20
1.0
 30
0.0
  9
$USERI1
 70
     0
  9
$USERI2
 70
     0
  9
$USERI3
 70
     0
  9
$USERI4
 70
     0
  9
$USERI5
 70
     0
  9
$USERR1
 40
20.0
  9
$USERR2
 40
0.0
  9
$USERR3
 40
0.0
  9
$USERR4
 40
0.0
  9
$USERR5
 40
0.0
  9
$WORLDVIEW
 70
     1
  9
$SHADEDGE
 70
     3
  9
$SHADEDIF
 70
    70
  9
$TILEMODE
 70
     1
  9
$MAXACTVP
 70
    48
  9
$PINSBASE
 10
0.0
 20
0.0
 30
0.0
  9
$PLIMCHECK
 70
     0
  9
$PEXTMIN
 10
-100000000000000000000.0
 20
-100000000000000000000.0
 30
-100000000000000000000.0
  9
$PEXTMAX
 10
100000000000000000000.0
 20
100000000000000000000.0
 30
100000000000000000000.0
  9
$PLIMMIN
 10
0.0
 20
0.0
  9
$PLIMMAX
 10
12.0
 20
9.0
  9
$UNITMODE
 70
     0
  9
$VISRETAIN
 70
     0
  9
$PLINEGEN
 70
     0
  9
$PSLTSCALE
 70
     0
  9
$TREEDEPTH
 70
  3020
  9
$ATTDIA
 70
     0
  9
$ATTREQ
 70
     1
  9
$BLIPMODE
 70
     1
  9
$COORDS
 70
     1
  9
$DRAGMODE
 70
     2
  9
$OSMODE
 70
     0
  9
$HANDLING
 70
     0
  9
$HANDSEED
  5
E6C1
  0
ENDSEC
  0
SECTION
  2
TABLES
  0
TABLE
  2
LTYPE
 70
     2
  0
LTYPE
  2
CONTINUOUS
 70
     0
  3
実線
 72
    65
 73
     0
 40
0.0
  0
LTYPE
  2
DASHDOT
 70
     0
  3
____ _ ____ _ ____ _ ____ _ ____ _ ____ _ ____
 72
    65
 73
     4
 40
5.5
 49
4.0
 49
-0.6
 49
0.3
 49
-0.6
  0
ENDTAB
  0
TABLE
  2
LAYER
 70
    12
  0
LAYER
  2
0
 70
     0
 62
     7
  6
CONTINUOUS
  0
LAYER
  2
BASIS
 70
     0
 62
     6
  6
DASHDOT
  0
LAYER
  2
OUTLINE
 70
     0
 62
     3
  6
CONTINUOUS
  0
LAYER
  2
DETAIL
 70
     0
 62
     5
  6
CONTINUOUS
  0
LAYER
  2
SIZE
 70
     0
 62
    30
  6
CONTINUOUS
  0
LAYER
  2
ARRANGE
 70
     0
 62
     1
  6
CONTINUOUS
  0
LAYER
  2
DEFPOINTS
 70
     0
 62
     7
  6
CONTINUOUS
  0
LAYER
  2
ETC
 70
     0
 62
    61
  6
CONTINUOUS
  0
LAYER
  2
FIX
 70
     0
 62
    11
  6
CONTINUOUS
  0
LAYER
  2
NOTE
 70
     0
 62
     4
  6
CONTINUOUS
  0
LAYER
  2
SERVICESPACE
 70
    64
 62
     2
  6
DASHDOT
  0
LAYER
  2
SYMBOLLINE
 70
    64
 62
    15
  6
CONTINUOUS
  0
ENDTAB
  0
TABLE
  2
STYLE
 70
     1
  0
STYLE
  2
STANDARD
 70
     0
 40
64.0
 41
0.9
 50
0.0
 71
     0
 42
64.0
  3
SIMPLEX.shx
  4
BIGFONT.shx
  0
ENDTAB
  0
TABLE
  2
APPID
 70
    17
  0
APPID
  2
ACAD
 70
     0
  0
APPID
  2
AUTOCAD_POSTSCRIPT_FIGURE
 70
     0
  0
APPID
  2
ACAD_EXEMPT_FROM_CAD_STANDARDS
 70
     0
  0
APPID
  2
ACAD_PSEXT
 70
     0
  0
APPID
  2
ACAUTHENVIRON
 70
     0
  0
APPID
  2
GENIUS_GENOENT_13
 70
     0
  0
APPID
  2
GENIUS_GENCFG_13
 70
     0
  0
APPID
  2
GENIUS_GENCFG0_13
 70
     0
  0
APPID
  2
GENIUS_GENCFG1_13
 70
     0
  0
APPID
  2
GENIUS_GENCFG2_13
 70
     0
  0
APPID
  2
GENIUS_GENCFG3_13
 70
     0
  0
APPID
  2
GENIUS_GENCFG4_13
 70
     0
  0
APPID
  2
GENIUS_GEVCFG0_13
 70
     0
  0
APPID
  2
CONTENTBLOCKICON
 70
     0
  0
APPID
  2
CONTENTBLOCKDESCRIPTION
 70
     0
  0
APPID
  2
ACAD_NAV_VCDISPLAY
 70
     0
  0
APPID
  2
ACAD_MLEADERVER
 70
     0
  0
ENDTAB
  0
TABLE
  2
DIMSTYLE
 70
     1
  0
DIMSTYLE
  2
STANDARD
 70
     0
  3

  4

  5
_ORIGIN
  6

  7

 40
1.0
 41
12.0
 42
20.0
 43
200.0
 44
20.0
 45
0.0
 46
0.0
 47
0.0
 48
0.0
140
64.0
141
0.09
142
0.0
143
25.399999999999999
144
1.0
145
0.0
146
1.0
147
25.0
 71
     0
 72
     0
 73
     0
 74
     0
 75
     0
 76
     0
 77
     1
 78
     8
170
     0
171
     2
172
     1
173
     0
174
     1
175
     0
176
     7
177
     7
178
     7
  0
ENDTAB
  0
TABLE
  2
VIEW
 70
     1
  0
VIEW
  2
ALL
 70
     0
 40
4282.6198079999986
 10
0.0
 20
41.309904000000003
 41
5940.0
 11
0.0
 21
0.0
 31
1.0
 12
0.0
 22
0.0
 32
0.0
 42
50.0
 43
0.0
 44
0.0
 50
0.0
 71
     0
  0
ENDTAB
  0
TABLE
  2
UCS
 70
     0
  0
ENDTAB
  0
TABLE
  2
VPORT
 70
     1
  0
VPORT
  2
*ACTIVE
 70
     0
 10
0.0
 20
0.0
 11
1.0
 21
1.0
 12
273.04460032964568
 22
137.62665788832419
 13
0.0
 23
0.0
 14
1.0
 24
1.0
 15
0.0
 25
0.0
 16
0.0
 26
0.0
 36
1.0
 17
0.0
 27
0.0
 37
0.0
 40
857.60550520749814
 41
1.747787610619469
 42
50.0
 43
0.0
 44
0.0
 50
0.0
 51
0.0
 71
     0
 72
  1000
 73
     1
 74
     3
 75
     0
 76
     0
 77
     0
 78
     0
  0
ENDTAB
  0
ENDSEC
  0
SECTION
  2
BLOCKS
  0
BLOCK
  8
0
  2
_ORIGIN
 70
     0
 10
0.0
 20
0.0
 30
0.0
  3
_ORIGIN
  1
_ORIGIN
  0
CIRCLE
  8
0
  6
CONTINUOUS
 62
     7
 10
0.0
 20
0.0
 30
0.0
 40
0.5
  0
LINE
  8
0
  6
CONTINUOUS
 62
     7
 10
0.0
 20
0.0
 30
0.0
 11
-1.0
 21
0.0
 31
0.0
  0
ENDBLK
  8
0
  0
ENDSEC
  0
SECTION
  2
ENTITIES
  0
TEXT
  8
ETC
  6
CONTINUOUS
 62
    61
 10
355.87273415488238
 20
473.05756241035641
 30
0.0
 40
64.0
  1
EX-30SK8-C_1
 41
0.9
  0
TEXT
  8
ETC
  6
CONTINUOUS
 62
    61
 10
351.68674015488199
 20
355.10225239552528
 30
0.0
 40
64.0
  1
換気扇
 41
0.9
  0
CIRCLE
  8
ARRANGE
  6
CONTINUOUS
 62
     1
 10
0.0
 20
0.0
 30
0.0
 40
40.0
  0
POINT
  8
ARRANGE
  6
CONTINUOUS
 62
     1
 10
0.0
 20
0.0
 30
0.0
  0
TEXT
  8
ETC
  6
CONTINUOUS
 62
    61
 10
402.38813840343801
 20
246.95347950929991
 30
0.0
 40
40.0
  1
EX-30SK8-C
 41
0.9
  0
CIRCLE
  8
FIX
  6
CONTINUOUS
 62
    11
 10
110.0
 20
0.0
 30
0.0
 40
5.0
  0
LINE
  8
BASIS
  6
DASHDOT
 62
     6
 10
110.0
 20
-10.0
 30
0.0
 11
110.0
 21
10.0
 31
0.0
  0
LINE
  8
BASIS
  6
DASHDOT
 62
     6
 10
100.0
 20
0.0
 30
0.0
 11
120.0
 21
0.0
 31
0.0
  0
CIRCLE
  8
FIX
  6
CONTINUOUS
 62
    11
 10
-110.0
 20
-0.0000000000000568
 30
0.0
 40
5.0
  0
LINE
  8
BASIS
  6
DASHDOT
 62
     6
 10
-110.0
 20
-10.00000000000006
 30
0.0
 11
-110.0
 21
9.9999999999999432
 31
0.0
  0
LINE
  8
BASIS
  6
DASHDOT
 62
     6
 10
-100.0
 20
-0.0000000000000568
 30
0.0
 11
-120.0
 21
-0.0000000000000568
 31
0.0
  0
LINE
  8
SIZE
  6
CONTINUOUS
 62
    30
 10
-197.99305496882761
 20
-20.507982175265401
 30
0.0
 11
-197.99305496882761
 21
-262.09314485552522
 31
0.0
  0
LINE
  8
SIZE
  6
CONTINUOUS
 62
    30
 10
198.00917136346811
 20
-20.507982175265401
 30
0.0
 11
198.00917136346811
 21
-262.09314485552522
 31
0.0
  0
LINE
  8
SIZE
  6
CONTINUOUS
 62
    30
 10
-185.99305496882761
 20
-242.0931448555252
 30
0.0
 11
186.00917136346811
 21
-242.0931448555252
 31
0.0
  0
CIRCLE
  8
SIZE
  6
CONTINUOUS
 62
    30
 10
-197.99305496882761
 20
-242.0931448555252
 30
0.0
 40
6.0
  0
LINE
  8
SIZE
  6
CONTINUOUS
 62
    30
 10
-197.99305496882761
 20
-242.0931448555252
 30
0.0
 11
-185.99305496882761
 21
-242.0931448555252
 31
0.0
  0
CIRCLE
  8
SIZE
  6
CONTINUOUS
 62
    30
 10
198.00917136346811
 20
-242.0931448555252
 30
0.0
 40
6.0
  0
LINE
  8
SIZE
  6
CONTINUOUS
 62
    30
 10
198.00917136346811
 20
-242.0931448555252
 30
0.0
 11
186.00917136346811
 21
-242.0931448555252
 31
0.0
  0
TEXT
  8
SIZE
  6
CONTINUOUS
 62
    30
 10
-109.1657142857143
 20
-217.0931448555252
 30
0.0
 40
64.0
  1
□396
 41
0.9
 72
     1
 11
0.0
 21
-217.0931448555252
 31
0.0
  0
LINE
  8
SIZE
  6
CONTINUOUS
 62
    30
 10
-110.0
 20
29.99999999999994
 30
0.0
 11
-110.0
 21
255.2122034655745
 31
0.0
  0
LINE
  8
SIZE
  6
CONTINUOUS
 62
    30
 10
110.0
 20
30.0
 30
0.0
 11
110.0
 21
255.2122034655745
 31
0.0
  0
LINE
  8
SIZE
  6
CONTINUOUS
 62
    30
 10
-98.0
 20
235.2122034655745
 30
0.0
 11
98.0
 21
235.2122034655745
 31
0.0
  0
CIRCLE
  8
SIZE
  6
CONTINUOUS
 62
    30
 10
-110.0
 20
235.2122034655745
 30
0.0
 40
6.0
  0
LINE
  8
SIZE
  6
CONTINUOUS
 62
    30
 10
-110.0
 20
235.2122034655745
 30
0.0
 11
-98.0
 21
235.2122034655745
 31
0.0
  0
CIRCLE
  8
SIZE
  6
CONTINUOUS
 62
    30
 10
110.0
 20
235.2122034655745
 30
0.0
 40
6.0
  0
LINE
  8
SIZE
  6
CONTINUOUS
 62
    30
 10
110.0
 20
235.2122034655745
 30
0.0
 11
98.0
 21
235.2122034655745
 31
0.0
  0
TEXT
  8
SIZE
  6
CONTINUOUS
 62
    30
 10
-74.05714285714285
 20
260.21220346557448
 30
0.0
 40
64.0
  1
220
 41
0.9
 72
     1
 11
0.0
 21
260.21220346557448
 31
0.0
  0
LINE
  8
SIZE
  6
CONTINUOUS
 62
    30
 10
170.28411896514669
 20
110.2176153822429
 30
0.0
 11
170.28411896514669
 21
389.64072226467567
 31
0.0
  0
LINE
  8
SIZE
  6
CONTINUOUS
 62
    30
 10
-170.1505488660091
 20
110.21308922386061
 30
0.0
 11
-170.1505488660091
 21
389.64072226467567
 31
0.0
  0
LINE
  8
SIZE
  6
CONTINUOUS
 62
    30
 10
158.28411896514669
 20
369.64072226467567
 30
0.0
 11
-158.1505488660091
 21
369.64072226467567
 31
0.0
  0
CIRCLE
  8
SIZE
  6
CONTINUOUS
 62
    30
 10
170.28411896514669
 20
369.64072226467567
 30
0.0
 40
6.0
  0
LINE
  8
SIZE
  6
CONTINUOUS
 62
    30
 10
170.28411896514669
 20
369.64072226467567
 30
0.0
 11
158.28411896514669
 21
369.64072226467567
 31
0.0
  0
CIRCLE
  8
SIZE
  6
CONTINUOUS
 62
    30
 10
-170.1505488660091
 20
369.64072226467567
 30
0.0
 40
6.0
  0
LINE
  8
SIZE
  6
CONTINUOUS
 62
    30
 10
-170.1505488660091
 20
369.64072226467567
 30
0.0
 11
-158.1505488660091
 21
369.64072226467567
 31
0.0
  0
TEXT
  8
SIZE
  6
CONTINUOUS
 62
    30
 10
-110.470357807574
 20
394.64072226467567
 30
0.0
 40
64.0
  1
□340
 41
0.9
 72
     1
 11
0.0667850495688072
 21
394.64072226467567
 31
0.0
  0
LINE
  8
SIZE
  6
CONTINUOUS
 62
    30
 10
20.0
 20
29.999999999999769
 30
0.0
 11
310.22959996992182
 21
29.999999999999719
 31
0.0
  0
LINE
  8
SIZE
  6
CONTINUOUS
 62
    30
 10
217.50997867028079
 20
0.0000000000001137
 30
0.0
 11
310.22959996992182
 21
-0.0000000000000568
 31
0.0
  0
LINE
  8
SIZE
  6
CONTINUOUS
 62
    30
 10
290.22959996992182
 20
-12.00000000000003
 30
0.0
 11
290.22959996992182
 21
-24.000000000000028
 31
0.0
  0
LINE
  8
SIZE
  6
CONTINUOUS
 62
    30
 10
290.22959996992182
 20
41.999999999999659
 30
0.0
 11
290.22959996992182
 21
197.2571428571425
 31
0.0
  0
LINE
  8
SIZE
  6
CONTINUOUS
 62
    30
 10
290.22959996992182
 20
0.0
 30
0.0
 11
290.22959996992182
 21
29.999999999999719
 31
0.0
  0
CIRCLE
  8
SIZE
  6
CONTINUOUS
 62
    30
 10
290.22959996992182
 20
0.0
 30
0.0
 40
6.0
  0
LINE
  8
SIZE
  6
CONTINUOUS
 62
    30
 10
290.22959996992182
 20
0.0
 30
0.0
 11
290.22959996992182
 21
-12.00000000000003
 31
0.0
  0
CIRCLE
  8
SIZE
  6
CONTINUOUS
 62
    30
 10
290.22959996992182
 20
29.999999999999719
 30
0.0
 40
6.0
  0
LINE
  8
SIZE
  6
CONTINUOUS
 62
    30
 10
290.22959996992182
 20
29.999999999999719
 30
0.0
 11
290.22959996992182
 21
41.999999999999659
 31
0.0
  0
TEXT
  8
SIZE
  6
CONTINUOUS
 62
    30
 10
265.22959996992182
 20
78.999999999999787
 30
0.0
 40
64.0
  1
30
 50
90.0
 41
0.9
 72
     1
 11
265.22959996992182
 21
125.62857142857121
 31
0.0
  0
LINE
  8
SIZE
  6
CONTINUOUS
 62
    30
 10
-217.4938622756404
 20
0.0
 30
0.0
 11
-404.46247145347212
 21
0.0000000000001705
 31
0.0
  0
LINE
  8
SIZE
  6
CONTINUOUS
 62
    30
 10
-213.56862231961441
 20
-79.882997489829904
 30
0.0
 11
-404.46247145347212
 21
-79.882997489829847
 31
0.0
  0
LINE
  8
SIZE
  6
CONTINUOUS
 62
    30
 10
-384.46247145347212
 20
-11.999999999999829
 30
0.0
 11
-384.46247145347212
 21
-67.882997489829847
 31
0.0
  0
LINE
  8
SIZE
  6
CONTINUOUS
 62
    30
 10
-384.46247145347212
 20
-79.882997489829847
 30
0.0
 11
-384.46247145347212
 21
-241.23548858672311
 31
0.0
  0
CIRCLE
  8
SIZE
  6
CONTINUOUS
 62
    30
 10
-384.46247145347212
 20
0.0000000000001705
 30
0.0
 40
6.0
  0
LINE
  8
SIZE
  6
CONTINUOUS
 62
    30
 10
-384.46247145347212
 20
0.0000000000001705
 30
0.0
 11
-384.46247145347212
 21
-11.999999999999829
 31
0.0
  0
CIRCLE
  8
SIZE
  6
CONTINUOUS
 62
    30
 10
-384.46247145347212
 20
-79.882997489829847
 30
0.0
 40
6.0
  0
LINE
  8
SIZE
  6
CONTINUOUS
 62
    30
 10
-384.46247145347212
 20
-79.882997489829847
 30
0.0
 11
-384.46247145347212
 21
-67.882997489829847
 31
0.0
  0
TEXT
  8
SIZE
  6
CONTINUOUS
 62
    30
 10
-409.46247145347212
 20
-216.23548858672311
 30
0.0
 40
64.0
  1
80
 50
90.0
 41
0.9
 72
     1
 11
-409.46247145347212
 21
-169.6069171581517
 31
0.0
  0
LINE
  8
SIZE
  6
CONTINUOUS
 62
    30
 10
-217.786505607816
 20
-0.0000000000003979
 30
0.0
 11
-404.46247145347212
 21
-0.0000000000002274
 31
0.0
  0
LINE
  8
SIZE
  6
CONTINUOUS
 62
    30
 10
-384.46247145347212
 20
11.999999999999771
 30
0.0
 11
-384.46247145347212
 21
90.213089223860663
 31
0.0
  0
CIRCLE
  8
SIZE
  6
CONTINUOUS
 62
    30
 10
-384.46247145347212
 20
-0.0000000000002274
 30
0.0
 40
6.0
  0
LINE
  8
SIZE
  6
CONTINUOUS
 62
    30
 10
-384.46247145347212
 20
-0.0000000000002274
 30
0.0
 11
-384.46247145347212
 21
11.999999999999771
 31
0.0
  0
TEXT
  8
SIZE
  6
CONTINUOUS
 62
    30
 10
-409.46247145347212
 20
-1.522026816641237
 30
0.0
 40
64.0
  1
90
 50
90.0
 41
0.9
 72
     1
 11
-409.46247145347212
 21
45.10654461193019
 31
0.0
  0
LINE
  8
SIZE
  6
CONTINUOUS
 62
    30
 10
-190.1505488660091
 20
90.213089223860607
 30
0.0
 11
-404.46247145347212
 21
90.213089223860663
 31
0.0
  0
CIRCLE
  8
SIZE
  6
CONTINUOUS
 62
    30
 10
-384.46247145347212
 20
90.213089223860663
 30
0.0
 40
6.0
  0
TEXT
  8
NOTE
  6
CONTINUOUS
 62
     4
 10
-349.71564360667548
 20
-169.68460548326021
 30
0.0
 40
64.0
  1
EL
 41
0.9
  0
LINE
  8
NOTE
  6
CONTINUOUS
 62
     4
 10
-200.113937073702
 20
-5.6320406163080747
 30
0.0
 11
-197.4938573447125
 21
-0.0000000000005116
 31
0.0
  0
LINE
  8
NOTE
  6
CONTINUOUS
 62
     4
 10
-197.4938573447125
 20
-0.0000000000005116
 30
0.0
 11
-196.94688331754509
 21
-6.1875292891113247
 31
0.0
  0
LINE
  8
NOTE
  6
CONTINUOUS
 62
     4
 10
-197.4938573447125
 20
-0.0000000000005116
 30
0.0
 11
-199.56696304653451
 21
-11.81956990541892
 31
0.0
  0
LINE
  8
NOTE
  6
CONTINUOUS
 62
     4
 10
-199.56696304653451
 20
-11.81956990541892
 30
0.0
 11
-231.28335196989221
 21
-192.64685512178659
 31
0.0
  0
LINE
  8
NOTE
  6
CONTINUOUS
 62
     4
 10
-231.28335196989221
 20
-192.64685512178659
 30
0.0
 11
-353.31192339846359
 21
-192.64685512178659
 31
0.0
  0
TEXT
  8
NOTE
  6
CONTINUOUS
 62
     4
 10
268.47282940393097
 20
-140.60844609923149
 30
0.0
 40
64.0
  1
4-φ5×8
 41
0.9
  0
LINE
  8
NOTE
  6
CONTINUOUS
 62
     4
 10
112.8689161518021
 20
-5.5094481941414983
 30
0.0
 11
110.0
 21
0.0
 31
0.0
  0
LINE
  8
NOTE
  6
CONTINUOUS
 62
     4
 10
110.0
 20
0.0
 30
0.0
 11
115.2392833943193
 21
-3.3368561257583451
 31
0.0
  0
LINE
  8
NOTE
  6
CONTINUOUS
 62
     4
 10
110.0
 20
0.0
 30
0.0
 11
118.1081995461213
 21
-8.8463043198998434
 31
0.0
  0
LINE
  8
NOTE
  6
CONTINUOUS
 62
     4
 10
118.1081995461213
 20
-8.8463043198998434
 30
0.0
 11
269.65153052197138
 21
-174.18491196491959
 31
0.0
  0
LINE
  8
NOTE
  6
CONTINUOUS
 62
     4
 10
269.65153052197138
 20
-174.18491196491959
 30
0.0
 11
655.54295909339976
 21
-174.18491196491959
 31
0.0
  0
LINE
  8
NOTE
  6
CONTINUOUS
 62
     4
 10
-197.49385734471241
 20
-10.000000000000281
 30
0.0
 11
-197.49385734471241
 21
9.9999999999997158
 31
0.0
  0
LINE
  8
NOTE
  6
CONTINUOUS
 62
     4
 10
-187.49385734471241
 20
-0.0000000000002842
 30
0.0
 11
-207.49385734471241
 21
-0.0000000000002842
 31
0.0
  0
LINE
  8
BASIS
  6
DASHDOT
 62
     6
 10
0.0
 20
193.8179401424218
 30
0.0
 11
0.0
 21
-101.99402179693909
 31
0.0
  0
LINE
  8
OUTLINE
  6
CONTINUOUS
 62
     3
 10
197.782739484742
 20
-14.478793295090551
 30
0.0
 11
197.77402471653221
 21
-13.97952456067901
 31
0.0
  0
LINE
  8
OUTLINE
  6
CONTINUOUS
 62
     3
 10
197.25083443867149
 20
-43.953075501241763
 30
0.0
 11
198.00917136346811
 21
-0.507982175265397
 31
0.0
  0
LINE
  8
OUTLINE
  6
CONTINUOUS
 62
     3
 10
194.5831241007788
 20
-78.901886903014201
 30
0.0
 11
194.71399771701039
 21
-71.404142447484219
 31
0.0
  0
LINE
  8
OUTLINE
  6
CONTINUOUS
 62
     3
 10
181.0156327826254
 20
-70.896160272218367
 30
0.0
 11
181.468800727592
 21
-44.934186088057231
 31
0.0
  0
LINE
  8
OUTLINE
  6
CONTINUOUS
 62
     3
 10
193.58473871425491
 20
-79.882997489829904
 30
0.0
 11
-193.56862231961441
 21
-79.882997489829904
 31
0.0
  0
LINE
  8
OUTLINE
  6
CONTINUOUS
 62
     3
 10
-194.19868862918281
 20
-70.896160272218367
 30
0.0
 11
-180.99951638798481
 21
-70.896160272218367
 31
0.0
  0
LINE
  8
OUTLINE
  6
CONTINUOUS
 62
     3
 10
181.0156327826254
 20
-70.896160272218367
 30
0.0
 11
194.21480502382329
 21
-70.896160272218367
 31
0.0
  0
LINE
  8
OUTLINE
  6
CONTINUOUS
 62
     3
 10
196.2524490521474
 20
-44.934186088057231
 30
0.0
 11
181.468800727592
 21
-44.934186088057231
 31
0.0
  0
LINE
  8
OUTLINE
  6
CONTINUOUS
 62
     3
 10
-181.45268433295141
 20
-44.934186088057231
 30
0.0
 11
-196.23633265750701
 21
-44.934186088057231
 31
0.0
  0
LINE
  8
OUTLINE
  6
CONTINUOUS
 62
     3
 10
-197.4938622756404
 20
0.0
 30
0.0
 11
-170.75161431212859
 21
0.0
 31
0.0
  0
LINE
  8
OUTLINE
  6
CONTINUOUS
 62
     3
 10
170.8851844112659
 20
0.0045261583827596
 30
0.0
 11
197.50997867028079
 21
0.0
 31
0.0
  0
LINE
  8
OUTLINE
  6
CONTINUOUS
 62
     3
 10
-180.99951638798481
 20
-70.896160272218367
 30
0.0
 11
-181.45268433295141
 21
-44.934186088057231
 31
0.0
  0
LINE
  8
OUTLINE
  6
CONTINUOUS
 62
     3
 10
-194.5670077061385
 20
-78.901886903014201
 30
0.0
 11
-194.69788132236999
 21
-71.404142447484219
 31
0.0
  0
LINE
  8
OUTLINE
  6
CONTINUOUS
 62
     3
 10
-197.23471804403101
 20
-43.953075501241763
 30
0.0
 11
-197.99305496882761
 21
-0.507982175265397
 31
0.0
  0
ARC
  8
OUTLINE
  6
CONTINUOUS
 62
     3
 10
193.58473871425491
 20
-78.884460021306268
 30
0.0
 40
0.9985374686734612
 50
270.0
 51
358.99999999999818
  0
ARC
  8
OUTLINE
  6
CONTINUOUS
 62
     3
 10
196.2524490521474
 20
-43.935648619383983
 30
0.0
 40
0.9985374686734612
 50
270.0
 51
358.99999999999818
  0
ARC
  8
OUTLINE
  6
CONTINUOUS
 62
     3
 10
194.21480502382329
 20
-71.395429006630138
 30
0.0
 40
0.4992687342618574
 50
358.99999999998522
 51
90.0
  0
ARC
  8
OUTLINE
  6
CONTINUOUS
 62
     3
 10
197.50997867028079
 20
-0.4992687342617046
 30
0.0
 40
0.4992687342618528
 50
358.99999999999818
 51
90.0
  0
ARC
  8
OUTLINE
  6
CONTINUOUS
 62
     3
 10
-193.56862231961441
 20
-78.884460021306268
 30
0.0
 40
0.9985374686734428
 50
181.00000000000179
 51
270.0
  0
ARC
  8
OUTLINE
  6
CONTINUOUS
 62
     3
 10
-196.23633265750701
 20
-43.935648619383983
 30
0.0
 40
0.9985374686734428
 50
181.00000000000179
 51
270.0
  0
ARC
  8
OUTLINE
  6
CONTINUOUS
 62
     3
 10
-194.19868862918281
 20
-71.395429006630138
 30
0.0
 40
0.4992687342618255
 50
90.0
 51
181.00000000000179
  0
ARC
  8
OUTLINE
  6
CONTINUOUS
 62
     3
 10
-197.4938573447125
 20
-0.4992687342617046
 30
0.0
 40
0.4992687342618345
 50
90.000565857908128
 51
180.99999012469459
  0
LINE
  8
OUTLINE
  6
CONTINUOUS
 62
     3
 10
-170.1505488660091
 20
0.6010654461197191
 30
0.0
 11
-170.1505488660091
 21
2.6714019827527409
 31
0.0
  0
ARC
  8
OUTLINE
  6
CONTINUOUS
 62
     3
 10
-170.75161431212859
 20
0.6010654461197191
 30
0.0
 40
0.601065446119214
 50
270.0
 51
0.0
  0
LINE
  8
OUTLINE
  6
CONTINUOUS
 62
     3
 10
170.28411896514669
 20
90.217615382242911
 30
0.0
 11
-170.1505488660091
 21
90.213089223860607
 31
0.0
  0
LINE
  8
OUTLINE
  6
CONTINUOUS
 62
     3
 10
170.28411896514669
 20
34.060375280094377
 30
0.0
 11
170.28411896514669
 21
65.988155132367865
 31
0.0
  0
LINE
  8
OUTLINE
  6
CONTINUOUS
 62
     3
 10
170.28411896514669
 20
65.920354071990005
 30
0.0
 11
170.28411896514669
 21
66.842848033159044
 31
0.0
  0
LINE
  8
OUTLINE
  6
CONTINUOUS
 62
     3
 10
170.28411896514669
 20
66.842848033159044
 30
0.0
 11
170.28411896514669
 21
90.217615382242911
 31
0.0
  0
LINE
  8
OUTLINE
  6
CONTINUOUS
 62
     3
 10
170.28411896514669
 20
2.0035514870648972
 30
0.0
 11
170.28411896514669
 21
33.931331339338612
 31
0.0
  0
LINE
  8
OUTLINE
  6
CONTINUOUS
 62
     3
 10
170.28411896514669
 20
0.605591604502024
 30
0.0
 11
170.28411896514669
 21
2.0080776454476559
 31
0.0
  0
ARC
  8
OUTLINE
  6
CONTINUOUS
 62
     3
 10
170.8851844112659
 20
0.605591604502024
 30
0.0
 40
0.60106544611915
 50
180.0
 51
270.0
  0
LINE
  8
OUTLINE
  6
CONTINUOUS
 62
     3
 10
-170.1505488660091
 20
90.213089223860607
 30
0.0
 11
-170.1505488660091
 21
2.6714019827527409
 31
0.0
  0
LINE
  8
DETAIL
  6
CONTINUOUS
 62
     5
 10
197.782739484742
 20
-14.478793295090551
 30
0.0
 11
197.77402471653221
 21
-13.97952456067901
 31
0.0
  0
LINE
  8
DETAIL
  6
CONTINUOUS
 62
     5
 10
196.0124005904197
 20
0.0
 30
0.0
 11
196.01240059027
 21
-0.507982175265397
 31
0.0
  0
LINE
  8
DETAIL
  6
CONTINUOUS
 62
     5
 10
195.25406366562311
 20
-44.934186088057231
 30
0.0
 11
195.25406366562311
 21
-43.953075501241763
 31
0.0
  0
LINE
  8
DETAIL
  6
CONTINUOUS
 62
     5
 10
193.71561233048621
 20
-70.896160272218367
 30
0.0
 11
193.71561233093581
 21
-71.404142447484219
 31
0.0
  0
LINE
  8
DETAIL
  6
CONTINUOUS
 62
     5
 10
193.65886381228759
 20
-75.60671263916106
 30
0.0
 11
193.65886381228759
 21
-74.655262882563193
 31
0.0
  0
LINE
  8
DETAIL
  6
CONTINUOUS
 62
     5
 10
197.25083443867149
 20
-43.953075501241763
 30
0.0
 11
198.00917136346811
 21
-0.507982175265397
 31
0.0
  0
LINE
  8
DETAIL
  6
CONTINUOUS
 62
     5
 10
195.25406366562311
 20
-43.953075501241763
 30
0.0
 11
196.0124005904197
 21
-0.507982175265397
 31
0.0
  0
LINE
  8
DETAIL
  6
CONTINUOUS
 62
     5
 10
194.5831241007788
 20
-78.901886903014201
 30
0.0
 11
194.71399771701039
 21
-71.404142447484219
 31
0.0
  0
LINE
  8
DETAIL
  6
CONTINUOUS
 62
     5
 10
193.65886381228759
 20
-75.60671263916106
 30
0.0
 11
193.58422098256281
 21
-79.882997489829904
 31
0.0
  0
LINE
  8
DETAIL
  6
CONTINUOUS
 62
     5
 10
193.65886381228759
 20
-74.655262882563193
 30
0.0
 11
193.71561233048621
 21
-71.404142447484219
 31
0.0
  0
LINE
  8
DETAIL
  6
CONTINUOUS
 62
     5
 10
181.0156327826254
 20
-70.896160272218367
 30
0.0
 11
181.468800727592
 21
-44.934186088057231
 31
0.0
  0
LINE
  8
DETAIL
  6
CONTINUOUS
 62
     5
 10
180.01724739610131
 20
-70.896160272218367
 30
0.0
 11
180.47041534106771
 21
-44.934186088057231
 31
0.0
  0
LINE
  8
DETAIL
  6
CONTINUOUS
 62
     5
 10
170.48552048538781
 20
-70.896160272218367
 30
0.0
 11
170.03235254042099
 21
-44.934186088057231
 31
0.0
  0
LINE
  8
DETAIL
  6
CONTINUOUS
 62
     5
 10
169.4871350988636
 20
-70.896160272218367
 30
0.0
 11
169.03396715389701
 21
-44.934186088057231
 31
0.0
  0
LINE
  8
DETAIL
  6
CONTINUOUS
 62
     5
 10
165.06630176078491
 20
-44.934186088057231
 30
0.0
 11
165.06630176078491
 21
-70.896160272218367
 31
0.0
  0
LINE
  8
DETAIL
  6
CONTINUOUS
 62
     5
 10
163.26893431726251
 20
-70.896160272218367
 30
0.0
 11
163.26893431726251
 21
-44.934186088057231
 31
0.0
  0
LINE
  8
DETAIL
  6
CONTINUOUS
 62
     5
 10
165.06630176078491
 20
-47.929798493927592
 30
0.0
 11
168.86867953868821
 21
-70.896160272218367
 31
0.0
  0
LINE
  8
DETAIL
  6
CONTINUOUS
 62
     5
 10
193.58473871425491
 20
-79.882997489829904
 30
0.0
 11
-193.56862231961441
 21
-79.882997489829904
 31
0.0
  0
LINE
  8
DETAIL
  6
CONTINUOUS
 62
     5
 10
-193.642747417647
 20
-75.60671263916106
 30
0.0
 11
193.65886381228759
 21
-75.60671263916106
 31
0.0
  0
LINE
  8
DETAIL
  6
CONTINUOUS
 62
     5
 10
-193.642747417647
 20
-74.655262882563193
 30
0.0
 11
193.65886381228759
 21
-74.655262882563193
 31
0.0
  0
LINE
  8
DETAIL
  6
CONTINUOUS
 62
     5
 10
-193.69954010779841
 20
-71.404142447484219
 30
0.0
 11
193.71561233048621
 21
-71.404142447484219
 31
0.0
  0
LINE
  8
DETAIL
  6
CONTINUOUS
 62
     5
 10
-194.19868862918281
 20
-70.896160272218367
 30
0.0
 11
194.21480502382329
 21
-70.896160272218367
 31
0.0
  0
LINE
  8
DETAIL
  6
CONTINUOUS
 62
     5
 10
-165.05018536614421
 20
-45.93272355673048
 30
0.0
 11
-163.2528179226222
 21
-45.93272355673048
 31
0.0
  0
LINE
  8
DETAIL
  6
CONTINUOUS
 62
     5
 10
165.06630176078491
 20
-45.93272355673048
 30
0.0
 11
163.26893431726251
 21
-45.93272355673048
 31
0.0
  0
LINE
  8
DETAIL
  6
CONTINUOUS
 62
     5
 10
196.2524490521474
 20
-44.934186088057231
 30
0.0
 11
-196.23633265750701
 21
-44.934186088057231
 31
0.0
  0
LINE
  8
DETAIL
  6
CONTINUOUS
 62
     5
 10
195.25406366562311
 20
-43.953075501241763
 30
0.0
 11
-195.23794727098289
 21
-43.953075501241763
 31
0.0
  0
LINE
  8
DETAIL
  6
CONTINUOUS
 62
     5
 10
-195.99628419577951
 20
-0.507982175265397
 30
0.0
 11
136.3558594039923
 21
-0.507982175265397
 31
0.0
  0
LINE
  8
DETAIL
  6
CONTINUOUS
 62
     5
 10
136.3558594039923
 20
-0.507982175265397
 30
0.0
 11
196.0124005904197
 21
-0.507982175265397
 31
0.0
  0
LINE
  8
DETAIL
  6
CONTINUOUS
 62
     5
 10
-197.4938622756404
 20
0.0
 30
0.0
 11
136.80769139868971
 21
0.0
 31
0.0
  0
LINE
  8
DETAIL
  6
CONTINUOUS
 62
     5
 10
156.7930660849747
 20
0.0
 30
0.0
 11
197.50997867028079
 21
0.0
 31
0.0
  0
LINE
  8
DETAIL
  6
CONTINUOUS
 62
     5
 10
156.7930660849747
 20
0.0
 30
0.0
 11
136.80769139868971
 21
0.0
 31
0.0
  0
LINE
  8
DETAIL
  6
CONTINUOUS
 62
     5
 10
-168.85256314404759
 20
-70.896160272218367
 30
0.0
 11
-165.05018536614421
 21
-47.929798493927592
 31
0.0
  0
LINE
  8
DETAIL
  6
CONTINUOUS
 62
     5
 10
-163.2528179226222
 20
-44.934186088057231
 30
0.0
 11
-163.2528179226222
 21
-70.896160272218367
 31
0.0
  0
LINE
  8
DETAIL
  6
CONTINUOUS
 62
     5
 10
-165.05018536614421
 20
-70.896160272218367
 30
0.0
 11
-165.05018536614421
 21
-44.934186088057231
 31
0.0
  0
LINE
  8
DETAIL
  6
CONTINUOUS
 62
     5
 10
-169.47101870422321
 20
-70.896160272218367
 30
0.0
 11
-169.01785075925659
 21
-44.934186088057231
 31
0.0
  0
LINE
  8
DETAIL
  6
CONTINUOUS
 62
     5
 10
-170.4694040907473
 20
-70.896160272218367
 30
0.0
 11
-170.01623614578071
 21
-44.934186088057231
 31
0.0
  0
LINE
  8
DETAIL
  6
CONTINUOUS
 62
     5
 10
-180.00113100146061
 20
-70.896160272218367
 30
0.0
 11
-180.4542989464276
 21
-44.934186088057231
 31
0.0
  0
LINE
  8
DETAIL
  6
CONTINUOUS
 62
     5
 10
-180.99951638798481
 20
-70.896160272218367
 30
0.0
 11
-181.45268433295141
 21
-44.934186088057231
 31
0.0
  0
LINE
  8
DETAIL
  6
CONTINUOUS
 62
     5
 10
-193.642747417647
 20
-74.655262882563193
 30
0.0
 11
-193.69954010779841
 21
-71.404142447484219
 31
0.0
  0
LINE
  8
DETAIL
  6
CONTINUOUS
 62
     5
 10
-193.56810458792211
 20
-79.882997489829904
 30
0.0
 11
-193.642747417647
 21
-75.60671263916106
 31
0.0
  0
LINE
  8
DETAIL
  6
CONTINUOUS
 62
     5
 10
-194.5670077061385
 20
-78.901886903014201
 30
0.0
 11
-194.69788132236999
 21
-71.404142447484219
 31
0.0
  0
LINE
  8
DETAIL
  6
CONTINUOUS
 62
     5
 10
-195.23794727098289
 20
-43.953075501241763
 30
0.0
 11
-195.99628419577951
 21
-0.507982175265397
 31
0.0
  0
LINE
  8
DETAIL
  6
CONTINUOUS
 62
     5
 10
-197.23471804403101
 20
-43.953075501241763
 30
0.0
 11
-197.99305496882761
 21
-0.507982175265397
 31
0.0
  0
LINE
  8
DETAIL
  6
CONTINUOUS
 62
     5
 10
-193.642747417647
 20
-74.655262882563193
 30
0.0
 11
-193.642747417647
 21
-75.60671263916106
 31
0.0
  0
LINE
  8
DETAIL
  6
CONTINUOUS
 62
     5
 10
-193.69949593584579
 20
-70.896160272218367
 30
0.0
 11
-193.69949593584579
 21
-71.404142447484219
 31
0.0
  0
LINE
  8
DETAIL
  6
CONTINUOUS
 62
     5
 10
-195.23794727098289
 20
-44.934186088057231
 30
0.0
 11
-195.23794727098289
 21
-43.953075501241763
 31
0.0
  0
LINE
  8
DETAIL
  6
CONTINUOUS
 62
     5
 10
-195.99628419577951
 20
0.0
 30
0.0
 11
-195.99628419577951
 21
-0.507982175265397
 31
0.0
  0
ARC
  8
DETAIL
  6
CONTINUOUS
 62
     5
 10
193.58473871425491
 20
-78.884460021306268
 30
0.0
 40
0.9985374686734612
 50
270.0
 51
358.99999999999818
  0
ARC
  8
DETAIL
  6
CONTINUOUS
 62
     5
 10
196.2524490521474
 20
-43.935648619383983
 30
0.0
 40
0.9985374686734612
 50
270.0
 51
358.99999999999818
  0
ARC
  8
DETAIL
  6
CONTINUOUS
 62
     5
 10
194.21480502382329
 20
-71.395429006630138
 30
0.0
 40
0.4992687342618574
 50
358.99999999998522
 51
90.0
  0
ARC
  8
DETAIL
  6
CONTINUOUS
 62
     5
 10
197.50997867028079
 20
-0.4992687342617046
 30
0.0
 40
0.4992687342618528
 50
358.99999999999818
 51
90.0
  0
ARC
  8
DETAIL
  6
CONTINUOUS
 62
     5
 10
-193.56862231961441
 20
-78.884460021306268
 30
0.0
 40
0.9985374686734428
 50
181.00000000000179
 51
270.0
  0
ARC
  8
DETAIL
  6
CONTINUOUS
 62
     5
 10
-196.23633265750701
 20
-43.935648619383983
 30
0.0
 40
0.9985374686734428
 50
181.00000000000179
 51
270.0
  0
ARC
  8
DETAIL
  6
CONTINUOUS
 62
     5
 10
-194.19868862918281
 20
-71.395429006630138
 30
0.0
 40
0.4992687342618255
 50
90.0
 51
181.00000000000179
  0
ARC
  8
DETAIL
  6
CONTINUOUS
 62
     5
 10
-197.4938573447125
 20
-0.4992687342617046
 30
0.0
 40
0.4992687342618345
 50
90.000565857908128
 51
180.99999012469459
  0
LINE
  8
DETAIL
  6
CONTINUOUS
 62
     5
 10
-170.1505488660091
 20
0.6010654461197191
 30
0.0
 11
-170.1505488660091
 21
2.6714019827527409
 31
0.0
  0
ARC
  8
DETAIL
  6
CONTINUOUS
 62
     5
 10
-170.75161431212859
 20
0.6010654461197191
 30
0.0
 40
0.601065446119214
 50
270.0
 51
0.0
  0
LINE
  8
DETAIL
  6
CONTINUOUS
 62
     5
 10
170.28411896514669
 20
90.217615382242911
 30
0.0
 11
-170.1505488660091
 21
90.213089223860607
 31
0.0
  0
LINE
  8
DETAIL
  6
CONTINUOUS
 62
     5
 10
170.28411896514669
 20
34.060375280094377
 30
0.0
 11
170.28411896514669
 21
65.988155132367865
 31
0.0
  0
LINE
  8
DETAIL
  6
CONTINUOUS
 62
     5
 10
170.28411896514669
 20
65.920354071990005
 30
0.0
 11
170.28411896514669
 21
66.842848033159044
 31
0.0
  0
LINE
  8
DETAIL
  6
CONTINUOUS
 62
     5
 10
170.28411896514669
 20
66.842848033159044
 30
0.0
 11
170.28411896514669
 21
90.217615382242911
 31
0.0
  0
LINE
  8
DETAIL
  6
CONTINUOUS
 62
     5
 10
170.28411896514669
 20
2.0035514870648972
 30
0.0
 11
170.28411896514669
 21
33.931331339338612
 31
0.0
  0
LINE
  8
DETAIL
  6
CONTINUOUS
 62
     5
 10
170.28411896514669
 20
0.605591604502024
 30
0.0
 11
170.28411896514669
 21
2.0080776454476559
 31
0.0
  0
ARC
  8
DETAIL
  6
CONTINUOUS
 62
     5
 10
170.8851844112659
 20
0.605591604502024
 30
0.0
 40
0.60106544611915
 50
180.0
 51
270.0
  0
LINE
  8
DETAIL
  6
CONTINUOUS
 62
     5
 10
-170.1505488660091
 20
90.213089223860607
 30
0.0
 11
-170.1505488660091
 21
2.6714019827527409
 31
0.0
  0
CIRCLE
  8
DETAIL
  6
CONTINUOUS
 62
     5
 10
0.0
 20
30.0
 30
0.0
 40
4.0071029741288839
  0
LINE
  8
DETAIL
  6
CONTINUOUS
 62
     5
 10
-169.1505488660091
 20
90.213089223860607
 30
0.0
 11
-169.1505488660091
 21
160.21308922386061
 31
0.0
  0
LINE
  8
DETAIL
  6
CONTINUOUS
 62
     5
 10
-169.1505488660091
 20
160.21308922386061
 30
0.0
 11
169.28411896514669
 21
160.21308922386169
 31
0.0
  0
LINE
  8
DETAIL
  6
CONTINUOUS
 62
     5
 10
169.28411896514669
 20
160.21308922386169
 30
0.0
 11
169.28411896514669
 21
90.217615382242911
 31
0.0
  0
LINE
  8
SIZE
  6
CONTINUOUS
 62
    30
 10
-189.15054886600919
 20
160.21308922386069
 30
0.0
 11
-404.46247145347218
 21
160.21308922386061
 31
0.0
  0
LINE
  8
SIZE
  6
CONTINUOUS
 62
    30
 10
-190.15054886600919
 20
90.213089223860635
 30
0.0
 11
-404.46247145347212
 21
90.213089223860607
 31
0.0
  0
LINE
  8
SIZE
  6
CONTINUOUS
 62
    30
 10
-384.46247145347212
 20
78.213089223860607
 30
0.0
 11
-384.46247145347212
 21
66.213089223860607
 31
0.0
  0
LINE
  8
SIZE
  6
CONTINUOUS
 62
    30
 10
-384.46247145347218
 20
172.21308922386061
 30
0.0
 11
-384.46247145347218
 21
409.20737493814647
 31
0.0
  0
LINE
  8
SIZE
  6
CONTINUOUS
 62
    30
 10
-384.46247145347212
 20
90.213089223860607
 30
0.0
 11
-384.46247145347218
 21
160.21308922386061
 31
0.0
  0
CIRCLE
  8
SIZE
  6
CONTINUOUS
 62
    30
 10
-384.46247145347212
 20
90.213089223860607
 30
0.0
 40
6.0
  0
LINE
  8
SIZE
  6
CONTINUOUS
 62
    30
 10
-384.46247145347212
 20
90.213089223860607
 30
0.0
 11
-384.46247145347212
 21
78.213089223860607
 31
0.0
  0
CIRCLE
  8
SIZE
  6
CONTINUOUS
 62
    30
 10
-384.46247145347218
 20
160.21308922386061
 30
0.0
 40
6.0
  0
LINE
  8
SIZE
  6
CONTINUOUS
 62
    30
 10
-384.46247145347218
 20
160.21308922386061
 30
0.0
 11
-384.46247145347218
 21
172.21308922386061
 31
0.0
  0
TEXT
  8
SIZE
  6
CONTINUOUS
 62
    30
 10
-409.46247145347201
 20
173.44623208100364
 30
0.0
 40
64.0
  1
（70）
 50
90.0
 41
0.9
 51
0.0
  7
STANDARD
 71
     0
 72
     1
 11
-409.46247145347201
 21
296.71023208100365
 31
0.0
210
0.0
220
0.0
230
1.0
  0
POINT
  8
DEFPOINTS
  6
CONTINUOUS
 62
    30
 10
-169.15054886600919
 20
160.21308922386069
 30
0.0
  0
POINT
  8
DEFPOINTS
  6
CONTINUOUS
 62
    30
 10
-170.15054886600919
 20
90.213089223860635
 30
0.0
  0
POINT
  8
DEFPOINTS
  6
CONTINUOUS
 62
    30
 10
-384.46247145347212
 20
90.213089223860607
 30
0.0
  0
ENDSEC
  0
EOF
