  0
SECTION
  2
HEADER
  9
$ACADVER
  1
AC1009
  9
$INSBASE
 10
0.0
 20
0.0
 30
0.0
  9
$EXTMIN
 10
-569.26482399999975
 20
-521.18094900000006
 30
0.0
  9
$EXTMAX
 10
842.22034611503852
 20
645.65310732906516
 30
50.0
  9
$LIMMIN
 10
-2970.0
 20
-2100.0
  9
$LIMMAX
 10
2970.0
 20
2100.0
  9
$ORTHOMODE
 70
     1
  9
$REGENMODE
 70
     0
  9
$FILLMODE
 70
     1
  9
$QTEXTMODE
 70
     0
  9
$MIRRTEXT
 70
     0
  9
$DRAGMODE
 70
     2
  9
$LTSCALE
 40
20.0
  9
$OSMODE
 70
   175
  9
$ATTMODE
 70
     1
  9
$TEXTSIZE
 40
64.0
  9
$TRACEWID
 40
0.05
  9
$TEXTSTYLE
  7
STANDARD
  9
$CLAYER
  8
SIZE
  9
$CELTYPE
  6
CONTINUOUS
  9
$CECOLOR
 62
    30
  9
$DIMSCALE
 40
1.0
  9
$DIMASZ
 40
12.0
  9
$DIMEXO
 40
20.0
  9
$DIMDLI
 40
200.0
  9
$DIMRND
 40
0.0
  9
$DIMDLE
 40
0.0
  9
$DIMEXE
 40
20.0
  9
$DIMTP
 40
0.0
  9
$DIMTM
 40
0.0
  9
$DIMTXT
 40
64.0
  9
$DIMCEN
 40
0.09
  9
$DIMTSZ
 40
0.0
  9
$DIMTOL
 70
     0
  9
$DIMLIM
 70
     0
  9
$DIMTIH
 70
     0
  9
$DIMTOH
 70
     0
  9
$DIMSE1
 70
     0
  9
$DIMSE2
 70
     0
  9
$DIMTAD
 70
     1
  9
$DIMZIN
 70
     8
  9
$DIMBLK
  1
DOT1
  9
$DIMASO
 70
     1
  9
$DIMSHO
 70
     0
  9
$DIMPOST
  1

  9
$DIMAPOST
  1

  9
$DIMALT
 70
     0
  9
$DIMALTD
 70
     2
  9
$DIMALTF
 40
25.399999999999999
  9
$DIMLFAC
 40
1.0
  9
$DIMTOFL
 70
     1
  9
$DIMTVP
 40
0.0
  9
$DIMTIX
 70
     1
  9
$DIMSOXD
 70
     0
  9
$DIMSAH
 70
     1
  9
$DIMBLK1
  1
ORIGIN
  9
$DIMBLK2
  1
ORIGIN
  9
$DIMSTYLE
  2
STANDARD
  9
$DIMCLRD
 70
     0
  9
$DIMCLRE
 70
     0
  9
$DIMCLRT
 70
     0
  9
$DIMTFAC
 40
1.0
  9
$DIMGAP
 40
0.09
  9
$LUNITS
 70
     2
  9
$LUPREC
 70
     4
  9
$SKETCHINC
 40
0.1
  9
$FILLETRAD
 40
50.0
  9
$AUNITS
 70
     1
  9
$AUPREC
 70
     3
  9
$MENU
  1
ACAD
  9
$ELEVATION
 40
0.0
  9
$PELEVATION
 40
0.0
  9
$THICKNESS
 40
50.0
  9
$LIMCHECK
 70
     0
  9
$BLIPMODE
 70
     0
  9
$CHAMFERA
 40
0.0
  9
$CHAMFERB
 40
0.0
  9
$SKPOLY
 70
     0
  9
$TDCREATE
 40
2452310.4493174758
  9
$TDUPDATE
 40
2453825.585131655
  9
$TDINDWG
 40
0.1331537963
  9
$TDUSRTIMER
 40
0.1331537963
  9
$USRTIMER
 70
     1
  9
$ANGBASE
 50
0.0
  9
$ANGDIR
 70
     0
  9
$PDMODE
 70
     3
  9
$PDSIZE
 40
-2.0
  9
$PLINEWID
 40
0.0
  9
$COORDS
 70
     2
  9
$SPLFRAME
 70
     0
  9
$SPLINETYPE
 70
     6
  9
$SPLINESEGS
 70
     8
  9
$ATTDIA
 70
     0
  9
$ATTREQ
 70
     1
  9
$HANDLING
 70
 22529
  9
$HANDSEED
  5
2C0
  9
$SURFTAB1
 70
     6
  9
$SURFTAB2
 70
     6
  9
$SURFTYPE
 70
     6
  9
$SURFU
 70
     6
  9
$SURFV
 70
     6
  9
$UCSNAME
  2

  9
$UCSORG
 10
0.0
 20
0.0
 30
0.0
  9
$UCSXDIR
 10
1.0
 20
0.0
 30
0.0
  9
$UCSYDIR
 10
0.0
 20
1.0
 30
0.0
  9
$PUCSNAME
  2

  9
$PUCSORG
 10
0.0
 20
0.0
 30
0.0
  9
$PUCSXDIR
 10
1.0
 20
0.0
 30
0.0
  9
$PUCSYDIR
 10
0.0
 20
1.0
 30
0.0
  9
$USERI1
 70
     0
  9
$USERI2
 70
     0
  9
$USERI3
 70
     0
  9
$USERI4
 70
     0
  9
$USERI5
 70
     0
  9
$USERR1
 40
20.0
  9
$USERR2
 40
0.0
  9
$USERR3
 40
0.0
  9
$USERR4
 40
0.0
  9
$USERR5
 40
0.0
  9
$WORLDVIEW
 70
     1
  9
$SHADEDGE
 70
     3
  9
$SHADEDIF
 70
    70
  9
$TILEMODE
 70
     1
  9
$MAXACTVP
 70
    64
  9
$PLIMCHECK
 70
     0
  9
$PEXTMIN
 10
1.0000000000000000E+020
 20
1.0000000000000000E+020
 30
1.0000000000000000E+020
  9
$PEXTMAX
 10
-1.0000000000000000E+020
 20
-1.0000000000000000E+020
 30
-1.0000000000000000E+020
  9
$PLIMMIN
 10
0.0
 20
0.0
  9
$PLIMMAX
 10
12.0
 20
9.0
  9
$UNITMODE
 70
     0
  9
$VISRETAIN
 70
     1
  9
$PLINEGEN
 70
     0
  9
$PSLTSCALE
 70
     1
  0
ENDSEC
  0
SECTION
  2
TABLES
  0
TABLE
  2
VPORT
 70
     3
  0
VPORT
  2
*ACTIVE
 70
     0
 10
0.0
 20
0.0
 11
1.0
 21
1.0
 12
118.547379025146
 22
40.319781485676003
 13
0.0
 23
0.0
 14
1.0
 24
1.0
 15
0.0
 25
0.0
 16
0.0
 26
0.0
 36
1.0
 17
0.0
 27
0.0
 37
0.0
 40
1650.4490827680131
 41
1.447268106734434
 42
50.0
 43
0.0
 44
0.0
 50
0.0
 51
0.0
 71
     0
 72
   100
 73
     1
 74
     0
 75
     0
 76
     0
 77
     0
 78
     1
  0
ENDTAB
  0
TABLE
  2
LTYPE
 70
     2
  0
LTYPE
  2
CONTINUOUS
 70
     0
  3
実線
 72
    65
 73
     0
 40
0.0
  0
LTYPE
  2
DASHDOT
 70
     0
  3
____ _ ____ _ ____ _ ____ _ ____ _ ____ _ ____
 72
    65
 73
     4
 40
5.5
 49
4.0
 49
-0.6
 49
0.3
 49
-0.6
  0
ENDTAB
  0
TABLE
  2
LAYER
 70
    12
  0
LAYER
  2
0
 70
     0
 62
     7
  6
CONTINUOUS
  0
LAYER
  2
SIZE
 70
     0
 62
    30
  6
CONTINUOUS
  0
LAYER
  2
BASIS
 70
     0
 62
     6
  6
DASHDOT
  0
LAYER
  2
OUTLINE
 70
     0
 62
     3
  6
CONTINUOUS
  0
LAYER
  2
DETAIL
 70
     0
 62
     5
  6
CONTINUOUS
  0
LAYER
  2
ARRANGE
 70
     0
 62
     1
  6
CONTINUOUS
  0
LAYER
  2
DEFPOINTS
 70
     0
 62
     7
  6
CONTINUOUS
  0
LAYER
  2
ETC
 70
     0
 62
    61
  6
CONTINUOUS
  0
LAYER
  2
FIX
 70
     0
 62
    11
  6
CONTINUOUS
  0
LAYER
  2
NOTE
 70
     0
 62
     4
  6
CONTINUOUS
  0
LAYER
  2
SERVICESPACE
 70
     0
 62
     2
  6
DASHDOT
  0
LAYER
  2
SYMBOLLINE
 70
     0
 62
    15
  6
CONTINUOUS
  0
ENDTAB
  0
TABLE
  2
STYLE
 70
     1
  0
STYLE
  2
STANDARD
 70
     0
 40
64.0
 41
0.9
 50
0.0
 71
     0
 42
64.0
  3
SIMPLEX.shx
  4
BIGFONT.shx
  0
ENDTAB
  0
TABLE
  2
VIEW
 70
     1
  0
VIEW
  2
ALL
 70
     0
 40
4282.6198079999976
 10
0.0
 20
41.309903999999989
 41
5940.0
 11
0.0
 21
0.0
 31
1.0
 12
0.0
 22
0.0
 32
0.0
 42
50.0
 43
0.0
 44
0.0
 50
0.0
 71
     0
  0
ENDTAB
  0
TABLE
  2
UCS
 70
     0
  0
ENDTAB
  0
TABLE
  2
APPID
 70
     1
  0
APPID
  2
ACAD
 70
     0
  0
ENDTAB
  0
TABLE
  2
DIMSTYLE
 70
     1
  0
DIMSTYLE
  2
STANDARD
 70
     0
  3

  4

  5

  6

  7

 40
1.0
 41
0.18
 42
0.0625
 43
0.38
 44
0.18
 45
0.0
 46
0.0
 47
0.0
 48
0.0
140
0.18
141
0.09
142
0.0
143
25.399999999999999
144
1.0
145
0.0
146
1.0
147
0.09
 71
     0
 72
     0
 73
     1
 74
     1
 75
     0
 76
     0
 77
     0
 78
     0
170
     0
171
     2
172
     0
173
     0
174
     0
175
     0
176
     0
177
     0
178
     0
  0
ENDTAB
  0
ENDSEC
  0
SECTION
  2
BLOCKS
  0
BLOCK
  8
0
  2
$MODEL_SPACE
 70
     0
 10
0.0
 20
0.0
 30
0.0
  3
$MODEL_SPACE
  1

  0
ENDBLK
  5
190
  8
0
  0
BLOCK
 67
     1
  8
0
  2
$PAPER_SPACE
 70
     0
 10
0.0
 20
0.0
 30
0.0
  3
$PAPER_SPACE
  1

  0
ENDBLK
  5
18C
 67
     1
  8
0
  0
BLOCK
  8
0
  2
DOT1
 70
     0
 10
0.0
 20
0.0
 30
0.0
  3
DOT1
  1

  0
CIRCLE
  5
1AB
  8
SIZE
  6
CONTINUOUS
 62
     7
 10
0.0
 20
0.0
 30
0.0
 40
3.0
  0
ENDBLK
  5
1AC
  8
0
  0
BLOCK
  8
0
  2
_ORIGIN
 70
     0
 10
0.0
 20
0.0
 30
0.0
  3
_ORIGIN
  1

  0
CIRCLE
  5
1AF
  8
0
  6
CONTINUOUS
 62
     7
 10
0.0
 20
0.0
 30
0.0
 40
0.5
  0
LINE
  5
1B0
  8
0
  6
CONTINUOUS
 62
     7
 10
0.0
 20
0.0
 30
0.0
 11
-1.0
 21
0.0
 31
0.0
  0
ENDBLK
  5
1B1
  8
0
  0
ENDSEC
  0
SECTION
  2
ENTITIES
  0
LINE
  5
1B2
  8
DETAIL
  6
CONTINUOUS
 62
     5
 10
0.0
 20
-260.0
 30
0.0
 11
0.0
 21
260.0
 31
0.0
  0
LINE
  5
1B3
  8
BASIS
  6
DASHDOT
 62
     6
 10
-75.692600999999982
 20
0.0
 30
0.0
 11
279.37314600000002
 21
0.0
 31
0.0
  0
LINE
  5
1B4
  8
DETAIL
  6
CONTINUOUS
 62
     5
 10
77.0
 20
245.0
 30
0.0
 11
80.0
 21
245.0
 31
0.0
  0
TEXT
  5
1B5
  8
NOTE
  6
CONTINUOUS
 62
     4
 10
-551.47345600000006
 20
381.82707799999991
 30
0.0
 40
64.0
  1
4-φ14
 41
0.9
  0
LINE
  5
1B6
  8
NOTE
  6
CONTINUOUS
 62
     4
 10
-569.26482399999975
 20
354.40012599999977
 30
0.0
 11
-251.52629499999981
 21
354.40012599999977
 31
0.0
  0
LINE
  5
1B7
  8
NOTE
  6
CONTINUOUS
 62
     4
 10
10.03219099999999
 20
235.0
 30
0.0
 11
-251.52629499999981
 21
354.40012599999977
 31
0.0
  0
LINE
  5
1B8
  8
NOTE
  6
CONTINUOUS
 62
     4
 10
-29.318339000000002
 20
242.1523399999999
 30
0.0
 11
10.03205899999999
 21
234.97277299999999
 31
0.0
  0
LINE
  5
1B9
  8
NOTE
  6
CONTINUOUS
 62
     4
 10
10.03205899999999
 20
234.97277299999999
 30
0.0
 11
-20.45660199999999
 21
260.86565899999982
 31
0.0
  0
LINE
  5
1BA
  8
DETAIL
  6
CONTINUOUS
 62
     5
 10
10.0
 20
-260.0
 30
0.0
 11
0.0
 21
-260.0
 31
0.0
  0
LINE
  5
1BB
  8
DETAIL
  6
CONTINUOUS
 62
     5
 10
10.0
 20
260.0
 30
0.0
 11
0.0
 21
260.0
 31
0.0
  0
LINE
  5
1BC
  8
DETAIL
  6
CONTINUOUS
 62
     5
 10
20.0
 20
-237.0
 30
0.0
 11
10.0
 21
-237.0
 31
0.0
  0
LINE
  5
1BD
  8
DETAIL
  6
CONTINUOUS
 62
     5
 10
20.0
 20
237.0
 30
0.0
 11
10.0
 21
237.0
 31
0.0
  0
LINE
  5
1BE
  8
SIZE
  6
CONTINUOUS
 62
    30
 10
0.0
 20
280.0
 30
0.0
 11
0.0
 21
373.564278
 31
0.0
  0
LINE
  5
1BF
  8
SIZE
  6
CONTINUOUS
 62
    30
 10
10.0
 20
280.0
 30
0.0
 11
10.0
 21
373.564278
 31
0.0
  0
LINE
  5
1C0
  8
SIZE
  6
CONTINUOUS
 62
    30
 10
-12.0
 20
353.56427799999977
 30
0.0
 11
-24.0
 21
353.56427799999977
 31
0.0
  0
LINE
  5
1C1
  8
SIZE
  6
CONTINUOUS
 62
    30
 10
22.0
 20
353.56427799999977
 30
0.0
 11
34.0
 21
353.56427799999977
 31
0.0
  0
LINE
  5
1C2
  8
SIZE
  6
CONTINUOUS
 62
    30
 10
-157.02845899999991
 20
353.56427799999977
 30
0.0
 11
0.0
 21
353.56427799999977
 31
0.0
  0
TEXT
  5
1C3
  8
SIZE
  6
CONTINUOUS
 62
    30
 10
-132.02845914285709
 20
378.56427799999989
 30
0.0
 40
64.0
  1
10
 41
0.9
 72
     1
 11
-90.885602000000006
 21
378.56427799999989
 31
0.0
  0
LINE
  5
1C4
  8
SIZE
  6
CONTINUOUS
 62
    30
 10
0.0
 20
353.56427799999977
 30
0.0
 11
10.0
 21
353.56427799999977
 31
0.0
  0
LINE
  5
1C5
  8
SIZE
  6
CONTINUOUS
 62
    30
 10
0.0
 20
353.56427799999977
 30
0.0
 11
10.0
 21
353.56427799999977
 31
0.0
  0
CIRCLE
  5
1C6
  8
SIZE
  6
CONTINUOUS
 62
    30
 10
0.0
 20
353.56427799999977
 30
0.0
 40
6.0
  0
LINE
  5
1C7
  8
SIZE
  6
CONTINUOUS
 62
    30
 10
0.0
 20
353.56427799999977
 30
0.0
 11
-12.0
 21
353.56427799999977
 31
0.0
  0
CIRCLE
  5
1C8
  8
SIZE
  6
CONTINUOUS
 62
    30
 10
10.0
 20
353.56427799999977
 30
0.0
 40
6.0
  0
LINE
  5
1C9
  8
SIZE
  6
CONTINUOUS
 62
    30
 10
10.0
 20
353.56427799999977
 30
0.0
 11
22.0
 21
353.56427799999977
 31
0.0
  0
LINE
  5
1CA
  8
SIZE
  6
CONTINUOUS
 62
    30
 10
10.0
 20
280.0
 30
0.0
 11
10.0
 21
373.564278
 31
0.0
  0
LINE
  5
1CB
  8
SIZE
  6
CONTINUOUS
 62
    30
 10
20.0
 20
257.0
 30
0.0
 11
20.0
 21
373.564278
 31
0.0
  0
LINE
  5
1CC
  8
SIZE
  6
CONTINUOUS
 62
    30
 10
-2.0
 20
353.56427799999977
 30
0.0
 11
-14.0
 21
353.56427799999977
 31
0.0
  0
LINE
  5
1CD
  8
SIZE
  6
CONTINUOUS
 62
    30
 10
32.0
 20
353.56427799999977
 30
0.0
 11
44.0
 21
353.56427799999977
 31
0.0
  0
LINE
  5
1CE
  8
SIZE
  6
CONTINUOUS
 62
    30
 10
182.74230800000001
 20
353.56427799999977
 30
0.0
 11
20.0
 21
353.56427799999977
 31
0.0
  0
TEXT
  5
1CF
  8
SIZE
  6
CONTINUOUS
 62
    30
 10
75.456593857142764
 20
378.56427799999989
 30
0.0
 40
64.0
  1
10
 41
0.9
 72
     1
 11
116.5994509999999
 21
378.56427799999989
 31
0.0
  0
LINE
  5
1D0
  8
SIZE
  6
CONTINUOUS
 62
    30
 10
10.0
 20
353.56427799999977
 30
0.0
 11
20.0
 21
353.56427799999977
 31
0.0
  0
LINE
  5
1D1
  8
SIZE
  6
CONTINUOUS
 62
    30
 10
10.0
 20
353.56427799999977
 30
0.0
 11
20.0
 21
353.56427799999977
 31
0.0
  0
CIRCLE
  5
1D2
  8
SIZE
  6
CONTINUOUS
 62
    30
 10
10.0
 20
353.56427799999977
 30
0.0
 40
6.0
  0
LINE
  5
1D3
  8
SIZE
  6
CONTINUOUS
 62
    30
 10
10.0
 20
353.56427799999977
 30
0.0
 11
-2.0
 21
353.56427799999977
 31
0.0
  0
CIRCLE
  5
1D4
  8
SIZE
  6
CONTINUOUS
 62
    30
 10
20.0
 20
353.56427799999977
 30
0.0
 40
6.0
  0
LINE
  5
1D5
  8
SIZE
  6
CONTINUOUS
 62
    30
 10
20.0
 20
353.56427799999977
 30
0.0
 11
32.0
 21
353.56427799999977
 31
0.0
  0
LINE
  5
1D6
  8
DETAIL
  6
CONTINUOUS
 62
     5
 10
10.0
 20
-260.0
 30
0.0
 11
10.0
 21
243.0
 31
0.0
  0
LINE
  5
1D7
  8
DETAIL
  6
CONTINUOUS
 62
     5
 10
10.0
 20
243.0
 30
0.0
 11
10.0
 21
260.0
 31
0.0
  0
LINE
  5
1D8
  8
DETAIL
  6
CONTINUOUS
 62
     5
 10
20.0
 20
-237.0
 30
0.0
 11
20.0
 21
237.0
 31
0.0
  0
LINE
  5
1D9
  8
DETAIL
  6
CONTINUOUS
 62
     5
 10
216.0
 20
-140.0
 30
0.0
 11
216.0
 21
-57.5
 31
0.0
  0
LINE
  5
1DA
  8
DETAIL
  6
CONTINUOUS
 62
     5
 10
80.0
 20
-190.0
 30
0.0
 11
80.0
 21
190.0
 31
0.0
  0
LINE
  5
1DB
  8
SIZE
  6
CONTINUOUS
 62
    30
 10
-20.0
 20
-260.0
 30
0.0
 11
-306.962829
 21
-260.0
 31
0.0
  0
LINE
  5
1DC
  8
SIZE
  6
CONTINUOUS
 62
    30
 10
-20.0
 20
260.0
 30
0.0
 11
-306.962829
 21
260.0
 31
0.0
  0
LINE
  5
1DD
  8
SIZE
  6
CONTINUOUS
 62
    30
 10
-286.96282899999977
 20
-248.0
 30
0.0
 11
-286.96282899999977
 21
248.0
 31
0.0
  0
CIRCLE
  5
1DE
  8
SIZE
  6
CONTINUOUS
 62
    30
 10
-286.96282899999977
 20
-260.0
 30
0.0
 40
6.0
  0
LINE
  5
1DF
  8
SIZE
  6
CONTINUOUS
 62
    30
 10
-286.96282899999977
 20
-260.0
 30
0.0
 11
-286.96282899999977
 21
-248.0
 31
0.0
  0
CIRCLE
  5
1E0
  8
SIZE
  6
CONTINUOUS
 62
    30
 10
-286.96282899999977
 20
260.0
 30
0.0
 40
6.0
  0
LINE
  5
1E1
  8
SIZE
  6
CONTINUOUS
 62
    30
 10
-286.96282899999977
 20
260.0
 30
0.0
 11
-286.96282899999977
 21
248.0
 31
0.0
  0
TEXT
  5
1E2
  8
SIZE
  6
CONTINUOUS
 62
    30
 10
-311.962829
 20
-74.05714285714285
 30
0.0
 40
64.0
  1
520
 50
90.0
 41
0.9
 72
     1
 11
-311.962829
 21
0.0
 31
0.0
  0
LINE
  5
1E3
  8
SIZE
  6
CONTINUOUS
 62
    30
 10
0.0
 20
-280.0
 30
0.0
 11
0.0
 21
-521.18094900000006
 31
0.0
  0
LINE
  5
1E4
  8
SIZE
  6
CONTINUOUS
 62
    30
 10
246.0
 20
-77.5
 30
0.0
 11
246.0
 21
-521.18094900000006
 31
0.0
  0
LINE
  5
1E5
  8
SIZE
  6
CONTINUOUS
 62
    30
 10
12.0
 20
-501.180949
 30
0.0
 11
234.0
 21
-501.180949
 31
0.0
  0
LINE
  5
1E6
  8
SIZE
  6
CONTINUOUS
 62
    30
 10
453.83592399999998
 20
-501.180949
 30
0.0
 11
246.0
 21
-501.180949
 31
0.0
  0
TEXT
  5
1E7
  8
SIZE
  6
CONTINUOUS
 62
    30
 10
283.46449571428559
 20
-476.180949
 30
0.0
 40
64.0
  1
246
 41
0.9
 72
     1
 11
356.15021000000002
 21
-476.180949
 31
0.0
  0
CIRCLE
  5
1E8
  8
SIZE
  6
CONTINUOUS
 62
    30
 10
0.0
 20
-501.180949
 30
0.0
 40
6.0
  0
LINE
  5
1E9
  8
SIZE
  6
CONTINUOUS
 62
    30
 10
0.0
 20
-501.180949
 30
0.0
 11
12.0
 21
-501.180949
 31
0.0
  0
CIRCLE
  5
1EA
  8
SIZE
  6
CONTINUOUS
 62
    30
 10
246.0
 20
-501.180949
 30
0.0
 40
6.0
  0
LINE
  5
1EB
  8
SIZE
  6
CONTINUOUS
 62
    30
 10
246.0
 20
-501.180949
 30
0.0
 11
234.0
 21
-501.180949
 31
0.0
  0
LINE
  5
1EC
  8
DETAIL
  6
CONTINUOUS
 62
     5
 10
20.0
 20
210.0
 30
0.0
 11
146.0
 21
210.0
 31
0.0
  0
LINE
  5
1ED
  8
DETAIL
  6
CONTINUOUS
 62
     5
 10
20.0
 20
190.0
 30
0.0
 11
136.0
 21
190.0
 31
0.0
  0
LINE
  5
1EE
  8
DETAIL
  6
CONTINUOUS
 62
     5
 10
77.0
 20
-190.0
 30
0.0
 11
77.0
 21
190.0
 31
0.0
  0
LINE
  5
1EF
  8
DETAIL
  6
CONTINUOUS
 62
     5
 10
80.0
 20
210.0
 30
0.0
 11
80.0
 21
245.0
 31
0.0
  0
LINE
  5
1F0
  8
DETAIL
  6
CONTINUOUS
 62
     5
 10
77.0
 20
210.0
 30
0.0
 11
77.0
 21
245.0
 31
0.0
  0
LINE
  5
1F1
  8
DETAIL
  6
CONTINUOUS
 62
     5
 10
20.0
 20
-190.0
 30
0.0
 11
136.0
 21
-190.0
 31
0.0
  0
LINE
  5
1F2
  8
DETAIL
  6
CONTINUOUS
 62
     5
 10
146.0
 20
-210.0
 30
0.0
 11
20.0
 21
-210.0
 31
0.0
  0
LINE
  5
1F3
  8
SIZE
  6
CONTINUOUS
 62
    30
 10
0.0
 20
-280.0
 30
0.0
 11
0.0
 21
-418.42998099999988
 31
0.0
  0
LINE
  5
1F4
  8
SIZE
  6
CONTINUOUS
 62
    30
 10
80.0
 20
-265.0
 30
0.0
 11
80.0
 21
-418.42998099999988
 31
0.0
  0
LINE
  5
1F5
  8
SIZE
  6
CONTINUOUS
 62
    30
 10
12.0
 20
-398.42998099999988
 30
0.0
 11
68.0
 21
-398.42998099999988
 31
0.0
  0
LINE
  5
1F6
  8
SIZE
  6
CONTINUOUS
 62
    30
 10
-167.53635700000001
 20
-398.42998099999988
 30
0.0
 11
0.0
 21
-398.42998099999988
 31
0.0
  0
TEXT
  5
1F7
  8
SIZE
  6
CONTINUOUS
 62
    30
 10
-142.53635742857139
 20
-373.42998099999988
 30
0.0
 40
64.0
  1
80
 41
0.9
 72
     1
 11
-95.907786000000002
 21
-373.42998099999988
 31
0.0
  0
CIRCLE
  5
1F8
  8
SIZE
  6
CONTINUOUS
 62
    30
 10
0.0
 20
-398.42998099999988
 30
0.0
 40
6.0
  0
LINE
  5
1F9
  8
SIZE
  6
CONTINUOUS
 62
    30
 10
0.0
 20
-398.42998099999988
 30
0.0
 11
12.0
 21
-398.42998099999988
 31
0.0
  0
CIRCLE
  5
1FA
  8
SIZE
  6
CONTINUOUS
 62
    30
 10
80.0
 20
-398.42998099999988
 30
0.0
 40
6.0
  0
LINE
  5
1FB
  8
SIZE
  6
CONTINUOUS
 62
    30
 10
80.0
 20
-398.42998099999988
 30
0.0
 11
68.0
 21
-398.42998099999988
 31
0.0
  0
LINE
  5
1FC
  8
SIZE
  6
CONTINUOUS
 62
    30
 10
-155.6861309999999
 20
-234.9999999999998
 30
0.0
 11
-155.6861309999999
 21
234.9999999999998
 31
0.0
  0
TEXT
  5
1FD
  8
SIZE
  6
CONTINUOUS
 62
    30
 10
-180.68613099999999
 20
-74.05714285714285
 30
0.0
 40
64.0
  1
470
 50
90.0
 41
0.9
 72
     1
 11
-180.68613099999999
 21
0.0
 31
0.0
  0
LINE
  5
1FE
  8
NOTE
  6
CONTINUOUS
 62
     4
 10
30.0
 20
235.0
 30
0.0
 11
-10.0
 21
235.0
 31
0.0
  0
LINE
  5
1FF
  8
NOTE
  6
CONTINUOUS
 62
     4
 10
10.0
 20
255.0
 30
0.0
 11
10.0
 21
215.0
 31
0.0
  0
LINE
  5
200
  8
NOTE
  6
CONTINUOUS
 62
     4
 10
30.0
 20
-235.0
 30
0.0
 11
-10.0
 21
-235.0
 31
0.0
  0
LINE
  5
201
  8
NOTE
  6
CONTINUOUS
 62
     4
 10
10.0
 20
-215.0
 30
0.0
 11
10.0
 21
-255.0
 31
0.0
  0
POINT
  5
202
  8
ARRANGE
  6
CONTINUOUS
 62
     1
 10
0.0
 20
0.0
 30
0.0
  0
CIRCLE
  5
203
  8
ARRANGE
  6
CONTINUOUS
 62
     1
 10
0.0
 20
0.0
 30
0.0
 40
40.0
  0
LINE
  5
204
  8
DETAIL
  6
CONTINUOUS
 62
     5
 10
231.0
 20
-123.0
 30
0.0
 11
231.0
 21
80.0
 31
0.0
  0
LINE
  5
205
  8
DETAIL
  6
CONTINUOUS
 62
     5
 10
216.0
 20
-123.0
 30
0.0
 11
231.0
 21
-123.0
 31
0.0
  0
LINE
  5
206
  8
DETAIL
  6
CONTINUOUS
 62
     5
 10
216.0
 20
80.0
 30
0.0
 11
231.0
 21
80.0
 31
0.0
  0
LINE
  5
207
  8
SIZE
  6
CONTINUOUS
 62
    30
 10
100.0
 20
245.0
 30
0.0
 11
622.70501400000001
 21
245.0
 31
0.0
  0
LINE
  5
208
  8
SIZE
  6
CONTINUOUS
 62
    30
 10
100.0
 20
-245.0
 30
0.0
 11
622.70501400000001
 21
-245.0
 31
0.0
  0
LINE
  5
209
  8
SIZE
  6
CONTINUOUS
 62
    30
 10
602.70501400000001
 20
233.0
 30
0.0
 11
602.70501400000001
 21
-233.0
 31
0.0
  0
CIRCLE
  5
20A
  8
SIZE
  6
CONTINUOUS
 62
    30
 10
602.70501400000001
 20
245.0
 30
0.0
 40
6.0
  0
LINE
  5
20B
  8
SIZE
  6
CONTINUOUS
 62
    30
 10
602.70501400000001
 20
245.0
 30
0.0
 11
602.70501400000001
 21
233.0
 31
0.0
  0
CIRCLE
  5
20C
  8
SIZE
  6
CONTINUOUS
 62
    30
 10
602.70501400000001
 20
-245.0
 30
0.0
 40
6.0
  0
LINE
  5
20D
  8
SIZE
  6
CONTINUOUS
 62
    30
 10
602.70501400000001
 20
-245.0
 30
0.0
 11
602.70501400000001
 21
-233.0
 31
0.0
  0
TEXT
  5
20E
  8
SIZE
  6
CONTINUOUS
 62
    30
 10
577.70501400000001
 20
-114.3771428571428
 30
0.0
 40
64.0
  1
φ490
 50
90.0
 41
0.9
 72
     1
 11
577.70501400000001
 21
0.0
 31
0.0
  0
LINE
  5
20F
  8
SIZE
  6
CONTINUOUS
 62
    30
 10
251.0
 20
65.5
 30
0.0
 11
486.48191199999991
 21
65.5
 31
0.0
  0
LINE
  5
210
  8
SIZE
  6
CONTINUOUS
 62
    30
 10
251.0
 20
-65.5
 30
0.0
 11
486.48191199999991
 21
-65.5
 31
0.0
  0
LINE
  5
211
  8
SIZE
  6
CONTINUOUS
 62
    30
 10
466.48191200000002
 20
53.5
 30
0.0
 11
466.48191200000002
 21
-53.5
 31
0.0
  0
TEXT
  5
212
  8
SIZE
  6
CONTINUOUS
 62
    30
 10
441.48191200000002
 20
-125.0813444285714
 30
0.0
 40
64.0
  1
φ131
 50
90.0
 41
0.9
 72
     1
 11
441.48191200000002
 21
-28.532772999999999
 31
0.0
  0
CIRCLE
  5
213
  8
SIZE
  6
CONTINUOUS
 62
    30
 10
466.48191200000002
 20
65.5
 30
0.0
 40
6.0
  0
LINE
  5
214
  8
SIZE
  6
CONTINUOUS
 62
    30
 10
466.48191200000002
 20
65.5
 30
0.0
 11
466.48191200000002
 21
53.5
 31
0.0
  0
CIRCLE
  5
215
  8
SIZE
  6
CONTINUOUS
 62
    30
 10
466.48191200000002
 20
-65.5
 30
0.0
 40
6.0
  0
LINE
  5
216
  8
SIZE
  6
CONTINUOUS
 62
    30
 10
466.48191200000002
 20
-65.5
 30
0.0
 11
466.48191200000002
 21
-53.5
 31
0.0
  0
LINE
  5
217
  8
DETAIL
  6
CONTINUOUS
 62
     5
 10
246.0
 20
-57.5
 30
0.0
 11
246.0
 21
57.5
 31
0.0
  0
LINE
  5
218
  8
DETAIL
  6
CONTINUOUS
 62
     5
 10
231.0
 20
65.5
 30
0.0
 11
246.0
 21
57.5
 31
0.0
  0
LINE
  5
219
  8
DETAIL
  6
CONTINUOUS
 62
     5
 10
246.0
 20
-57.5
 30
0.0
 11
231.0
 21
-65.5
 31
0.0
  0
LINE
  5
21A
  8
DETAIL
  6
CONTINUOUS
 62
     5
 10
211.860872
 20
-55.822792000000007
 30
0.0
 11
211.860872
 21
55.822792000000007
 31
0.0
  0
LINE
  5
21B
  8
DETAIL
  6
CONTINUOUS
 62
     5
 10
219.451787
 20
58.89869199999999
 30
0.0
 11
211.860872
 21
55.822792000000007
 31
0.0
  0
LINE
  5
21C
  8
DETAIL
  6
CONTINUOUS
 62
     5
 10
216.0
 20
-57.5
 30
0.0
 11
211.860872
 21
-55.822792000000007
 31
0.0
  0
LINE
  5
21D
  8
DETAIL
  6
CONTINUOUS
 62
     5
 10
216.0
 20
57.5
 30
0.0
 11
216.0
 21
140.0
 31
0.0
  0
LINE
  5
21E
  8
DETAIL
  6
CONTINUOUS
 62
     5
 10
219.451787
 20
58.89869199999999
 30
0.0
 11
219.451787
 21
66.958658999999997
 31
0.0
  0
LINE
  5
21F
  8
DETAIL
  6
CONTINUOUS
 62
     5
 10
216.0
 20
68.5
 30
0.0
 11
219.451787
 21
66.958658999999997
 31
0.0
  0
LINE
  5
220
  8
DETAIL
  6
CONTINUOUS
 62
     5
 10
219.451787
 20
-58.89869199999999
 30
0.0
 11
219.451787
 21
-110.23603899999991
 31
0.0
  0
LINE
  5
221
  8
DETAIL
  6
CONTINUOUS
 62
     5
 10
219.451787
 20
-58.89869199999999
 30
0.0
 11
211.860872
 21
-55.822792000000007
 31
0.0
  0
LINE
  5
222
  8
DETAIL
  6
CONTINUOUS
 62
     5
 10
216.0
 20
-111.4999999999999
 30
0.0
 11
219.451787
 21
-110.23603899999991
 31
0.0
  0
CIRCLE
  5
223
  8
FIX
  6
CONTINUOUS
 62
    11
 10
10.0
 20
235.0
 30
0.0
 40
7.0
  0
CIRCLE
  5
224
  8
FIX
  6
CONTINUOUS
 62
    11
 10
10.0
 20
-235.0
 30
0.0
 40
7.0
  0
ARC
  5
225
  8
DETAIL
  6
CONTINUOUS
 62
     5
 10
57.0
 20
230.0
 30
0.0
 40
20.0
 50
270.0
 51
0.0
  0
LINE
  5
226
  8
DETAIL
  6
CONTINUOUS
 62
     5
 10
80.0
 20
-210.0
 30
0.0
 11
80.0
 21
-245.0
 31
0.0
  0
LINE
  5
227
  8
DETAIL
  6
CONTINUOUS
 62
     5
 10
77.0
 20
-210.0
 30
0.0
 11
77.0
 21
-245.0
 31
0.0
  0
LINE
  5
228
  8
DETAIL
  6
CONTINUOUS
 62
     5
 10
77.0
 20
-245.0
 30
0.0
 11
80.0
 21
-245.0
 31
0.0
  0
ARC
  5
229
  8
DETAIL
  6
CONTINUOUS
 62
     5
 10
57.0
 20
-230.0
 30
0.0
 40
20.0
 50
0.0
 51
90.0
  0
LINE
  5
22A
  8
DETAIL
  6
CONTINUOUS
 62
     5
 10
186.0
 20
-140.0
 30
0.0
 11
186.0
 21
140.0
 31
0.0
  0
ARC
  5
22B
  8
DETAIL
  6
CONTINUOUS
 62
     5
 10
146.0
 20
-140.0
 30
0.0
 40
70.0
 50
270.0
 51
0.0
  0
ARC
  5
22C
  8
DETAIL
  6
CONTINUOUS
 62
     5
 10
146.0
 20
140.0
 30
0.0
 40
70.0
 50
0.0
 51
90.0
  0
ARC
  5
22D
  8
DETAIL
  6
CONTINUOUS
 62
     5
 10
136.0
 20
140.0
 30
0.0
 40
50.0
 50
0.0
 51
90.0
  0
ARC
  5
22E
  8
DETAIL
  6
CONTINUOUS
 62
     5
 10
136.0
 20
-140.0
 30
0.0
 40
50.0
 50
270.0
 51
0.0
  0
LINE
  5
22F
  8
OUTLINE
  6
CONTINUOUS
 62
     3
 10
186.0
 20
-140.0
 30
0.0
 11
186.0
 21
140.0
 31
0.0
  0
LINE
  5
230
  8
OUTLINE
  6
CONTINUOUS
 62
     3
 10
211.860872
 20
-55.822792000000007
 30
0.0
 11
211.860872
 21
55.822792000000007
 31
0.0
  0
LINE
  5
231
  8
OUTLINE
  6
CONTINUOUS
 62
     3
 10
246.0
 20
-57.5
 30
0.0
 11
246.0
 21
57.5
 31
0.0
  0
LINE
  5
232
  8
OUTLINE
  6
CONTINUOUS
 62
     3
 10
231.0
 20
-123.0
 30
0.0
 11
231.0
 21
80.0
 31
0.0
  0
LINE
  5
233
  8
OUTLINE
  6
CONTINUOUS
 62
     3
 10
77.0
 20
-190.0
 30
0.0
 11
77.0
 21
190.0
 31
0.0
  0
LINE
  5
234
  8
OUTLINE
  6
CONTINUOUS
 62
     3
 10
80.0
 20
-190.0
 30
0.0
 11
80.0
 21
190.0
 31
0.0
  0
LINE
  5
235
  8
OUTLINE
  6
CONTINUOUS
 62
     3
 10
20.0
 20
-237.0
 30
0.0
 11
20.0
 21
237.0
 31
0.0
  0
LINE
  5
236
  8
OUTLINE
  6
CONTINUOUS
 62
     3
 10
10.0
 20
-260.0
 30
0.0
 11
10.0
 21
243.0
 31
0.0
  0
LINE
  5
237
  8
OUTLINE
  6
CONTINUOUS
 62
     3
 10
0.0
 20
-260.0
 30
0.0
 11
0.0
 21
260.0
 31
0.0
  0
LINE
  5
238
  8
OUTLINE
  6
CONTINUOUS
 62
     3
 10
246.0
 20
-57.5
 30
0.0
 11
231.0
 21
-65.5
 31
0.0
  0
ARC
  5
239
  8
OUTLINE
  6
CONTINUOUS
 62
     3
 10
136.0
 20
-140.0
 30
0.0
 40
50.0
 50
270.0
 51
0.0
  0
ARC
  5
23A
  8
OUTLINE
  6
CONTINUOUS
 62
     3
 10
146.0
 20
-140.0
 30
0.0
 40
70.0
 50
270.0
 51
0.0
  0
LINE
  5
23B
  8
OUTLINE
  6
CONTINUOUS
 62
     3
 10
146.0
 20
-210.0
 30
0.0
 11
20.0
 21
-210.0
 31
0.0
  0
LINE
  5
23C
  8
OUTLINE
  6
CONTINUOUS
 62
     3
 10
20.0
 20
-190.0
 30
0.0
 11
136.0
 21
-190.0
 31
0.0
  0
LINE
  5
23D
  8
OUTLINE
  6
CONTINUOUS
 62
     3
 10
10.0
 20
-260.0
 30
0.0
 11
0.0
 21
-260.0
 31
0.0
  0
ARC
  5
23E
  8
OUTLINE
  6
CONTINUOUS
 62
     3
 10
57.0
 20
-230.0
 30
0.0
 40
20.0
 50
0.0
 51
90.0
  0
LINE
  5
23F
  8
OUTLINE
  6
CONTINUOUS
 62
     3
 10
77.0
 20
-245.0
 30
0.0
 11
80.0
 21
-245.0
 31
0.0
  0
LINE
  5
240
  8
OUTLINE
  6
CONTINUOUS
 62
     3
 10
77.0
 20
-210.0
 30
0.0
 11
77.0
 21
-245.0
 31
0.0
  0
LINE
  5
241
  8
OUTLINE
  6
CONTINUOUS
 62
     3
 10
80.0
 20
-210.0
 30
0.0
 11
80.0
 21
-245.0
 31
0.0
  0
LINE
  5
242
  8
OUTLINE
  6
CONTINUOUS
 62
     3
 10
20.0
 20
-237.0
 30
0.0
 11
10.0
 21
-237.0
 31
0.0
  0
LINE
  5
243
  8
OUTLINE
  6
CONTINUOUS
 62
     3
 10
219.451787
 20
-58.89869199999999
 30
0.0
 11
219.451787
 21
-110.23603899999991
 31
0.0
  0
LINE
  5
244
  8
OUTLINE
  6
CONTINUOUS
 62
     3
 10
216.0
 20
-140.0
 30
0.0
 11
216.0
 21
-57.5
 31
0.0
  0
LINE
  5
245
  8
OUTLINE
  6
CONTINUOUS
 62
     3
 10
216.0
 20
-111.4999999999999
 30
0.0
 11
219.451787
 21
-110.23603899999991
 31
0.0
  0
LINE
  5
246
  8
OUTLINE
  6
CONTINUOUS
 62
     3
 10
216.0
 20
-123.0
 30
0.0
 11
231.0
 21
-123.0
 31
0.0
  0
LINE
  5
247
  8
OUTLINE
  6
CONTINUOUS
 62
     3
 10
219.451787
 20
-58.89869199999999
 30
0.0
 11
211.860872
 21
-55.822792000000007
 31
0.0
  0
LINE
  5
248
  8
OUTLINE
  6
CONTINUOUS
 62
     3
 10
216.0
 20
-57.5
 30
0.0
 11
211.860872
 21
-55.822792000000007
 31
0.0
  0
LINE
  5
249
  8
OUTLINE
  6
CONTINUOUS
 62
     3
 10
231.0
 20
65.5
 30
0.0
 11
246.0
 21
57.5
 31
0.0
  0
ARC
  5
24A
  8
OUTLINE
  6
CONTINUOUS
 62
     3
 10
136.0
 20
140.0
 30
0.0
 40
50.0
 50
0.0
 51
90.0
  0
ARC
  5
24B
  8
OUTLINE
  6
CONTINUOUS
 62
     3
 10
146.0
 20
140.0
 30
0.0
 40
70.0
 50
0.0
 51
90.0
  0
LINE
  5
24C
  8
OUTLINE
  6
CONTINUOUS
 62
     3
 10
216.0
 20
57.5
 30
0.0
 11
216.0
 21
140.0
 31
0.0
  0
LINE
  5
24D
  8
OUTLINE
  6
CONTINUOUS
 62
     3
 10
216.0
 20
68.5
 30
0.0
 11
219.451787
 21
66.958658999999997
 31
0.0
  0
LINE
  5
24E
  8
OUTLINE
  6
CONTINUOUS
 62
     3
 10
219.451787
 20
58.89869199999999
 30
0.0
 11
219.451787
 21
66.958658999999997
 31
0.0
  0
LINE
  5
24F
  8
OUTLINE
  6
CONTINUOUS
 62
     3
 10
219.451787
 20
58.89869199999999
 30
0.0
 11
211.860872
 21
55.822792000000007
 31
0.0
  0
LINE
  5
250
  8
OUTLINE
  6
CONTINUOUS
 62
     3
 10
216.0
 20
80.0
 30
0.0
 11
231.0
 21
80.0
 31
0.0
  0
LINE
  5
251
  8
OUTLINE
  6
CONTINUOUS
 62
     3
 10
20.0
 20
190.0
 30
0.0
 11
136.0
 21
190.0
 31
0.0
  0
LINE
  5
252
  8
OUTLINE
  6
CONTINUOUS
 62
     3
 10
20.0
 20
210.0
 30
0.0
 11
146.0
 21
210.0
 31
0.0
  0
LINE
  5
253
  8
OUTLINE
  6
CONTINUOUS
 62
     3
 10
10.0
 20
243.0
 30
0.0
 11
10.0
 21
260.0
 31
0.0
  0
ARC
  5
254
  8
OUTLINE
  6
CONTINUOUS
 62
     3
 10
57.0
 20
230.0
 30
0.0
 40
20.0
 50
270.0
 51
0.0
  0
LINE
  5
255
  8
OUTLINE
  6
CONTINUOUS
 62
     3
 10
77.0
 20
210.0
 30
0.0
 11
77.0
 21
245.0
 31
0.0
  0
LINE
  5
256
  8
OUTLINE
  6
CONTINUOUS
 62
     3
 10
80.0
 20
210.0
 30
0.0
 11
80.0
 21
245.0
 31
0.0
  0
LINE
  5
257
  8
OUTLINE
  6
CONTINUOUS
 62
     3
 10
77.0
 20
245.0
 30
0.0
 11
80.0
 21
245.0
 31
0.0
  0
LINE
  5
258
  8
OUTLINE
  6
CONTINUOUS
 62
     3
 10
20.0
 20
237.0
 30
0.0
 11
10.0
 21
237.0
 31
0.0
  0
LINE
  5
259
  8
OUTLINE
  6
CONTINUOUS
 62
     3
 10
10.0
 20
260.0
 30
0.0
 11
0.0
 21
260.0
 31
0.0
  0
ARC
  5
25A
  8
DETAIL
  6
CONTINUOUS
 62
     5
 10
32.920437
 20
74.581531999999982
 30
0.0
 40
114.89836799999991
 50
297.99897099999993
 51
308.770647
  0
ARC
  5
25B
  8
DETAIL
  6
CONTINUOUS
 62
     5
 10
99.615471999999997
 20
10.0
 30
0.0
 40
5.0
 50
90.0
 51
180.0
  0
LINE
  5
25C
  8
DETAIL
  6
CONTINUOUS
 62
     5
 10
109.6154719999999
 20
47.5
 30
0.0
 11
109.6154719999999
 21
-47.5
 31
0.0
  0
LINE
  5
25D
  8
DETAIL
  6
CONTINUOUS
 62
     5
 10
139.61547200000001
 20
57.5
 30
0.0
 11
139.61547200000001
 21
-57.5
 31
0.0
  0
LINE
  5
25E
  8
DETAIL
  6
CONTINUOUS
 62
     5
 10
176.0
 20
-57.5
 30
0.0
 11
119.615472
 21
-57.5
 31
0.0
  0
ARC
  5
25F
  8
DETAIL
  6
CONTINUOUS
 62
     5
 10
-187.289421
 20
-242.47369800000001
 30
0.0
 40
348.06907999999999
 50
38.338613999999993
 51
39.832473
  0
ARC
  5
260
  8
DETAIL
  6
CONTINUOUS
 62
     5
 10
119.615472
 20
-47.5
 30
0.0
 40
10.0
 50
180.0
 51
270.0
  0
LINE
  5
261
  8
DETAIL
  6
CONTINUOUS
 62
     5
 10
90.0
 20
-8.3200649999999978
 30
0.0
 11
80.0
 21
-10.956924000000001
 31
0.0
  0
LINE
  5
262
  8
DETAIL
  6
CONTINUOUS
 62
     5
 10
90.0
 20
8.3200649999999978
 30
0.0
 11
80.0
 21
10.956924000000001
 31
0.0
  0
LINE
  5
263
  8
DETAIL
  6
CONTINUOUS
 62
     5
 10
90.0
 20
-8.3200649999999978
 30
0.0
 11
90.0
 21
8.3200649999999978
 31
0.0
  0
ARC
  5
264
  8
DETAIL
  6
CONTINUOUS
 62
     5
 10
99.615471999999997
 20
-10.0
 30
0.0
 40
5.0
 50
180.0
 51
270.0
  0
LINE
  5
265
  8
DETAIL
  6
CONTINUOUS
 62
     5
 10
99.615471999999997
 20
-15.0
 30
0.0
 11
109.6154719999999
 21
-15.0
 31
0.0
  0
LINE
  5
266
  8
DETAIL
  6
CONTINUOUS
 62
     5
 10
99.615471999999997
 20
15.0
 30
0.0
 11
109.6154719999999
 21
15.0
 31
0.0
  0
LINE
  5
267
  8
DETAIL
  6
CONTINUOUS
 62
     5
 10
94.615471999999997
 20
10.0
 30
0.0
 11
94.615471999999997
 21
-10.0
 31
0.0
  0
LINE
  5
268
  8
DETAIL
  6
CONTINUOUS
 62
     5
 10
90.0
 20
-5.0
 30
0.0
 11
94.615471999999997
 21
-5.0
 31
0.0
  0
LINE
  5
269
  8
DETAIL
  6
CONTINUOUS
 62
     5
 10
90.0
 20
5.0
 30
0.0
 11
94.615471999999997
 21
5.0
 31
0.0
  0
LINE
  5
26A
  8
DETAIL
  6
CONTINUOUS
 62
     5
 10
176.0
 20
57.5
 30
0.0
 11
119.615472
 21
57.5
 31
0.0
  0
ARC
  5
26B
  8
DETAIL
  6
CONTINUOUS
 62
     5
 10
119.615472
 20
47.5
 30
0.0
 40
10.0
 50
90.0
 51
180.0
  0
ARC
  5
26C
  8
DETAIL
  6
CONTINUOUS
 62
     5
 10
-288.97842099999991
 20
110.145304
 30
0.0
 40
438.29132199999981
 50
327.33668899999992
 51
333.95155999999997
  0
ARC
  5
26D
  8
DETAIL
  6
CONTINUOUS
 62
     5
 10
-155.656992
 20
-214.7948379999998
 30
0.0
 40
306.80742900000001
 50
7.6068249999999979
 51
37.772052000000002
  0
ARC
  5
26E
  8
DETAIL
  6
CONTINUOUS
 62
     5
 10
-225.79434499999991
 20
-295.74361399999998
 30
0.0
 40
393.49276499999991
 50
17.994838999999999
 51
39.001612000000002
  0
ARC
  5
26F
  8
DETAIL
  6
CONTINUOUS
 62
     5
 10
242.0579819999999
 20
-57.215271999999999
 30
0.0
 40
212.726899
 50
121.92258699999999
 51
139.624234
  0
ARC
  5
270
  8
DETAIL
  6
CONTINUOUS
 62
     5
 10
49.196021999999992
 20
98.944974999999985
 30
0.0
 40
109.79783499999991
 50
15.277792
 51
56.026600000000002
  0
ARC
  5
271
  8
DETAIL
  6
CONTINUOUS
 62
     5
 10
145.43693500000001
 20
97.876614000000004
 30
0.0
 40
30.0
 50
90.0
 51
121.92258699999999
  0
LINE
  5
272
  8
DETAIL
  6
CONTINUOUS
 62
     5
 10
155.113561
 20
127.8766139999998
 30
0.0
 11
145.43693500000001
 21
127.8766139999998
 31
0.0
  0
LINE
  5
273
  8
DETAIL
  6
CONTINUOUS
 62
     5
 10
176.0
 20
70.0
 30
0.0
 11
176.0
 21
-113.0
 31
0.0
  0
ARC
  5
274
  8
DETAIL
  6
CONTINUOUS
 62
     5
 10
186.0
 20
-113.0
 30
0.0
 40
10.0
 50
180.0
 51
270.0
  0
ARC
  5
275
  8
DETAIL
  6
CONTINUOUS
 62
     5
 10
186.0
 20
70.0
 30
0.0
 40
10.0
 50
90.0
 51
180.0
  0
ARC
  5
276
  8
DETAIL
  6
CONTINUOUS
 62
     5
 10
-288.97842099999991
 20
110.145304
 30
0.0
 40
438.29132199999981
 50
336.34589
 51
337.59516000000002
  0
TEXT
  5
277
  8
ETC
  6
CONTINUOUS
 62
    61
 10
386.36563954360992
 20
483.15284332906498
 30
0.0
 40
64.0
  1
産業扇
 41
0.9
  0
TEXT
  5
278
  8
ETC
  6
CONTINUOUS
 62
    61
 10
520.51435485326488
 20
391.68256410971998
 30
0.0
 40
50.0
  1
EX-40A
 41
0.9
  0
TEXT
  5
279
  8
ETC
  6
CONTINUOUS
 62
    61
 10
389.64891754360991
 20
581.65310732906516
 30
0.0
 40
64.0
  1
EX-40A_5
 41
0.9
  0
LINE
  5
27A
  8
SIZE
  6
CONTINUOUS
 62
    30
 39
50.0
 10
-21.67194719207599
 20
-235.0
 30
0.0
 11
-173.7169959095325
 21
-235.0
 31
0.0
  0
LINE
  5
27B
  8
SIZE
  6
CONTINUOUS
 62
    30
 39
50.0
 10
-18.29316523095622
 20
235.0
 30
0.0
 11
-175.9695172169458
 21
235.0
 31
0.0
  0
CIRCLE
  5
27C
  8
SIZE
  6
CONTINUOUS
 62
    30
 39
50.0
 10
-155.6861309999999
 20
234.9999999999998
 30
0.0
 40
6.0
  0
CIRCLE
  5
27D
  8
SIZE
  6
CONTINUOUS
 62
    30
 39
50.0
 10
-155.6861309999999
 20
-235.0
 30
0.0
 40
6.0
  0
ENDSEC
  0
EOF
