  0
SECTION
  2
HEADER
  9
$ACADVER
  1
AC1009
  9
$INSBASE
 10
0.0
 20
0.0
 30
0.0
  9
$EXTMIN
 10
-549.54800099999977
 20
-320.95467599999978
 30
0.0
  9
$EXTMAX
 10
880.40483261376835
 20
690.0687437329882
 30
50.0
  9
$LIMMIN
 10
-2970.0
 20
-2100.0
  9
$LIMMAX
 10
2970.0
 20
2100.0
  9
$ORTHOMODE
 70
     1
  9
$REGENMODE
 70
     0
  9
$FILLMODE
 70
     1
  9
$QTEXTMODE
 70
     0
  9
$MIRRTEXT
 70
     0
  9
$DRAGMODE
 70
     2
  9
$LTSCALE
 40
20.0
  9
$OSMODE
 70
    41
  9
$ATTMODE
 70
     1
  9
$TEXTSIZE
 40
64.0
  9
$TRACEWID
 40
0.05
  9
$TEXTSTYLE
  7
STANDARD
  9
$CLAYER
  8
SIZE
  9
$CELTYPE
  6
CONTINUOUS
  9
$CECOLOR
 62
     8
  9
$DIMSCALE
 40
1.0
  9
$DIMASZ
 40
12.0
  9
$DIMEXO
 40
20.0
  9
$DIMDLI
 40
200.0
  9
$DIMRND
 40
0.0
  9
$DIMDLE
 40
0.0
  9
$DIMEXE
 40
20.0
  9
$DIMTP
 40
0.0
  9
$DIMTM
 40
0.0
  9
$DIMTXT
 40
64.0
  9
$DIMCEN
 40
0.09
  9
$DIMTSZ
 40
0.0
  9
$DIMTOL
 70
     0
  9
$DIMLIM
 70
     0
  9
$DIMTIH
 70
     0
  9
$DIMTOH
 70
     0
  9
$DIMSE1
 70
     0
  9
$DIMSE2
 70
     0
  9
$DIMTAD
 70
     1
  9
$DIMZIN
 70
     8
  9
$DIMBLK
  1
DOT1
  9
$DIMASO
 70
     1
  9
$DIMSHO
 70
     0
  9
$DIMPOST
  1

  9
$DIMAPOST
  1

  9
$DIMALT
 70
     0
  9
$DIMALTD
 70
     2
  9
$DIMALTF
 40
25.399999999999999
  9
$DIMLFAC
 40
1.0
  9
$DIMTOFL
 70
     1
  9
$DIMTVP
 40
0.0
  9
$DIMTIX
 70
     1
  9
$DIMSOXD
 70
     0
  9
$DIMSAH
 70
     1
  9
$DIMBLK1
  1
ORIGIN
  9
$DIMBLK2
  1
ORIGIN
  9
$DIMSTYLE
  2
STANDARD
  9
$DIMCLRD
 70
     0
  9
$DIMCLRE
 70
     0
  9
$DIMCLRT
 70
     0
  9
$DIMTFAC
 40
1.0
  9
$DIMGAP
 40
0.09
  9
$LUNITS
 70
     2
  9
$LUPREC
 70
     4
  9
$SKETCHINC
 40
0.1
  9
$FILLETRAD
 40
15.0
  9
$AUNITS
 70
     1
  9
$AUPREC
 70
     3
  9
$MENU
  1
ACAD
  9
$ELEVATION
 40
0.0
  9
$PELEVATION
 40
0.0
  9
$THICKNESS
 40
50.0
  9
$LIMCHECK
 70
     0
  9
$BLIPMODE
 70
     0
  9
$CHAMFERA
 40
0.0
  9
$CHAMFERB
 40
0.0
  9
$SKPOLY
 70
     0
  9
$TDCREATE
 40
2451453.4938508091
  9
$TDUPDATE
 40
2453462.8461270249
  9
$TDINDWG
 40
0.7755645486
  9
$TDUSRTIMER
 40
0.7755643634
  9
$USRTIMER
 70
     1
  9
$ANGBASE
 50
0.0
  9
$ANGDIR
 70
     0
  9
$PDMODE
 70
     3
  9
$PDSIZE
 40
-2.0
  9
$PLINEWID
 40
0.0
  9
$COORDS
 70
     2
  9
$SPLFRAME
 70
     0
  9
$SPLINETYPE
 70
     6
  9
$SPLINESEGS
 70
     8
  9
$ATTDIA
 70
     0
  9
$ATTREQ
 70
     1
  9
$HANDLING
 70
 22529
  9
$HANDSEED
  5
251
  9
$SURFTAB1
 70
     6
  9
$SURFTAB2
 70
     6
  9
$SURFTYPE
 70
     6
  9
$SURFU
 70
     6
  9
$SURFV
 70
     6
  9
$UCSNAME
  2

  9
$UCSORG
 10
0.0
 20
0.0
 30
0.0
  9
$UCSXDIR
 10
1.0
 20
0.0
 30
0.0
  9
$UCSYDIR
 10
0.0
 20
1.0
 30
0.0
  9
$PUCSNAME
  2

  9
$PUCSORG
 10
0.0
 20
0.0
 30
0.0
  9
$PUCSXDIR
 10
1.0
 20
0.0
 30
0.0
  9
$PUCSYDIR
 10
0.0
 20
1.0
 30
0.0
  9
$USERI1
 70
     0
  9
$USERI2
 70
     0
  9
$USERI3
 70
     0
  9
$USERI4
 70
     0
  9
$USERI5
 70
     0
  9
$USERR1
 40
20.0
  9
$USERR2
 40
0.0
  9
$USERR3
 40
0.0
  9
$USERR4
 40
0.0
  9
$USERR5
 40
0.0
  9
$WORLDVIEW
 70
     1
  9
$SHADEDGE
 70
     3
  9
$SHADEDIF
 70
    70
  9
$TILEMODE
 70
     1
  9
$MAXACTVP
 70
    64
  9
$PLIMCHECK
 70
     0
  9
$PEXTMIN
 10
1.0000000000000000E+020
 20
1.0000000000000000E+020
 30
1.0000000000000000E+020
  9
$PEXTMAX
 10
-1.0000000000000000E+020
 20
-1.0000000000000000E+020
 30
-1.0000000000000000E+020
  9
$PLIMMIN
 10
0.0
 20
0.0
  9
$PLIMMAX
 10
12.0
 20
9.0
  9
$UNITMODE
 70
     0
  9
$VISRETAIN
 70
     1
  9
$PLINEGEN
 70
     0
  9
$PSLTSCALE
 70
     1
  0
ENDSEC
  0
SECTION
  2
TABLES
  0
TABLE
  2
VPORT
 70
     3
  0
VPORT
  2
*ACTIVE
 70
     0
 10
0.0
 20
0.0
 11
1.0
 21
1.0
 12
52.962623067092409
 22
171.14738589729791
 13
0.0
 23
0.0
 14
1.0
 24
1.0
 15
0.0
 25
0.0
 16
0.0
 26
0.0
 36
1.0
 17
0.0
 27
0.0
 37
0.0
 40
1385.875607633036
 41
1.4423558897243101
 42
50.0
 43
0.0
 44
0.0
 50
0.0
 51
0.0
 71
     0
 72
   100
 73
     1
 74
     0
 75
     0
 76
     0
 77
     0
 78
     0
  0
ENDTAB
  0
TABLE
  2
LTYPE
 70
     2
  0
LTYPE
  2
CONTINUOUS
 70
     0
  3
実線
 72
    65
 73
     0
 40
0.0
  0
LTYPE
  2
DASHDOT
 70
     0
  3
____ _ ____ _ ____ _ ____ _ ____ _ ____ _ ____
 72
    65
 73
     4
 40
5.5
 49
4.0
 49
-0.6
 49
0.3
 49
-0.6
  0
ENDTAB
  0
TABLE
  2
LAYER
 70
    12
  0
LAYER
  2
0
 70
     0
 62
     7
  6
CONTINUOUS
  0
LAYER
  2
SIZE
 70
     0
 62
    30
  6
CONTINUOUS
  0
LAYER
  2
BASIS
 70
     0
 62
     6
  6
DASHDOT
  0
LAYER
  2
OUTLINE
 70
     0
 62
     3
  6
CONTINUOUS
  0
LAYER
  2
DETAIL
 70
     0
 62
     5
  6
CONTINUOUS
  0
LAYER
  2
ARRANGE
 70
     0
 62
     1
  6
CONTINUOUS
  0
LAYER
  2
DEFPOINTS
 70
     0
 62
     7
  6
CONTINUOUS
  0
LAYER
  2
ETC
 70
     0
 62
    61
  6
CONTINUOUS
  0
LAYER
  2
FIX
 70
     0
 62
    11
  6
CONTINUOUS
  0
LAYER
  2
NOTE
 70
     0
 62
     4
  6
CONTINUOUS
  0
LAYER
  2
SERVICESPACE
 70
     0
 62
     2
  6
DASHDOT
  0
LAYER
  2
SYMBOLLINE
 70
     0
 62
    15
  6
CONTINUOUS
  0
ENDTAB
  0
TABLE
  2
STYLE
 70
     1
  0
STYLE
  2
STANDARD
 70
     0
 40
64.0
 41
0.9
 50
0.0
 71
     0
 42
64.0
  3
SIMPLEX.shx
  4
BIGFONT.shx
  0
ENDTAB
  0
TABLE
  2
VIEW
 70
     1
  0
VIEW
  2
ALL
 70
     0
 40
4282.6198079999976
 10
0.0
 20
41.309903999999989
 41
5940.0
 11
0.0
 21
0.0
 31
1.0
 12
0.0
 22
0.0
 32
0.0
 42
50.0
 43
0.0
 44
0.0
 50
0.0
 71
     0
  0
ENDTAB
  0
TABLE
  2
UCS
 70
     0
  0
ENDTAB
  0
TABLE
  2
APPID
 70
     1
  0
APPID
  2
ACAD
 70
     0
  0
ENDTAB
  0
TABLE
  2
DIMSTYLE
 70
     1
  0
DIMSTYLE
  2
STANDARD
 70
     0
  3

  4

  5

  6

  7

 40
1.0
 41
0.18
 42
0.0625
 43
0.38
 44
0.18
 45
0.0
 46
0.0
 47
0.0
 48
0.0
140
0.18
141
0.09
142
0.0
143
25.399999999999999
144
1.0
145
0.0
146
1.0
147
0.09
 71
     0
 72
     0
 73
     1
 74
     1
 75
     0
 76
     0
 77
     0
 78
     0
170
     0
171
     2
172
     0
173
     0
174
     0
175
     0
176
     0
177
     0
178
     0
  0
ENDTAB
  0
ENDSEC
  0
SECTION
  2
BLOCKS
  0
BLOCK
  8
0
  2
$MODEL_SPACE
 70
     0
 10
0.0
 20
0.0
 30
0.0
  3
$MODEL_SPACE
  1

  0
ENDBLK
  5
14A
  8
0
  0
BLOCK
 67
     1
  8
0
  2
$PAPER_SPACE
 70
     0
 10
0.0
 20
0.0
 30
0.0
  3
$PAPER_SPACE
  1

  0
ENDBLK
  5
146
 67
     1
  8
0
  0
BLOCK
  8
0
  2
DOT1
 70
     0
 10
0.0
 20
0.0
 30
0.0
  3
DOT1
  1

  0
CIRCLE
  5
165
  8
SIZE
  6
CONTINUOUS
 62
     7
 10
0.0
 20
0.0
 30
0.0
 40
3.0
  0
ENDBLK
  5
166
  8
0
  0
BLOCK
  8
0
  2
_ORIGIN
 70
     0
 10
0.0
 20
0.0
 30
0.0
  3
_ORIGIN
  1

  0
CIRCLE
  5
169
  8
0
  6
CONTINUOUS
 62
     7
 10
0.0
 20
0.0
 30
0.0
 40
0.5
  0
LINE
  5
16A
  8
0
  6
CONTINUOUS
 62
     7
 10
0.0
 20
0.0
 30
0.0
 11
-1.0
 21
0.0
 31
0.0
  0
ENDBLK
  5
16B
  8
0
  0
ENDSEC
  0
SECTION
  2
ENTITIES
  0
LINE
  5
16C
  8
BASIS
  6
DASHDOT
 62
     6
 10
129.42241000000001
 20
0.0
 30
0.0
 11
-178.75115099999991
 21
0.0
 31
0.0
  0
POINT
  5
16D
  8
ARRANGE
  6
CONTINUOUS
 62
     1
 10
0.0
 20
0.0
 30
0.0
 39
50.0
  0
CIRCLE
  5
16E
  8
ARRANGE
  6
CONTINUOUS
 62
     1
 39
50.0
 10
0.0
 20
0.0
 30
0.0
 40
40.0
  0
LINE
  5
16F
  8
DETAIL
  6
CONTINUOUS
 62
     5
 10
-120.0
 20
145.0
 30
0.0
 11
0.0
 21
145.0
 31
0.0
  0
LINE
  5
170
  8
DETAIL
  6
CONTINUOUS
 62
     5
 10
-96.5
 20
131.4999999999998
 30
0.0
 11
-96.5
 21
0.0
 31
0.0
  0
LINE
  5
171
  8
DETAIL
  6
CONTINUOUS
 62
     5
 10
-114.5
 20
131.4999999999998
 30
0.0
 11
-114.5
 21
0.0
 31
0.0
  0
LINE
  5
172
  8
DETAIL
  6
CONTINUOUS
 62
     5
 10
-99.500000000000014
 20
134.4999999999998
 30
0.0
 11
-111.4999999999999
 21
134.4999999999998
 31
0.0
  0
ARC
  5
173
  8
DETAIL
  6
CONTINUOUS
 62
     5
 10
-111.4999999999999
 20
131.4999999999998
 30
0.0
 40
3.0
 50
90.0
 51
180.0
  0
ARC
  5
174
  8
DETAIL
  6
CONTINUOUS
 62
     5
 10
-99.500000000000014
 20
131.4999999999998
 30
0.0
 40
3.0
 50
0.0
 51
90.0
  0
LINE
  5
175
  8
DETAIL
  6
CONTINUOUS
 62
     5
 10
-120.0
 20
145.0
 30
0.0
 11
-120.0
 21
-145.0
 31
0.0
  0
ARC
  5
176
  8
DETAIL
  6
CONTINUOUS
 62
     5
 10
-111.4999999999999
 20
-131.4999999999998
 30
0.0
 40
3.0
 50
180.0
 51
270.0
  0
LINE
  5
177
  8
DETAIL
  6
CONTINUOUS
 62
     5
 10
-99.500000000000014
 20
-134.4999999999998
 30
0.0
 11
-111.4999999999999
 21
-134.4999999999998
 31
0.0
  0
ARC
  5
178
  8
DETAIL
  6
CONTINUOUS
 62
     5
 10
-99.500000000000014
 20
-131.4999999999998
 30
0.0
 40
3.0
 50
270.0
 51
0.0
  0
LINE
  5
179
  8
DETAIL
  6
CONTINUOUS
 62
     5
 10
-114.5
 20
-131.4999999999998
 30
0.0
 11
-114.5
 21
0.0
 31
0.0
  0
LINE
  5
17A
  8
DETAIL
  6
CONTINUOUS
 62
     5
 10
-96.5
 20
-131.4999999999998
 30
0.0
 11
-96.5
 21
0.0
 31
0.0
  0
LINE
  5
17B
  8
DETAIL
  6
CONTINUOUS
 62
     5
 10
-120.0
 20
-145.0
 30
0.0
 11
0.0
 21
-145.0
 31
0.0
  0
CIRCLE
  5
17C
  8
FIX
  6
CONTINUOUS
 62
    11
 39
50.0
 10
0.0
 20
157.5
 30
0.0
 40
2.5
  0
LINE
  5
17D
  8
NOTE
  6
CONTINUOUS
 62
     4
 10
0.0
 20
177.5
 30
0.0
 11
0.0
 21
137.5
 31
0.0
  0
LINE
  5
17E
  8
NOTE
  6
CONTINUOUS
 62
     4
 10
20.0
 20
157.5
 30
0.0
 11
-20.0
 21
157.5
 31
0.0
  0
CIRCLE
  5
17F
  8
FIX
  6
CONTINUOUS
 62
    11
 39
50.0
 10
0.0
 20
-157.5
 30
0.0
 40
2.5
  0
LINE
  5
180
  8
NOTE
  6
CONTINUOUS
 62
     4
 10
0.0
 20
-137.5
 30
0.0
 11
0.0
 21
-177.5
 31
0.0
  0
LINE
  5
181
  8
NOTE
  6
CONTINUOUS
 62
     4
 10
20.0
 20
-157.5
 30
0.0
 11
-20.0
 21
-157.5
 31
0.0
  0
LINE
  5
182
  8
SIZE
  6
CONTINUOUS
 62
    30
 10
-140.0
 20
145.0
 30
0.0
 11
-240.77065399999989
 21
145.0
 31
0.0
  0
LINE
  5
183
  8
SIZE
  6
CONTINUOUS
 62
    30
 10
-140.0
 20
-145.0
 30
0.0
 11
-240.77065399999989
 21
-145.0
 31
0.0
  0
LINE
  5
184
  8
SIZE
  6
CONTINUOUS
 62
    30
 10
-220.77065400000001
 20
133.0
 30
0.0
 11
-220.77065400000001
 21
-133.0
 31
0.0
  0
CIRCLE
  5
185
  8
SIZE
  6
CONTINUOUS
 62
    30
 10
-220.77065400000001
 20
145.0
 30
0.0
 40
6.0
  0
LINE
  5
186
  8
SIZE
  6
CONTINUOUS
 62
    30
 10
-220.77065400000001
 20
145.0
 30
0.0
 11
-220.77065400000001
 21
133.0
 31
0.0
  0
CIRCLE
  5
187
  8
SIZE
  6
CONTINUOUS
 62
    30
 10
-220.77065400000001
 20
-145.0
 30
0.0
 40
6.0
  0
LINE
  5
188
  8
SIZE
  6
CONTINUOUS
 62
    30
 10
-220.77065400000001
 20
-145.0
 30
0.0
 11
-220.77065400000001
 21
-133.0
 31
0.0
  0
TEXT
  5
189
  8
SIZE
  6
CONTINUOUS
 62
    30
 10
-245.77065400000001
 20
-110.5371428571428
 30
0.0
 40
64.0
  1
□290
 50
90.0
 41
0.9
 72
     1
 11
-245.77065400000001
 21
0.0
 31
0.0
  0
POINT
  5
18A
  8
DEFPOINTS
  6
CONTINUOUS
 62
    30
 10
-120.0
 20
145.0
 30
0.0
  0
POINT
  5
18B
  8
DEFPOINTS
  6
CONTINUOUS
 62
    30
 10
-120.0
 20
-145.0
 30
0.0
  0
POINT
  5
18C
  8
DEFPOINTS
  6
CONTINUOUS
 62
    30
 10
-220.77065400000001
 20
-145.0
 30
0.0
  0
LINE
  5
18D
  8
SIZE
  6
CONTINUOUS
 62
    30
 10
-40.0
 20
157.5
 30
0.0
 11
-358.05405200000001
 21
157.5
 31
0.0
  0
LINE
  5
18E
  8
SIZE
  6
CONTINUOUS
 62
    30
 10
-40.0
 20
-157.5
 30
0.0
 11
-358.05405200000001
 21
-157.5
 31
0.0
  0
LINE
  5
18F
  8
SIZE
  6
CONTINUOUS
 62
    30
 10
-338.05405200000001
 20
145.5
 30
0.0
 11
-338.05405200000001
 21
-145.5
 31
0.0
  0
CIRCLE
  5
190
  8
SIZE
  6
CONTINUOUS
 62
    30
 10
-338.05405200000001
 20
157.5
 30
0.0
 40
6.0
  0
LINE
  5
191
  8
SIZE
  6
CONTINUOUS
 62
    30
 10
-338.05405200000001
 20
157.5
 30
0.0
 11
-338.05405200000001
 21
145.5
 31
0.0
  0
CIRCLE
  5
192
  8
SIZE
  6
CONTINUOUS
 62
    30
 10
-338.05405200000001
 20
-157.5
 30
0.0
 40
6.0
  0
LINE
  5
193
  8
SIZE
  6
CONTINUOUS
 62
    30
 10
-338.05405200000001
 20
-157.5
 30
0.0
 11
-338.05405200000001
 21
-145.5
 31
0.0
  0
TEXT
  5
194
  8
SIZE
  6
CONTINUOUS
 62
    30
 10
-363.05405200000001
 20
-68.571428571428569
 30
0.0
 40
64.0
  1
315
 50
90.0
 41
0.9
 72
     1
 11
-363.05405200000001
 21
0.0
 31
0.0
  0
POINT
  5
195
  8
DEFPOINTS
  6
CONTINUOUS
 62
    30
 10
-20.0
 20
157.5
 30
0.0
  0
POINT
  5
196
  8
DEFPOINTS
  6
CONTINUOUS
 62
    30
 10
-20.0
 20
-157.5
 30
0.0
  0
POINT
  5
197
  8
DEFPOINTS
  6
CONTINUOUS
 62
    30
 10
-338.05405200000001
 20
-157.5
 30
0.0
  0
LINE
  5
198
  8
SIZE
  6
CONTINUOUS
 62
    30
 10
0.0
 20
193.0
 30
0.0
 11
0.0
 21
408.55883899999992
 31
0.0
  0
LINE
  5
199
  8
SIZE
  6
CONTINUOUS
 62
    30
 10
-120.0
 20
165.0
 30
0.0
 11
-120.0
 21
408.55883899999992
 31
0.0
  0
LINE
  5
19A
  8
SIZE
  6
CONTINUOUS
 62
    30
 10
12.0
 20
388.55883899999992
 30
0.0
 11
24.0
 21
388.55883899999992
 31
0.0
  0
LINE
  5
19C
  8
SIZE
  6
CONTINUOUS
 62
    30
 10
0.0
 20
388.55883899999992
 30
0.0
 11
-120.0
 21
388.55883899999992
 31
0.0
  0
CIRCLE
  5
19D
  8
SIZE
  6
CONTINUOUS
 62
    30
 10
0.0
 20
388.55883899999992
 30
0.0
 40
6.0
  0
LINE
  5
19E
  8
SIZE
  6
CONTINUOUS
 62
    30
 10
0.0
 20
388.55883899999992
 30
0.0
 11
12.0
 21
388.55883899999992
 31
0.0
  0
CIRCLE
  5
19F
  8
SIZE
  6
CONTINUOUS
 62
    30
 10
-120.0
 20
388.55883899999992
 30
0.0
 40
6.0
  0
TEXT
  5
1A1
  8
SIZE
  6
CONTINUOUS
 62
    30
 10
-128.5714285714285
 20
413.55883899999992
 30
0.0
 40
64.0
  1
120
 41
0.9
 72
     1
 11
-60.0
 21
413.55883899999992
 31
0.0
  0
POINT
  5
1A2
  8
DEFPOINTS
  6
CONTINUOUS
 62
    30
 10
0.0
 20
173.0
 30
0.0
  0
POINT
  5
1A3
  8
DEFPOINTS
  6
CONTINUOUS
 62
    30
 10
-120.0
 20
145.0
 30
0.0
  0
POINT
  5
1A4
  8
DEFPOINTS
  6
CONTINUOUS
 62
    30
 10
-120.0
 20
388.55883899999992
 30
0.0
  0
LINE
  5
1A5
  8
NOTE
  6
CONTINUOUS
 62
     4
 39
50.0
 10
0.0
 20
-157.5
 30
0.0
 11
-205.7808909999998
 21
-320.95467599999978
 31
0.0
  0
LINE
  5
1A6
  8
NOTE
  6
CONTINUOUS
 62
     4
 39
50.0
 10
-205.7808909999998
 20
-320.95467599999978
 30
0.0
 11
-467.74434299999979
 21
-320.95467599999978
 31
0.0
  0
TEXT
  5
1A7
  8
NOTE
  6
CONTINUOUS
 62
     4
 10
-456.92677699999979
 20
-297.767878
 30
0.0
 40
64.0
  1
4-φ5
 41
0.9
  0
LINE
  5
1A8
  8
NOTE
  6
CONTINUOUS
 62
     4
 10
-36.387816000000001
 20
-174.1110459999999
 30
0.0
 11
0.0
 21
-157.5
 31
0.0
  0
LINE
  5
1A9
  8
NOTE
  6
CONTINUOUS
 62
     4
 10
0.0
 20
-157.5
 30
0.0
 11
-23.207249999999991
 21
-190.07949599999981
 31
0.0
  0
LINE
  5
1AA
  8
OUTLINE
  6
CONTINUOUS
 62
     3
 10
-120.0
 20
-145.0
 30
0.0
 11
0.0
 21
-145.0
 31
0.0
  0
LINE
  5
1AB
  8
OUTLINE
  6
CONTINUOUS
 62
     3
 10
-120.0
 20
145.0
 30
0.0
 11
0.0
 21
145.0
 31
0.0
  0
LINE
  5
1AC
  8
OUTLINE
  6
CONTINUOUS
 62
     3
 10
-120.0
 20
145.0
 30
0.0
 11
-120.0
 21
-145.0
 31
0.0
  0
LINE
  5
1AD
  8
DETAIL
  6
CONTINUOUS
 62
     5
 10
0.0
 20
-143.0
 30
0.0
 11
0.0
 21
143.0
 31
0.0
  0
LINE
  5
1AE
  8
DETAIL
  6
CONTINUOUS
 62
     5
 10
0.0
 20
-117.0
 30
0.0
 11
0.0
 21
117.0
 31
0.0
  0
LINE
  5
1AF
  8
DETAIL
  6
CONTINUOUS
 62
     5
 10
30.0
 20
-167.09999999999999
 30
0.0
 11
30.0
 21
167.09999999999999
 31
0.0
  0
LINE
  5
1B0
  8
DETAIL
  6
CONTINUOUS
 62
     5
 10
0.6
 20
-117.0
 30
0.0
 11
0.6
 21
117.0
 31
0.0
  0
LINE
  5
1B1
  8
DETAIL
  6
CONTINUOUS
 62
     5
 10
0.6
 20
-175.0
 30
0.0
 11
0.0
 21
-175.0
 31
0.0
  0
LINE
  5
1B2
  8
DETAIL
  6
CONTINUOUS
 62
     5
 10
0.0
 20
-175.0
 30
0.0
 11
0.0
 21
-140.4300429999999
 31
0.0
  0
LINE
  5
1B3
  8
DETAIL
  6
CONTINUOUS
 62
     5
 10
0.6
 20
-174.09999999999991
 30
0.0
 11
0.6
 21
-175.0
 31
0.0
  0
LINE
  5
1B4
  8
DETAIL
  6
CONTINUOUS
 62
     5
 10
0.0
 20
-140.4300429999999
 30
0.0
 11
0.0
 21
-127.0
 31
0.0
  0
ARC
  5
1B5
  8
DETAIL
  6
CONTINUOUS
 62
     5
 10
2.6000000000000001
 20
-174.09999999999991
 30
0.0
 40
2.0
 50
90.0
 51
180.0
  0
LINE
  5
1B6
  8
DETAIL
  6
CONTINUOUS
 62
     5
 10
0.6
 20
-175.0
 30
0.0
 11
0.6
 21
-127.0
 31
0.0
  0
LINE
  5
1B7
  8
DETAIL
  6
CONTINUOUS
 62
     5
 10
20.5
 20
-172.09999999999999
 30
0.0
 11
25.0
 21
-172.09999999999999
 31
0.0
  0
ARC
  5
1B8
  8
DETAIL
  6
CONTINUOUS
 62
     5
 10
25.0
 20
-167.09999999999999
 30
0.0
 40
5.0
 50
270.0
 51
0.0
  0
ARC
  5
1B9
  8
DETAIL
  6
CONTINUOUS
 62
     5
 10
8.0
 20
-125.0
 30
0.0
 40
2.0
 50
270.0
 51
0.0
  0
LINE
  5
1BA
  8
DETAIL
  6
CONTINUOUS
 62
     5
 10
10.0
 20
-125.0
 30
0.0
 11
10.0
 21
-119.0
 31
0.0
  0
ARC
  5
1BB
  8
DETAIL
  6
CONTINUOUS
 62
     5
 10
8.0
 20
-119.0
 30
0.0
 40
2.0
 50
0.0
 51
90.0
  0
LINE
  5
1BC
  8
DETAIL
  6
CONTINUOUS
 62
     5
 10
2.6000000000000001
 20
-172.09999999999999
 30
0.0
 11
17.5
 21
-172.09999999999999
 31
0.0
  0
LINE
  5
1BD
  8
DETAIL
  6
CONTINUOUS
 62
     5
 10
0.0
 20
-127.0
 30
0.0
 11
8.0
 21
-127.0
 31
0.0
  0
LINE
  5
1BE
  8
DETAIL
  6
CONTINUOUS
 62
     5
 10
0.0
 20
-117.0
 30
0.0
 11
8.0
 21
-117.0
 31
0.0
  0
LINE
  5
1BF
  8
DETAIL
  6
CONTINUOUS
 62
     5
 10
25.0
 20
-172.09999999999999
 30
0.0
 11
2.6000000000000001
 21
-172.09999999999999
 31
0.0
  0
LINE
  5
1C0
  8
DETAIL
  6
CONTINUOUS
 62
     5
 10
0.0
 20
145.30000000000001
 30
0.0
 11
0.0
 21
165.1999999999999
 31
0.0
  0
LINE
  5
1C1
  8
DETAIL
  6
CONTINUOUS
 62
     5
 10
0.6
 20
175.0
 30
0.0
 11
0.0
 21
175.0
 31
0.0
  0
LINE
  5
1C2
  8
DETAIL
  6
CONTINUOUS
 62
     5
 10
0.0
 20
140.4300429999999
 30
0.0
 11
0.0
 21
175.0
 31
0.0
  0
LINE
  5
1C3
  8
DETAIL
  6
CONTINUOUS
 62
     5
 10
0.6
 20
174.09999999999991
 30
0.0
 11
0.6
 21
175.0
 31
0.0
  0
LINE
  5
1C4
  8
DETAIL
  6
CONTINUOUS
 62
     5
 10
0.0
 20
127.0
 30
0.0
 11
0.0
 21
140.4300429999999
 31
0.0
  0
ARC
  5
1C5
  8
DETAIL
  6
CONTINUOUS
 62
     5
 10
2.6000000000000001
 20
174.09999999999991
 30
0.0
 40
2.0
 50
180.0
 51
270.0
  0
LINE
  5
1C6
  8
DETAIL
  6
CONTINUOUS
 62
     5
 10
0.6
 20
127.0
 30
0.0
 11
0.6
 21
175.0
 31
0.0
  0
ARC
  5
1C7
  8
DETAIL
  6
CONTINUOUS
 62
     5
 10
25.0
 20
167.09999999999999
 30
0.0
 40
5.0
 50
0.0
 51
90.0
  0
ARC
  5
1C8
  8
DETAIL
  6
CONTINUOUS
 62
     5
 10
8.0
 20
125.0
 30
0.0
 40
2.0
 50
0.0
 51
90.0
  0
LINE
  5
1C9
  8
DETAIL
  6
CONTINUOUS
 62
     5
 10
10.0
 20
125.0
 30
0.0
 11
10.0
 21
119.0
 31
0.0
  0
ARC
  5
1CA
  8
DETAIL
  6
CONTINUOUS
 62
     5
 10
8.0
 20
125.0
 30
0.0
 40
2.0
 50
0.0
 51
90.0
  0
LINE
  5
1CB
  8
DETAIL
  6
CONTINUOUS
 62
     5
 10
10.0
 20
119.0
 30
0.0
 11
10.0
 21
125.0
 31
0.0
  0
ARC
  5
1CC
  8
DETAIL
  6
CONTINUOUS
 62
     5
 10
8.0
 20
119.0
 30
0.0
 40
2.0
 50
270.0
 51
0.0
  0
ARC
  5
1CD
  8
DETAIL
  6
CONTINUOUS
 62
     5
 10
8.0
 20
119.0
 30
0.0
 40
2.0
 50
270.0
 51
0.0
  0
LINE
  5
1CE
  8
DETAIL
  6
CONTINUOUS
 62
     5
 10
0.0
 20
117.0
 30
0.0
 11
8.0
 21
117.0
 31
0.0
  0
LINE
  5
1CF
  8
DETAIL
  6
CONTINUOUS
 62
     5
 10
0.0
 20
127.0
 30
0.0
 11
8.0
 21
127.0
 31
0.0
  0
LINE
  5
1D0
  8
DETAIL
  6
CONTINUOUS
 62
     5
 10
25.0
 20
172.09999999999999
 30
0.0
 11
2.6000000000000001
 21
172.09999999999999
 31
0.0
  0
LINE
  5
1D1
  8
OUTLINE
  6
CONTINUOUS
 62
     3
 10
30.0
 20
-167.09999999999999
 30
0.0
 11
30.0
 21
167.09999999999999
 31
0.0
  0
LINE
  5
1D2
  8
OUTLINE
  6
CONTINUOUS
 62
     3
 10
0.0
 20
-117.0
 30
0.0
 11
0.0
 21
117.0
 31
0.0
  0
LINE
  5
1D3
  8
OUTLINE
  6
CONTINUOUS
 62
     3
 10
0.0
 20
-143.0
 30
0.0
 11
0.0
 21
143.0
 31
0.0
  0
LINE
  5
1D4
  8
OUTLINE
  6
CONTINUOUS
 62
     3
 10
25.0
 20
-172.09999999999999
 30
0.0
 11
2.6000000000000001
 21
-172.09999999999999
 31
0.0
  0
LINE
  5
1D5
  8
OUTLINE
  6
CONTINUOUS
 62
     3
 10
2.6000000000000001
 20
-172.09999999999999
 30
0.0
 11
17.5
 21
-172.09999999999999
 31
0.0
  0
ARC
  5
1D6
  8
OUTLINE
  6
CONTINUOUS
 62
     3
 10
25.0
 20
-167.09999999999999
 30
0.0
 40
5.0
 50
270.0
 51
0.0
  0
LINE
  5
1D7
  8
OUTLINE
  6
CONTINUOUS
 62
     3
 10
20.5
 20
-172.09999999999999
 30
0.0
 11
25.0
 21
-172.09999999999999
 31
0.0
  0
LINE
  5
1D8
  8
OUTLINE
  6
CONTINUOUS
 62
     3
 10
0.6
 20
-175.0
 30
0.0
 11
0.6
 21
-174.09999999999991
 31
0.0
  0
ARC
  5
1D9
  8
OUTLINE
  6
CONTINUOUS
 62
     3
 10
2.6000000000000001
 20
-174.09999999999991
 30
0.0
 40
2.0
 50
90.0
 51
180.0
  0
LINE
  5
1DA
  8
OUTLINE
  6
CONTINUOUS
 62
     3
 10
0.0
 20
-140.4300429999999
 30
0.0
 11
0.0
 21
-127.0
 31
0.0
  0
LINE
  5
1DB
  8
OUTLINE
  6
CONTINUOUS
 62
     3
 10
0.6
 20
-174.09999999999991
 30
0.0
 11
0.6
 21
-175.0
 31
0.0
  0
LINE
  5
1DC
  8
OUTLINE
  6
CONTINUOUS
 62
     3
 10
0.0
 20
-175.0
 30
0.0
 11
0.0
 21
-140.4300429999999
 31
0.0
  0
LINE
  5
1DD
  8
OUTLINE
  6
CONTINUOUS
 62
     3
 10
0.6
 20
-175.0
 30
0.0
 11
0.0
 21
-175.0
 31
0.0
  0
LINE
  5
1DE
  8
OUTLINE
  6
CONTINUOUS
 62
     3
 10
25.0
 20
172.09999999999999
 30
0.0
 11
2.6000000000000001
 21
172.09999999999999
 31
0.0
  0
ARC
  5
1DF
  8
OUTLINE
  6
CONTINUOUS
 62
     3
 10
25.0
 20
167.09999999999999
 30
0.0
 40
5.0
 50
0.0
 51
90.0
  0
LINE
  5
1E0
  8
OUTLINE
  6
CONTINUOUS
 62
     3
 10
0.6
 20
174.09999999999991
 30
0.0
 11
0.6
 21
175.0
 31
0.0
  0
ARC
  5
1E1
  8
OUTLINE
  6
CONTINUOUS
 62
     3
 10
2.6000000000000001
 20
174.09999999999991
 30
0.0
 40
2.0
 50
180.0
 51
270.0
  0
LINE
  5
1E2
  8
OUTLINE
  6
CONTINUOUS
 62
     3
 10
0.0
 20
127.0
 30
0.0
 11
0.0
 21
140.4300429999999
 31
0.0
  0
LINE
  5
1E3
  8
OUTLINE
  6
CONTINUOUS
 62
     3
 10
0.6
 20
174.09999999999991
 30
0.0
 11
0.6
 21
175.0
 31
0.0
  0
LINE
  5
1E4
  8
OUTLINE
  6
CONTINUOUS
 62
     3
 10
0.0
 20
140.4300429999999
 30
0.0
 11
0.0
 21
175.0
 31
0.0
  0
LINE
  5
1E5
  8
OUTLINE
  6
CONTINUOUS
 62
     3
 10
0.6
 20
175.0
 30
0.0
 11
0.0
 21
175.0
 31
0.0
  0
LINE
  5
1E6
  8
OUTLINE
  6
CONTINUOUS
 62
     3
 10
0.0
 20
145.30000000000001
 30
0.0
 11
0.0
 21
165.1999999999999
 31
0.0
  0
LINE
  5
1E7
  8
SIZE
  6
CONTINUOUS
 62
    30
 10
0.0
 20
195.0
 30
0.0
 11
0.0
 21
408.55883899999992
 31
0.0
  0
LINE
  5
1E8
  8
SIZE
  6
CONTINUOUS
 62
    30
 10
30.0
 20
187.09999999999999
 30
0.0
 11
30.0
 21
408.55883899999992
 31
0.0
  0
LINE
  5
1E9
  8
SIZE
  6
CONTINUOUS
 62
    30
 10
-12.0
 20
388.55883899999992
 30
0.0
 11
-24.0
 21
388.55883899999992
 31
0.0
  0
LINE
  5
1EA
  8
SIZE
  6
CONTINUOUS
 62
    30
 10
42.0
 20
388.55883899999992
 30
0.0
 11
54.0
 21
388.55883899999992
 31
0.0
  0
LINE
  5
1EB
  8
SIZE
  6
CONTINUOUS
 62
    30
 10
212.2690659999999
 20
388.55883899999992
 30
0.0
 11
30.0
 21
388.55883899999992
 31
0.0
  0
TEXT
  5
1EC
  8
SIZE
  6
CONTINUOUS
 62
    30
 10
94.011923571428483
 20
413.55883899999992
 30
0.0
 40
64.0
  1
30
 41
0.9
 72
     1
 11
140.6404949999999
 21
413.55883899999992
 31
0.0
  0
LINE
  5
1ED
  8
SIZE
  6
CONTINUOUS
 62
    30
 10
0.0
 20
388.55883899999992
 30
0.0
 11
30.0
 21
388.55883899999992
 31
0.0
  0
LINE
  5
1EE
  8
SIZE
  6
CONTINUOUS
 62
    30
 10
0.0
 20
388.55883899999992
 30
0.0
 11
30.0
 21
388.55883899999992
 31
0.0
  0
CIRCLE
  5
1EF
  8
SIZE
  6
CONTINUOUS
 62
    30
 10
0.0
 20
388.55883899999992
 30
0.0
 40
6.0
  0
LINE
  5
1F0
  8
SIZE
  6
CONTINUOUS
 62
    30
 10
0.0
 20
388.55883899999992
 30
0.0
 11
-12.0
 21
388.55883899999992
 31
0.0
  0
CIRCLE
  5
1F1
  8
SIZE
  6
CONTINUOUS
 62
    30
 10
30.0
 20
388.55883899999992
 30
0.0
 40
6.0
  0
LINE
  5
1F2
  8
SIZE
  6
CONTINUOUS
 62
    30
 10
30.0
 20
388.55883899999992
 30
0.0
 11
42.0
 21
388.55883899999992
 31
0.0
  0
POINT
  5
1F3
  8
DEFPOINTS
  6
CONTINUOUS
 62
    30
 10
0.0
 20
175.0
 30
0.0
  0
POINT
  5
1F4
  8
DEFPOINTS
  6
CONTINUOUS
 62
    30
 10
30.0
 20
167.09999999999999
 30
0.0
  0
POINT
  5
1F5
  8
DEFPOINTS
  6
CONTINUOUS
 62
    30
 10
30.0
 20
388.55883899999992
 30
0.0
  0
LINE
  5
1F6
  8
SIZE
  6
CONTINUOUS
 62
    30
 10
-20.0
 20
175.0
 30
0.0
 11
-480.548001
 21
175.0
 31
0.0
  0
LINE
  5
1F7
  8
SIZE
  6
CONTINUOUS
 62
    30
 10
-20.0
 20
-175.0
 30
0.0
 11
-480.548001
 21
-175.0
 31
0.0
  0
LINE
  5
1F8
  8
SIZE
  6
CONTINUOUS
 62
    30
 10
-460.54800099999989
 20
163.0
 30
0.0
 11
-460.54800099999989
 21
-163.0
 31
0.0
  0
CIRCLE
  5
1F9
  8
SIZE
  6
CONTINUOUS
 62
    30
 10
-460.54800099999989
 20
175.0
 30
0.0
 40
6.0
  0
LINE
  5
1FA
  8
SIZE
  6
CONTINUOUS
 62
    30
 10
-460.54800099999989
 20
175.0
 30
0.0
 11
-460.54800099999989
 21
163.0
 31
0.0
  0
CIRCLE
  5
1FB
  8
SIZE
  6
CONTINUOUS
 62
    30
 10
-460.54800099999989
 20
-175.0
 30
0.0
 40
6.0
  0
LINE
  5
1FC
  8
SIZE
  6
CONTINUOUS
 62
    30
 10
-460.54800099999989
 20
-175.0
 30
0.0
 11
-460.54800099999989
 21
-163.0
 31
0.0
  0
TEXT
  5
1FD
  8
SIZE
  6
CONTINUOUS
 62
    30
 10
-485.54800099999989
 20
-74.05714285714285
 30
0.0
 40
64.0
  1
350
 50
90.0
 41
0.9
 72
     1
 11
-485.54800099999989
 21
0.0
 31
0.0
  0
POINT
  5
1FE
  8
DEFPOINTS
  6
CONTINUOUS
 62
    30
 10
0.0
 20
175.0
 30
0.0
  0
POINT
  5
1FF
  8
DEFPOINTS
  6
CONTINUOUS
 62
    30
 10
0.0
 20
-175.0
 30
0.0
  0
POINT
  5
200
  8
DEFPOINTS
  6
CONTINUOUS
 62
    30
 10
-460.54800099999989
 20
-175.0
 30
0.0
  0
LINE
  5
201
  8
DETAIL
  6
CONTINUOUS
 62
     5
 10
14.0
 20
-179.09999999999991
 30
0.0
 11
14.0
 21
-188.338581
 31
0.0
  0
LINE
  5
202
  8
DETAIL
  6
CONTINUOUS
 62
     5
 10
26.0
 20
-179.09999999999991
 30
0.0
 11
26.0
 21
-188.338581
 31
0.0
  0
LINE
  5
203
  8
DETAIL
  6
CONTINUOUS
 62
     5
 10
16.732904999999999
 20
-188.8932639999999
 30
0.0
 11
20.0
 21
-189.09999999999999
 31
0.0
  0
LINE
  5
204
  8
DETAIL
  6
CONTINUOUS
 62
     5
 10
14.0
 20
-188.338581
 30
0.0
 11
16.732904999999999
 21
-188.8932639999999
 31
0.0
  0
LINE
  5
205
  8
DETAIL
  6
CONTINUOUS
 62
     5
 10
23.267095000000001
 20
-188.8932639999999
 30
0.0
 11
20.0
 21
-189.09999999999999
 31
0.0
  0
LINE
  5
206
  8
DETAIL
  6
CONTINUOUS
 62
     5
 10
26.0
 20
-188.338581
 30
0.0
 11
23.267095000000001
 21
-188.8932639999999
 31
0.0
  0
LINE
  5
207
  8
DETAIL
  6
CONTINUOUS
 62
     5
 10
26.0
 20
-188.338581
 30
0.0
 11
14.0
 21
-188.338581
 31
0.0
  0
LINE
  5
208
  8
DETAIL
  6
CONTINUOUS
 62
     5
 10
15.25
 20
-172.09999999999999
 30
0.0
 11
15.25
 21
-179.09999999999991
 31
0.0
  0
LINE
  5
209
  8
DETAIL
  6
CONTINUOUS
 62
     5
 10
24.75
 20
-172.09999999999999
 30
0.0
 11
24.75
 21
-179.09999999999991
 31
0.0
  0
LINE
  5
20A
  8
DETAIL
  6
CONTINUOUS
 62
     5
 10
26.0
 20
-179.09999999999991
 30
0.0
 11
14.0
 21
-179.09999999999991
 31
0.0
  0
TEXT
  5
20B
  8
ETC
  6
CONTINUOUS
 62
    61
 10
242.3906456426989
 20
626.06874373298785
 30
0.0
 40
64.0
  1
EX-625EM5_5
 41
0.9
  0
TEXT
  5
20C
  8
ETC
  6
CONTINUOUS
 62
    61
 10
346.83340404234002
 20
313.07440673109659
 30
0.0
 40
50.0
  1
EX-625KHA5-E
 41
0.9
  0
TEXT
  5
20D
  8
ETC
  6
CONTINUOUS
 62
    61
 10
234.31716764269879
 20
528.05001773298795
 30
0.0
 40
64.0
  1
換気扇
 41
0.9
  0
TEXT
  5
20E
  8
ETC
  6
CONTINUOUS
 62
    61
 10
341.78705736238169
 20
416.54961220246781
 30
0.0
 40
50.0
  1
EX-625EM5
 41
0.9
  0
ENDSEC
  0
EOF
