  0
SECTION
  2
HEADER
  9
$ACADVER
  1
AC1009
  9
$INSBASE
 10
0.0
 20
0.0
 30
0.0
  9
$EXTMIN
 10
-510.41812800000002
 20
-212.2690659999999
 30
0.0
  9
$EXTMAX
 10
874.23658215396824
 20
719.83545476576194
 30
50.0
  9
$LIMMIN
 10
-2970.0
 20
-2100.0
  9
$LIMMAX
 10
2970.0
 20
2100.0
  9
$ORTHOMODE
 70
     1
  9
$REGENMODE
 70
     0
  9
$FILLMODE
 70
     1
  9
$QTEXTMODE
 70
     0
  9
$MIRRTEXT
 70
     0
  9
$DRAGMODE
 70
     2
  9
$LTSCALE
 40
20.0
  9
$OSMODE
 70
    41
  9
$ATTMODE
 70
     1
  9
$TEXTSIZE
 40
64.0
  9
$TRACEWID
 40
0.05
  9
$TEXTSTYLE
  7
STANDARD
  9
$CLAYER
  8
SIZE
  9
$CELTYPE
  6
CONTINUOUS
  9
$CECOLOR
 62
     8
  9
$DIMSCALE
 40
1.0
  9
$DIMASZ
 40
12.0
  9
$DIMEXO
 40
20.0
  9
$DIMDLI
 40
200.0
  9
$DIMRND
 40
0.0
  9
$DIMDLE
 40
0.0
  9
$DIMEXE
 40
20.0
  9
$DIMTP
 40
0.0
  9
$DIMTM
 40
0.0
  9
$DIMTXT
 40
64.0
  9
$DIMCEN
 40
0.09
  9
$DIMTSZ
 40
0.0
  9
$DIMTOL
 70
     0
  9
$DIMLIM
 70
     0
  9
$DIMTIH
 70
     0
  9
$DIMTOH
 70
     0
  9
$DIMSE1
 70
     0
  9
$DIMSE2
 70
     0
  9
$DIMTAD
 70
     1
  9
$DIMZIN
 70
     8
  9
$DIMBLK
  1
DOT1
  9
$DIMASO
 70
     1
  9
$DIMSHO
 70
     0
  9
$DIMPOST
  1

  9
$DIMAPOST
  1

  9
$DIMALT
 70
     0
  9
$DIMALTD
 70
     2
  9
$DIMALTF
 40
25.399999999999999
  9
$DIMLFAC
 40
1.0
  9
$DIMTOFL
 70
     1
  9
$DIMTVP
 40
0.0
  9
$DIMTIX
 70
     1
  9
$DIMSOXD
 70
     0
  9
$DIMSAH
 70
     1
  9
$DIMBLK1
  1
ORIGIN
  9
$DIMBLK2
  1
ORIGIN
  9
$DIMSTYLE
  2
STANDARD
  9
$DIMCLRD
 70
     0
  9
$DIMCLRE
 70
     0
  9
$DIMCLRT
 70
     0
  9
$DIMTFAC
 40
1.0
  9
$DIMGAP
 40
0.09
  9
$LUNITS
 70
     2
  9
$LUPREC
 70
     4
  9
$SKETCHINC
 40
0.1
  9
$FILLETRAD
 40
15.0
  9
$AUNITS
 70
     1
  9
$AUPREC
 70
     3
  9
$MENU
  1
ACAD
  9
$ELEVATION
 40
0.0
  9
$PELEVATION
 40
0.0
  9
$THICKNESS
 40
50.0
  9
$LIMCHECK
 70
     0
  9
$BLIPMODE
 70
     0
  9
$CHAMFERA
 40
0.0
  9
$CHAMFERB
 40
0.0
  9
$SKPOLY
 70
     0
  9
$TDCREATE
 40
2451453.4938508091
  9
$TDUPDATE
 40
2453462.846585277
  9
$TDINDWG
 40
0.780081956
  9
$TDUSRTIMER
 40
0.780081956
  9
$USRTIMER
 70
     1
  9
$ANGBASE
 50
0.0
  9
$ANGDIR
 70
     0
  9
$PDMODE
 70
     3
  9
$PDSIZE
 40
-2.0
  9
$PLINEWID
 40
0.0
  9
$COORDS
 70
     2
  9
$SPLFRAME
 70
     0
  9
$SPLINETYPE
 70
     6
  9
$SPLINESEGS
 70
     8
  9
$ATTDIA
 70
     0
  9
$ATTREQ
 70
     1
  9
$HANDLING
 70
 22529
  9
$HANDSEED
  5
21F
  9
$SURFTAB1
 70
     6
  9
$SURFTAB2
 70
     6
  9
$SURFTYPE
 70
     6
  9
$SURFU
 70
     6
  9
$SURFV
 70
     6
  9
$UCSNAME
  2

  9
$UCSORG
 10
0.0
 20
0.0
 30
0.0
  9
$UCSXDIR
 10
1.0
 20
0.0
 30
0.0
  9
$UCSYDIR
 10
0.0
 20
1.0
 30
0.0
  9
$PUCSNAME
  2

  9
$PUCSORG
 10
0.0
 20
0.0
 30
0.0
  9
$PUCSXDIR
 10
1.0
 20
0.0
 30
0.0
  9
$PUCSYDIR
 10
0.0
 20
1.0
 30
0.0
  9
$USERI1
 70
     0
  9
$USERI2
 70
     0
  9
$USERI3
 70
     0
  9
$USERI4
 70
     0
  9
$USERI5
 70
     0
  9
$USERR1
 40
20.0
  9
$USERR2
 40
0.0
  9
$USERR3
 40
0.0
  9
$USERR4
 40
0.0
  9
$USERR5
 40
0.0
  9
$WORLDVIEW
 70
     1
  9
$SHADEDGE
 70
     3
  9
$SHADEDIF
 70
    70
  9
$TILEMODE
 70
     1
  9
$MAXACTVP
 70
    64
  9
$PLIMCHECK
 70
     0
  9
$PEXTMIN
 10
1.0000000000000000E+020
 20
1.0000000000000000E+020
 30
1.0000000000000000E+020
  9
$PEXTMAX
 10
-1.0000000000000000E+020
 20
-1.0000000000000000E+020
 30
-1.0000000000000000E+020
  9
$PLIMMIN
 10
0.0
 20
0.0
  9
$PLIMMAX
 10
12.0
 20
9.0
  9
$UNITMODE
 70
     0
  9
$VISRETAIN
 70
     1
  9
$PLINEGEN
 70
     0
  9
$PSLTSCALE
 70
     1
  0
ENDSEC
  0
SECTION
  2
TABLES
  0
TABLE
  2
VPORT
 70
     3
  0
VPORT
  2
*ACTIVE
 70
     0
 10
0.0
 20
0.0
 11
1.0
 21
1.0
 12
66.125533053960325
 22
200.00034372939339
 13
0.0
 23
0.0
 14
1.0
 24
1.0
 15
0.0
 25
0.0
 16
0.0
 26
0.0
 36
1.0
 17
0.0
 27
0.0
 37
0.0
 40
1320.433611580245
 41
1.4423558897243101
 42
50.0
 43
0.0
 44
0.0
 50
0.0
 51
0.0
 71
     0
 72
   100
 73
     1
 74
     0
 75
     0
 76
     0
 77
     0
 78
     0
  0
ENDTAB
  0
TABLE
  2
LTYPE
 70
     2
  0
LTYPE
  2
CONTINUOUS
 70
     0
  3
実線
 72
    65
 73
     0
 40
0.0
  0
LTYPE
  2
DASHDOT
 70
     0
  3
____ _ ____ _ ____ _ ____ _ ____ _ ____ _ ____
 72
    65
 73
     4
 40
5.5
 49
4.0
 49
-0.6
 49
0.3
 49
-0.6
  0
ENDTAB
  0
TABLE
  2
LAYER
 70
    12
  0
LAYER
  2
0
 70
     0
 62
     7
  6
CONTINUOUS
  0
LAYER
  2
SIZE
 70
     0
 62
    30
  6
CONTINUOUS
  0
LAYER
  2
BASIS
 70
     0
 62
     6
  6
DASHDOT
  0
LAYER
  2
OUTLINE
 70
     0
 62
     3
  6
CONTINUOUS
  0
LAYER
  2
DETAIL
 70
     0
 62
     5
  6
CONTINUOUS
  0
LAYER
  2
ARRANGE
 70
     0
 62
     1
  6
CONTINUOUS
  0
LAYER
  2
DEFPOINTS
 70
     0
 62
     7
  6
CONTINUOUS
  0
LAYER
  2
ETC
 70
     0
 62
    61
  6
CONTINUOUS
  0
LAYER
  2
FIX
 70
     0
 62
    11
  6
CONTINUOUS
  0
LAYER
  2
NOTE
 70
     0
 62
     4
  6
CONTINUOUS
  0
LAYER
  2
SERVICESPACE
 70
     0
 62
     2
  6
DASHDOT
  0
LAYER
  2
SYMBOLLINE
 70
     0
 62
    15
  6
CONTINUOUS
  0
ENDTAB
  0
TABLE
  2
STYLE
 70
     1
  0
STYLE
  2
STANDARD
 70
     0
 40
64.0
 41
0.9
 50
0.0
 71
     0
 42
64.0
  3
SIMPLEX.shx
  4
BIGFONT.shx
  0
ENDTAB
  0
TABLE
  2
VIEW
 70
     1
  0
VIEW
  2
ALL
 70
     0
 40
4282.6198079999976
 10
0.0
 20
41.309903999999989
 41
5940.0
 11
0.0
 21
0.0
 31
1.0
 12
0.0
 22
0.0
 32
0.0
 42
50.0
 43
0.0
 44
0.0
 50
0.0
 71
     0
  0
ENDTAB
  0
TABLE
  2
UCS
 70
     0
  0
ENDTAB
  0
TABLE
  2
APPID
 70
     1
  0
APPID
  2
ACAD
 70
     0
  0
ENDTAB
  0
TABLE
  2
DIMSTYLE
 70
     1
  0
DIMSTYLE
  2
STANDARD
 70
     0
  3

  4

  5

  6

  7

 40
1.0
 41
0.18
 42
0.0625
 43
0.38
 44
0.18
 45
0.0
 46
0.0
 47
0.0
 48
0.0
140
0.18
141
0.09
142
0.0
143
25.399999999999999
144
1.0
145
0.0
146
1.0
147
0.09
 71
     0
 72
     0
 73
     1
 74
     1
 75
     0
 76
     0
 77
     0
 78
     0
170
     0
171
     2
172
     0
173
     0
174
     0
175
     0
176
     0
177
     0
178
     0
  0
ENDTAB
  0
ENDSEC
  0
SECTION
  2
BLOCKS
  0
BLOCK
  8
0
  2
$MODEL_SPACE
 70
     0
 10
0.0
 20
0.0
 30
0.0
  3
$MODEL_SPACE
  1

  0
ENDBLK
  5
131
  8
0
  0
BLOCK
 67
     1
  8
0
  2
$PAPER_SPACE
 70
     0
 10
0.0
 20
0.0
 30
0.0
  3
$PAPER_SPACE
  1

  0
ENDBLK
  5
12D
 67
     1
  8
0
  0
BLOCK
  8
0
  2
DOT1
 70
     0
 10
0.0
 20
0.0
 30
0.0
  3
DOT1
  1

  0
CIRCLE
  5
14C
  8
SIZE
  6
CONTINUOUS
 62
     7
 10
0.0
 20
0.0
 30
0.0
 40
3.0
  0
ENDBLK
  5
14D
  8
0
  0
BLOCK
  8
0
  2
_ORIGIN
 70
     0
 10
0.0
 20
0.0
 30
0.0
  3
_ORIGIN
  1

  0
CIRCLE
  5
150
  8
0
  6
CONTINUOUS
 62
     7
 10
0.0
 20
0.0
 30
0.0
 40
0.5
  0
LINE
  5
151
  8
0
  6
CONTINUOUS
 62
     7
 10
0.0
 20
0.0
 30
0.0
 11
-1.0
 21
0.0
 31
0.0
  0
ENDBLK
  5
152
  8
0
  0
ENDSEC
  0
SECTION
  2
ENTITIES
  0
LINE
  5
153
  8
BASIS
  6
DASHDOT
 62
     6
 10
0.0
 20
-129.42241000000001
 30
0.0
 11
0.0
 21
178.75115099999991
 31
0.0
  0
POINT
  5
154
  8
ARRANGE
  6
CONTINUOUS
 62
     1
 10
0.0
 20
0.0
 30
0.0
 39
50.0
  0
CIRCLE
  5
155
  8
ARRANGE
  6
CONTINUOUS
 62
     1
 39
50.0
 10
0.0
 20
0.0
 30
0.0
 40
40.0
  0
LINE
  5
156
  8
DETAIL
  6
CONTINUOUS
 62
     5
 10
-145.0
 20
120.0
 30
0.0
 11
-145.0
 21
0.0
 31
0.0
  0
LINE
  5
157
  8
DETAIL
  6
CONTINUOUS
 62
     5
 10
-145.0
 20
120.0
 30
0.0
 11
145.0
 21
120.0
 31
0.0
  0
LINE
  5
158
  8
DETAIL
  6
CONTINUOUS
 62
     5
 10
145.0
 20
120.0
 30
0.0
 11
145.0
 21
0.0
 31
0.0
  0
CIRCLE
  5
159
  8
FIX
  6
CONTINUOUS
 62
    11
 39
50.0
 10
-85.0
 20
0.0
 30
0.0
 40
2.5
  0
LINE
  5
15A
  8
NOTE
  6
CONTINUOUS
 62
     4
 10
-105.0
 20
0.0
 30
0.0
 11
-65.0
 21
0.0
 31
0.0
  0
LINE
  5
15B
  8
NOTE
  6
CONTINUOUS
 62
     4
 10
-85.0
 20
-20.0
 30
0.0
 11
-85.0
 21
20.0
 31
0.0
  0
CIRCLE
  5
15C
  8
FIX
  6
CONTINUOUS
 62
    11
 39
50.0
 10
85.0
 20
0.0
 30
0.0
 40
2.5
  0
LINE
  5
15D
  8
NOTE
  6
CONTINUOUS
 62
     4
 10
65.0
 20
0.0
 30
0.0
 11
105.0
 21
0.0
 31
0.0
  0
LINE
  5
15E
  8
NOTE
  6
CONTINUOUS
 62
     4
 10
85.0
 20
-20.0
 30
0.0
 11
85.0
 21
20.0
 31
0.0
  0
LINE
  5
15F
  8
SIZE
  6
CONTINUOUS
 62
    30
 10
-145.0
 20
140.0
 30
0.0
 11
-145.0
 21
347.60250799999977
 31
0.0
  0
LINE
  5
160
  8
SIZE
  6
CONTINUOUS
 62
    30
 10
145.0
 20
140.0
 30
0.0
 11
145.0
 21
347.60250799999977
 31
0.0
  0
LINE
  5
161
  8
SIZE
  6
CONTINUOUS
 62
    30
 10
-133.0
 20
327.602508
 30
0.0
 11
133.0
 21
327.602508
 31
0.0
  0
CIRCLE
  5
162
  8
SIZE
  6
CONTINUOUS
 62
    30
 10
-145.0
 20
327.602508
 30
0.0
 40
6.0
  0
LINE
  5
163
  8
SIZE
  6
CONTINUOUS
 62
    30
 10
-145.0
 20
327.602508
 30
0.0
 11
-133.0
 21
327.602508
 31
0.0
  0
CIRCLE
  5
164
  8
SIZE
  6
CONTINUOUS
 62
    30
 10
145.0
 20
327.602508
 30
0.0
 40
6.0
  0
LINE
  5
165
  8
SIZE
  6
CONTINUOUS
 62
    30
 10
145.0
 20
327.602508
 30
0.0
 11
133.0
 21
327.602508
 31
0.0
  0
TEXT
  5
166
  8
SIZE
  6
CONTINUOUS
 62
    30
 10
-110.5371428571428
 20
352.602508
 30
0.0
 40
64.0
  1
□290
 41
0.9
 72
     1
 11
0.0
 21
352.602508
 31
0.0
  0
POINT
  5
167
  8
DEFPOINTS
  6
CONTINUOUS
 62
    30
 10
-145.0
 20
120.0
 30
0.0
  0
POINT
  5
168
  8
DEFPOINTS
  6
CONTINUOUS
 62
    30
 10
145.0
 20
120.0
 30
0.0
  0
POINT
  5
169
  8
DEFPOINTS
  6
CONTINUOUS
 62
    30
 10
145.0
 20
327.602508
 30
0.0
  0
LINE
  5
16A
  8
SIZE
  6
CONTINUOUS
 62
    30
 10
-85.0
 20
40.0
 30
0.0
 11
-85.0
 21
227.884614
 31
0.0
  0
LINE
  5
16B
  8
SIZE
  6
CONTINUOUS
 62
    30
 10
85.0
 20
40.0
 30
0.0
 11
85.0
 21
227.884614
 31
0.0
  0
LINE
  5
16E
  8
SIZE
  6
CONTINUOUS
 62
    30
 10
-85.0
 20
207.884614
 30
0.0
 11
85.0
 21
207.884614
 31
0.0
  0
CIRCLE
  5
16F
  8
SIZE
  6
CONTINUOUS
 62
    30
 10
-85.0
 20
207.884614
 30
0.0
 40
6.0
  0
CIRCLE
  5
171
  8
SIZE
  6
CONTINUOUS
 62
    30
 10
85.0
 20
207.884614
 30
0.0
 40
6.0
  0
TEXT
  5
173
  8
SIZE
  6
CONTINUOUS
 62
    30
 10
-68.571428571428569
 20
232.884614
 30
0.0
 40
64.0
  1
170
 41
0.9
 72
     1
 11
0.0
 21
232.884614
 31
0.0
  0
POINT
  5
174
  8
DEFPOINTS
  6
CONTINUOUS
 62
    30
 10
-85.0
 20
20.0
 30
0.0
  0
POINT
  5
175
  8
DEFPOINTS
  6
CONTINUOUS
 62
    30
 10
85.0
 20
20.0
 30
0.0
  0
POINT
  5
176
  8
DEFPOINTS
  6
CONTINUOUS
 62
    30
 10
85.0
 20
207.884614
 30
0.0
  0
LINE
  5
177
  8
SIZE
  6
CONTINUOUS
 62
    30
 10
-193.0
 20
0.0
 30
0.0
 11
-408.55883899999992
 21
0.0
 31
0.0
  0
LINE
  5
178
  8
SIZE
  6
CONTINUOUS
 62
    30
 10
-165.0
 20
120.0
 30
0.0
 11
-408.55883899999992
 21
120.0
 31
0.0
  0
LINE
  5
179
  8
SIZE
  6
CONTINUOUS
 62
    30
 10
-388.55883899999992
 20
-12.0
 30
0.0
 11
-388.55883899999992
 21
-24.0
 31
0.0
  0
LINE
  5
17B
  8
SIZE
  6
CONTINUOUS
 62
    30
 10
-388.55883899999992
 20
0.0
 30
0.0
 11
-388.55883899999992
 21
120.0
 31
0.0
  0
CIRCLE
  5
17C
  8
SIZE
  6
CONTINUOUS
 62
    30
 10
-388.55883899999992
 20
0.0
 30
0.0
 40
6.0
  0
LINE
  5
17D
  8
SIZE
  6
CONTINUOUS
 62
    30
 10
-388.55883899999992
 20
0.0
 30
0.0
 11
-388.55883899999992
 21
-12.0
 31
0.0
  0
CIRCLE
  5
17E
  8
SIZE
  6
CONTINUOUS
 62
    30
 10
-388.55883899999992
 20
120.0
 30
0.0
 40
6.0
  0
TEXT
  5
180
  8
SIZE
  6
CONTINUOUS
 62
    30
 10
-413.55883899999992
 20
-8.5714285714285694
 30
0.0
 40
64.0
  1
120
 50
90.0
 41
0.9
 72
     1
 11
-413.55883899999992
 21
60.0
 31
0.0
  0
POINT
  5
181
  8
DEFPOINTS
  6
CONTINUOUS
 62
    30
 10
-173.0
 20
0.0
 30
0.0
  0
POINT
  5
182
  8
DEFPOINTS
  6
CONTINUOUS
 62
    30
 10
-145.0
 20
120.0
 30
0.0
  0
POINT
  5
183
  8
DEFPOINTS
  6
CONTINUOUS
 62
    30
 10
-388.55883899999992
 20
120.0
 30
0.0
  0
LINE
  5
184
  8
NOTE
  6
CONTINUOUS
 62
     4
 39
50.0
 10
-85.0
 20
0.0
 30
0.0
 11
-248.45467599999981
 21
205.7808909999998
 31
0.0
  0
LINE
  5
185
  8
NOTE
  6
CONTINUOUS
 62
     4
 39
50.0
 10
-248.45467599999981
 20
205.7808909999998
 30
0.0
 11
-510.41812800000002
 21
205.7808909999998
 31
0.0
  0
TEXT
  5
186
  8
NOTE
  6
CONTINUOUS
 62
     4
 10
-499.60056200000002
 20
228.96768999999989
 30
0.0
 40
64.0
  1
4-φ5
 41
0.9
  0
LINE
  5
187
  8
NOTE
  6
CONTINUOUS
 62
     4
 10
-101.6110459999999
 20
36.387816000000001
 30
0.0
 11
-85.0
 21
0.0
 31
0.0
  0
LINE
  5
188
  8
NOTE
  6
CONTINUOUS
 62
     4
 10
-85.0
 20
0.0
 30
0.0
 11
-117.57949599999991
 21
23.207249999999991
 31
0.0
  0
LINE
  5
189
  8
OUTLINE
  6
CONTINUOUS
 62
     3
 10
145.0
 20
120.0
 30
0.0
 11
145.0
 21
0.0
 31
0.0
  0
LINE
  5
18A
  8
OUTLINE
  6
CONTINUOUS
 62
     3
 10
-145.0
 20
120.0
 30
0.0
 11
-145.0
 21
0.0
 31
0.0
  0
LINE
  5
18B
  8
OUTLINE
  6
CONTINUOUS
 62
     3
 10
-145.0
 20
120.0
 30
0.0
 11
145.0
 21
120.0
 31
0.0
  0
LINE
  5
18C
  8
DETAIL
  6
CONTINUOUS
 62
     5
 10
143.0
 20
0.0
 30
0.0
 11
-143.0
 21
0.0
 31
0.0
  0
LINE
  5
18D
  8
DETAIL
  6
CONTINUOUS
 62
     5
 10
117.0
 20
0.0
 30
0.0
 11
-117.0
 21
0.0
 31
0.0
  0
LINE
  5
18E
  8
DETAIL
  6
CONTINUOUS
 62
     5
 10
167.09999999999999
 20
-30.0
 30
0.0
 11
-167.09999999999999
 21
-30.0
 31
0.0
  0
LINE
  5
18F
  8
DETAIL
  6
CONTINUOUS
 62
     5
 10
175.0
 20
-0.6
 30
0.0
 11
175.0
 21
0.0
 31
0.0
  0
LINE
  5
190
  8
DETAIL
  6
CONTINUOUS
 62
     5
 10
175.0
 20
0.0
 30
0.0
 11
140.4300429999999
 21
0.0
 31
0.0
  0
LINE
  5
191
  8
DETAIL
  6
CONTINUOUS
 62
     5
 10
174.09999999999991
 20
-0.6
 30
0.0
 11
175.0
 21
-0.6
 31
0.0
  0
LINE
  5
192
  8
DETAIL
  6
CONTINUOUS
 62
     5
 10
140.4300429999999
 20
0.0
 30
0.0
 11
127.0
 21
0.0
 31
0.0
  0
ARC
  5
193
  8
DETAIL
  6
CONTINUOUS
 62
     5
 10
174.09999999999991
 20
-2.6000000000000001
 30
0.0
 40
2.0
 50
90.0
 51
180.0
  0
LINE
  5
194
  8
DETAIL
  6
CONTINUOUS
 62
     5
 10
172.09999999999999
 20
-20.5
 30
0.0
 11
172.09999999999999
 21
-25.0
 31
0.0
  0
ARC
  5
195
  8
DETAIL
  6
CONTINUOUS
 62
     5
 10
167.09999999999999
 20
-25.0
 30
0.0
 40
5.0
 50
270.0
 51
0.0
  0
LINE
  5
196
  8
DETAIL
  6
CONTINUOUS
 62
     5
 10
172.09999999999999
 20
-2.6000000000000001
 30
0.0
 11
172.09999999999999
 21
-17.5
 31
0.0
  0
LINE
  5
197
  8
DETAIL
  6
CONTINUOUS
 62
     5
 10
172.09999999999999
 20
-25.0
 30
0.0
 11
172.09999999999999
 21
-2.6000000000000001
 31
0.0
  0
LINE
  5
198
  8
DETAIL
  6
CONTINUOUS
 62
     5
 10
-145.30000000000001
 20
0.0
 30
0.0
 11
-165.1999999999999
 21
0.0
 31
0.0
  0
LINE
  5
199
  8
DETAIL
  6
CONTINUOUS
 62
     5
 10
-175.0
 20
-0.6
 30
0.0
 11
-175.0
 21
0.0
 31
0.0
  0
LINE
  5
19A
  8
DETAIL
  6
CONTINUOUS
 62
     5
 10
-140.4300429999999
 20
0.0
 30
0.0
 11
-175.0
 21
0.0
 31
0.0
  0
LINE
  5
19B
  8
DETAIL
  6
CONTINUOUS
 62
     5
 10
-174.09999999999991
 20
-0.6
 30
0.0
 11
-175.0
 21
-0.6
 31
0.0
  0
LINE
  5
19C
  8
DETAIL
  6
CONTINUOUS
 62
     5
 10
-127.0
 20
0.0
 30
0.0
 11
-140.4300429999999
 21
0.0
 31
0.0
  0
ARC
  5
19D
  8
DETAIL
  6
CONTINUOUS
 62
     5
 10
-174.09999999999991
 20
-2.6000000000000001
 30
0.0
 40
2.0
 50
0.0
 51
90.0
  0
LINE
  5
19E
  8
DETAIL
  6
CONTINUOUS
 62
     5
 10
174.09999999999991
 20
-0.6
 30
0.0
 11
-175.0
 21
-0.6
 31
0.0
  0
ARC
  5
19F
  8
DETAIL
  6
CONTINUOUS
 62
     5
 10
-167.09999999999999
 20
-25.0
 30
0.0
 40
5.0
 50
180.0
 51
270.0
  0
LINE
  5
1A0
  8
DETAIL
  6
CONTINUOUS
 62
     5
 10
-172.09999999999999
 20
-25.0
 30
0.0
 11
-172.09999999999999
 21
-2.6000000000000001
 31
0.0
  0
LINE
  5
1A1
  8
OUTLINE
  6
CONTINUOUS
 62
     3
 10
167.09999999999999
 20
-30.0
 30
0.0
 11
-167.09999999999999
 21
-30.0
 31
0.0
  0
LINE
  5
1A2
  8
OUTLINE
  6
CONTINUOUS
 62
     3
 10
117.0
 20
0.0
 30
0.0
 11
-117.0
 21
0.0
 31
0.0
  0
LINE
  5
1A3
  8
OUTLINE
  6
CONTINUOUS
 62
     3
 10
143.0
 20
0.0
 30
0.0
 11
-143.0
 21
0.0
 31
0.0
  0
LINE
  5
1A4
  8
OUTLINE
  6
CONTINUOUS
 62
     3
 10
172.09999999999999
 20
-25.0
 30
0.0
 11
172.09999999999999
 21
-2.6000000000000001
 31
0.0
  0
LINE
  5
1A5
  8
OUTLINE
  6
CONTINUOUS
 62
     3
 10
172.09999999999999
 20
-2.6000000000000001
 30
0.0
 11
172.09999999999999
 21
-17.5
 31
0.0
  0
ARC
  5
1A6
  8
OUTLINE
  6
CONTINUOUS
 62
     3
 10
167.09999999999999
 20
-25.0
 30
0.0
 40
5.0
 50
270.0
 51
0.0
  0
LINE
  5
1A7
  8
OUTLINE
  6
CONTINUOUS
 62
     3
 10
172.09999999999999
 20
-20.5
 30
0.0
 11
172.09999999999999
 21
-25.0
 31
0.0
  0
LINE
  5
1A8
  8
OUTLINE
  6
CONTINUOUS
 62
     3
 10
175.0
 20
-0.6
 30
0.0
 11
174.09999999999991
 21
-0.6
 31
0.0
  0
ARC
  5
1A9
  8
OUTLINE
  6
CONTINUOUS
 62
     3
 10
174.09999999999991
 20
-2.6000000000000001
 30
0.0
 40
2.0
 50
90.0
 51
180.0
  0
LINE
  5
1AA
  8
OUTLINE
  6
CONTINUOUS
 62
     3
 10
140.4300429999999
 20
0.0
 30
0.0
 11
127.0
 21
0.0
 31
0.0
  0
LINE
  5
1AB
  8
OUTLINE
  6
CONTINUOUS
 62
     3
 10
174.09999999999991
 20
-0.6
 30
0.0
 11
175.0
 21
-0.6
 31
0.0
  0
LINE
  5
1AC
  8
OUTLINE
  6
CONTINUOUS
 62
     3
 10
175.0
 20
0.0
 30
0.0
 11
140.4300429999999
 21
0.0
 31
0.0
  0
LINE
  5
1AD
  8
OUTLINE
  6
CONTINUOUS
 62
     3
 10
175.0
 20
-0.6
 30
0.0
 11
175.0
 21
0.0
 31
0.0
  0
LINE
  5
1AE
  8
OUTLINE
  6
CONTINUOUS
 62
     3
 10
-172.09999999999999
 20
-25.0
 30
0.0
 11
-172.09999999999999
 21
-2.6000000000000001
 31
0.0
  0
ARC
  5
1AF
  8
OUTLINE
  6
CONTINUOUS
 62
     3
 10
-167.09999999999999
 20
-25.0
 30
0.0
 40
5.0
 50
180.0
 51
270.0
  0
LINE
  5
1B0
  8
OUTLINE
  6
CONTINUOUS
 62
     3
 10
-174.09999999999991
 20
-0.6
 30
0.0
 11
-175.0
 21
-0.6
 31
0.0
  0
ARC
  5
1B1
  8
OUTLINE
  6
CONTINUOUS
 62
     3
 10
-174.09999999999991
 20
-2.6000000000000001
 30
0.0
 40
2.0
 50
0.0
 51
90.0
  0
LINE
  5
1B2
  8
OUTLINE
  6
CONTINUOUS
 62
     3
 10
-127.0
 20
0.0
 30
0.0
 11
-140.4300429999999
 21
0.0
 31
0.0
  0
LINE
  5
1B3
  8
OUTLINE
  6
CONTINUOUS
 62
     3
 10
-174.09999999999991
 20
-0.6
 30
0.0
 11
-175.0
 21
-0.6
 31
0.0
  0
LINE
  5
1B4
  8
OUTLINE
  6
CONTINUOUS
 62
     3
 10
-140.4300429999999
 20
0.0
 30
0.0
 11
-175.0
 21
0.0
 31
0.0
  0
LINE
  5
1B5
  8
OUTLINE
  6
CONTINUOUS
 62
     3
 10
-175.0
 20
-0.6
 30
0.0
 11
-175.0
 21
0.0
 31
0.0
  0
LINE
  5
1B6
  8
OUTLINE
  6
CONTINUOUS
 62
     3
 10
-145.30000000000001
 20
0.0
 30
0.0
 11
-165.1999999999999
 21
0.0
 31
0.0
  0
LINE
  5
1B7
  8
SIZE
  6
CONTINUOUS
 62
    30
 10
-195.0
 20
0.0
 30
0.0
 11
-408.55883899999992
 21
0.0
 31
0.0
  0
LINE
  5
1B8
  8
SIZE
  6
CONTINUOUS
 62
    30
 10
-187.09999999999999
 20
-30.0
 30
0.0
 11
-408.55883899999992
 21
-30.0
 31
0.0
  0
LINE
  5
1B9
  8
SIZE
  6
CONTINUOUS
 62
    30
 10
-388.55883899999992
 20
12.0
 30
0.0
 11
-388.55883899999992
 21
24.0
 31
0.0
  0
LINE
  5
1BA
  8
SIZE
  6
CONTINUOUS
 62
    30
 10
-388.55883899999992
 20
-42.0
 30
0.0
 11
-388.55883899999992
 21
-54.0
 31
0.0
  0
LINE
  5
1BB
  8
SIZE
  6
CONTINUOUS
 62
    30
 10
-388.55883899999992
 20
-212.2690659999999
 30
0.0
 11
-388.55883899999992
 21
-30.0
 31
0.0
  0
TEXT
  5
1BC
  8
SIZE
  6
CONTINUOUS
 62
    30
 10
-413.55883899999992
 20
-187.26906642857131
 30
0.0
 40
64.0
  1
30
 50
90.0
 41
0.9
 72
     1
 11
-413.55883899999992
 21
-140.6404949999999
 31
0.0
  0
LINE
  5
1BD
  8
SIZE
  6
CONTINUOUS
 62
    30
 10
-388.55883899999992
 20
0.0
 30
0.0
 11
-388.55883899999992
 21
-30.0
 31
0.0
  0
LINE
  5
1BE
  8
SIZE
  6
CONTINUOUS
 62
    30
 10
-388.55883899999992
 20
0.0
 30
0.0
 11
-388.55883899999992
 21
-30.0
 31
0.0
  0
CIRCLE
  5
1BF
  8
SIZE
  6
CONTINUOUS
 62
    30
 10
-388.55883899999992
 20
0.0
 30
0.0
 40
6.0
  0
LINE
  5
1C0
  8
SIZE
  6
CONTINUOUS
 62
    30
 10
-388.55883899999992
 20
0.0
 30
0.0
 11
-388.55883899999992
 21
12.0
 31
0.0
  0
CIRCLE
  5
1C1
  8
SIZE
  6
CONTINUOUS
 62
    30
 10
-388.55883899999992
 20
-30.0
 30
0.0
 40
6.0
  0
LINE
  5
1C2
  8
SIZE
  6
CONTINUOUS
 62
    30
 10
-388.55883899999992
 20
-30.0
 30
0.0
 11
-388.55883899999992
 21
-42.0
 31
0.0
  0
POINT
  5
1C3
  8
DEFPOINTS
  6
CONTINUOUS
 62
    30
 10
-175.0
 20
0.0
 30
0.0
  0
POINT
  5
1C4
  8
DEFPOINTS
  6
CONTINUOUS
 62
    30
 10
-167.09999999999999
 20
-30.0
 30
0.0
  0
POINT
  5
1C5
  8
DEFPOINTS
  6
CONTINUOUS
 62
    30
 10
-388.55883899999992
 20
-30.0
 30
0.0
  0
LINE
  5
1C6
  8
SIZE
  6
CONTINUOUS
 62
    30
 10
-175.0
 20
20.0
 30
0.0
 11
-175.0
 21
471.59603700000002
 31
0.0
  0
LINE
  5
1C7
  8
SIZE
  6
CONTINUOUS
 62
    30
 10
175.0
 20
20.0
 30
0.0
 11
175.0
 21
471.59603700000002
 31
0.0
  0
LINE
  5
1C8
  8
SIZE
  6
CONTINUOUS
 62
    30
 10
-163.0
 20
451.59603700000002
 30
0.0
 11
163.0
 21
451.59603700000002
 31
0.0
  0
CIRCLE
  5
1C9
  8
SIZE
  6
CONTINUOUS
 62
    30
 10
-175.0
 20
451.59603700000002
 30
0.0
 40
6.0
  0
LINE
  5
1CA
  8
SIZE
  6
CONTINUOUS
 62
    30
 10
-175.0
 20
451.59603700000002
 30
0.0
 11
-163.0
 21
451.59603700000002
 31
0.0
  0
CIRCLE
  5
1CB
  8
SIZE
  6
CONTINUOUS
 62
    30
 10
175.0
 20
451.59603700000002
 30
0.0
 40
6.0
  0
LINE
  5
1CC
  8
SIZE
  6
CONTINUOUS
 62
    30
 10
175.0
 20
451.59603700000002
 30
0.0
 11
163.0
 21
451.59603700000002
 31
0.0
  0
TEXT
  5
1CD
  8
SIZE
  6
CONTINUOUS
 62
    30
 10
-74.05714285714285
 20
476.59603700000002
 30
0.0
 40
64.0
  1
350
 41
0.9
 72
     1
 11
0.0
 21
476.59603700000002
 31
0.0
  0
POINT
  5
1CE
  8
DEFPOINTS
  6
CONTINUOUS
 62
    30
 10
-175.0
 20
0.0
 30
0.0
  0
POINT
  5
1CF
  8
DEFPOINTS
  6
CONTINUOUS
 62
    30
 10
175.0
 20
0.0
 30
0.0
  0
POINT
  5
1D0
  8
DEFPOINTS
  6
CONTINUOUS
 62
    30
 10
175.0
 20
451.59603700000002
 30
0.0
  0
LINE
  5
1D1
  8
NOTE
  6
CONTINUOUS
 62
     4
 10
195.0
 20
0.0
 30
0.0
 11
155.0
 21
0.0
 31
0.0
  0
LINE
  5
1D2
  8
NOTE
  6
CONTINUOUS
 62
     4
 10
175.0
 20
-20.0
 30
0.0
 11
175.0
 21
20.0
 31
0.0
  0
LINE
  5
1D3
  8
NOTE
  6
CONTINUOUS
 62
     4
 39
50.0
 10
384.08594599999992
 20
124.5675679999998
 30
0.0
 11
262.86920900000001
 21
124.5675679999998
 31
0.0
  0
TEXT
  5
1D4
  8
NOTE
  6
CONTINUOUS
 62
     4
 10
281.60291699999982
 20
147.754366
 30
0.0
 40
64.0
  1
EL
 41
0.9
  0
LINE
  5
1D5
  8
NOTE
  6
CONTINUOUS
 62
     4
 39
50.0
 10
175.0
 20
0.0
 30
0.0
 11
262.86920900000001
 21
124.5675679999998
 31
0.0
  0
LINE
  5
1D6
  8
NOTE
  6
CONTINUOUS
 62
     4
 10
205.23173399999999
 20
26.192408
 30
0.0
 11
175.0
 21
0.0
 31
0.0
  0
LINE
  5
1D7
  8
NOTE
  6
CONTINUOUS
 62
     4
 10
175.0
 20
0.0
 30
0.0
 11
188.0852449999999
 21
37.799157999999991
 31
0.0
  0
CIRCLE
  5
1D8
  8
DETAIL
  6
CONTINUOUS
 62
     5
 10
0.0
 20
-20.0
 30
0.0
 40
6.0
  0
TEXT
  5
1D9
  8
ETC
  6
CONTINUOUS
 62
    61
 10
236.22239518289851
 20
655.83545476576137
 30
0.0
 40
64.0
  1
EX-625EM5_6
 41
0.9
  0
TEXT
  5
1DA
  8
ETC
  6
CONTINUOUS
 62
    61
 10
340.66515358253992
 20
342.84111776387022
 30
0.0
 40
50.0
  1
EX-625KHA5-E
 41
0.9
  0
TEXT
  5
1DB
  8
ETC
  6
CONTINUOUS
 62
    61
 10
228.1489171828986
 20
557.81672876576135
 30
0.0
 40
64.0
  1
換気扇
 41
0.9
  0
TEXT
  5
1DC
  8
ETC
  6
CONTINUOUS
 62
    61
 10
335.61880690258158
 20
446.3163232352415
 30
0.0
 40
50.0
  1
EX-625EM5
 41
0.9
  0
ENDSEC
  0
EOF
