  0
SECTION
  2
HEADER
  9
$ACADVER
  1
AC1009
  9
$INSBASE
 10
0.0
 20
0.0
 30
0.0
  9
$EXTMIN
 10
-208.0123730912037
 20
-279.41893341417739
 30
-0.0015257624927045
  9
$EXTMAX
 10
676.1535756128759
 20
504.36402159319732
 30
50.001525995323327
  9
$LIMMIN
 10
-2970.0
 20
-2100.0
  9
$LIMMAX
 10
2970.0
 20
2100.0
  9
$ORTHOMODE
 70
     1
  9
$REGENMODE
 70
     1
  9
$FILLMODE
 70
     1
  9
$QTEXTMODE
 70
     0
  9
$MIRRTEXT
 70
     0
  9
$DRAGMODE
 70
     2
  9
$LTSCALE
 40
20.0
  9
$OSMODE
 70
    55
  9
$ATTMODE
 70
     1
  9
$TEXTSIZE
 40
64.0
  9
$TRACEWID
 40
0.05
  9
$TEXTSTYLE
  7
STANDARD
  9
$CLAYER
  8
DETAIL
  9
$CELTYPE
  6
CONTINUOUS
  9
$CECOLOR
 62
     7
  9
$DIMSCALE
 40
1.0
  9
$DIMASZ
 40
12.0
  9
$DIMEXO
 40
20.0
  9
$DIMDLI
 40
200.0
  9
$DIMRND
 40
0.0
  9
$DIMDLE
 40
0.0
  9
$DIMEXE
 40
20.0
  9
$DIMTP
 40
0.0
  9
$DIMTM
 40
0.0
  9
$DIMTXT
 40
64.0
  9
$DIMCEN
 40
0.09
  9
$DIMTSZ
 40
0.0
  9
$DIMTOL
 70
     0
  9
$DIMLIM
 70
     0
  9
$DIMTIH
 70
     0
  9
$DIMTOH
 70
     0
  9
$DIMSE1
 70
     0
  9
$DIMSE2
 70
     0
  9
$DIMTAD
 70
     1
  9
$DIMZIN
 70
     8
  9
$DIMBLK
  1

  9
$DIMASO
 70
     1
  9
$DIMSHO
 70
     0
  9
$DIMPOST
  1

  9
$DIMAPOST
  1

  9
$DIMALT
 70
     0
  9
$DIMALTD
 70
     2
  9
$DIMALTF
 40
25.399999999999999
  9
$DIMLFAC
 40
1.0
  9
$DIMTOFL
 70
     1
  9
$DIMTVP
 40
0.0
  9
$DIMTIX
 70
     1
  9
$DIMSOXD
 70
     0
  9
$DIMSAH
 70
     0
  9
$DIMBLK1
  1

  9
$DIMBLK2
  1

  9
$DIMSTYLE
  2
STANDARD
  9
$DIMCLRD
 70
     7
  9
$DIMCLRE
 70
     7
  9
$DIMCLRT
 70
     7
  9
$DIMTFAC
 40
1.0
  9
$DIMGAP
 40
25.0
  9
$LUNITS
 70
     2
  9
$LUPREC
 70
     4
  9
$SKETCHINC
 40
0.1
  9
$FILLETRAD
 40
3.0
  9
$AUNITS
 70
     1
  9
$AUPREC
 70
     3
  9
$MENU
  1
ACAD
  9
$ELEVATION
 40
0.0
  9
$PELEVATION
 40
0.0
  9
$THICKNESS
 40
50.0
  9
$LIMCHECK
 70
     0
  9
$BLIPMODE
 70
     0
  9
$CHAMFERA
 40
0.0
  9
$CHAMFERB
 40
0.0
  9
$SKPOLY
 70
     0
  9
$TDCREATE
 40
2453019.6230103709
  9
$TDUPDATE
 40
2456422.5464742128
  9
$TDINDWG
 40
1.7270722917000001
  9
$TDUSRTIMER
 40
1.7270721065000001
  9
$USRTIMER
 70
     1
  9
$ANGBASE
 50
0.0
  9
$ANGDIR
 70
     0
  9
$PDMODE
 70
     3
  9
$PDSIZE
 40
-2.0
  9
$PLINEWID
 40
0.0
  9
$COORDS
 70
     1
  9
$SPLFRAME
 70
     0
  9
$SPLINETYPE
 70
     6
  9
$SPLINESEGS
 70
     8
  9
$ATTDIA
 70
     0
  9
$ATTREQ
 70
     1
  9
$HANDLING
 70
     1
  9
$HANDSEED
  5
284
  9
$SURFTAB1
 70
     6
  9
$SURFTAB2
 70
     6
  9
$SURFTYPE
 70
     6
  9
$SURFU
 70
     6
  9
$SURFV
 70
     6
  9
$UCSNAME
  2

  9
$UCSORG
 10
0.0
 20
0.0
 30
0.0
  9
$UCSXDIR
 10
1.0
 20
0.0
 30
0.0
  9
$UCSYDIR
 10
0.0
 20
1.0
 30
0.0
  9
$PUCSNAME
  2

  9
$PUCSORG
 10
0.0
 20
0.0
 30
0.0
  9
$PUCSXDIR
 10
1.0
 20
0.0
 30
0.0
  9
$PUCSYDIR
 10
0.0
 20
1.0
 30
0.0
  9
$USERI1
 70
     0
  9
$USERI2
 70
     0
  9
$USERI3
 70
     0
  9
$USERI4
 70
     0
  9
$USERI5
 70
     0
  9
$USERR1
 40
20.0
  9
$USERR2
 40
0.0
  9
$USERR3
 40
0.0
  9
$USERR4
 40
0.0
  9
$USERR5
 40
0.0
  9
$WORLDVIEW
 70
     1
  9
$SHADEDGE
 70
     3
  9
$SHADEDIF
 70
    70
  9
$TILEMODE
 70
     1
  9
$MAXACTVP
 70
    48
  9
$PLIMCHECK
 70
     0
  9
$PEXTMIN
 10
-1.0000000000000000E+020
 20
-1.0000000000000000E+020
 30
-1.0000000000000000E+020
  9
$PEXTMAX
 10
1.0000000000000000E+020
 20
1.0000000000000000E+020
 30
1.0000000000000000E+020
  9
$PLIMMIN
 10
0.0
 20
0.0
  9
$PLIMMAX
 10
12.0
 20
9.0
  9
$UNITMODE
 70
     0
  9
$VISRETAIN
 70
     0
  9
$PLINEGEN
 70
     0
  9
$PSLTSCALE
 70
     0
  0
ENDSEC
  0
SECTION
  2
TABLES
  0
TABLE
  2
VPORT
 70
     1
  0
VPORT
  2
*ACTIVE
 70
     0
 10
0.0
 20
0.0
 11
1.0
 21
1.0
 12
474.1094675852919
 22
76.112191482057369
 13
0.0
 23
0.0
 14
1.0
 24
1.0
 15
0.0
 25
0.0
 16
0.0
 26
0.0
 36
1.0
 17
0.0
 27
0.0
 37
0.0
 40
1085.524786319105
 41
1.6865079365079361
 42
50.0
 43
0.0
 44
0.0
 50
0.0
 51
0.0
 71
     0
 72
  1000
 73
     1
 74
     0
 75
     0
 76
     0
 77
     0
 78
     0
  0
ENDTAB
  0
TABLE
  2
LTYPE
 70
     3
  0
LTYPE
  2
CONTINUOUS
 70
     0
  3
実線
 72
    65
 73
     0
 40
0.0
  0
LTYPE
  2
DASHDOT
 70
     0
  3
____ _ ____ _ ____ _ ____ _ ____ _ ____ _ ____
 72
    65
 73
     4
 40
5.5
 49
4.0
 49
-0.6
 49
0.3
 49
-0.6
  0
ENDTAB
  0
TABLE
  2
LAYER
 70
    12
  0
LAYER
  2
0
 70
     0
 62
     7
  6
CONTINUOUS
  0
LAYER
  2
DETAIL
 70
     0
 62
     5
  6
CONTINUOUS
  0
LAYER
  2
BASIS
 70
     0
 62
     6
  6
DASHDOT
  0
LAYER
  2
OUTLINE
 70
     0
 62
     3
  6
CONTINUOUS
  0
LAYER
  2
SIZE
 70
     0
 62
    30
  6
CONTINUOUS
  0
LAYER
  2
ARRANGE
 70
     0
 62
     1
  6
CONTINUOUS
  0
LAYER
  2
DEFPOINTS
 70
     0
 62
     7
  6
CONTINUOUS
  0
LAYER
  2
ETC
 70
     0
 62
    61
  6
CONTINUOUS
  0
LAYER
  2
FIX
 70
     0
 62
    11
  6
CONTINUOUS
  0
LAYER
  2
NOTE
 70
     0
 62
     4
  6
CONTINUOUS
  0
LAYER
  2
SERVICESPACE
 70
     0
 62
     2
  6
DASHDOT
  0
LAYER
  2
SYMBOLLINE
 70
     0
 62
    15
  6
CONTINUOUS
  0
ENDTAB
  0
TABLE
  2
STYLE
 70
     3
  0
STYLE
  2
STANDARD
 70
     0
 40
64.0
 41
0.9
 50
0.0
 71
     0
 42
64.0
  3
SIMPLEX.shx
  4
BIGFONT.shx
  0
STYLE
  2
ANNOTATIVE
 70
     0
 40
0.0
 41
1.0
 50
0.0
 71
     0
 42
0.2
  3
txt
  4

  0
ENDTAB
  0
TABLE
  2
VIEW
 70
     1
  0
VIEW
  2
ALL
 70
     0
 40
4282.6198079999976
 10
0.0
 20
41.309904000000003
 41
5940.0
 11
0.0
 21
0.0
 31
1.0
 12
0.0
 22
0.0
 32
0.0
 42
50.0
 43
0.0
 44
0.0
 50
0.0
 71
     0
  0
ENDTAB
  0
TABLE
  2
UCS
 70
     0
  0
ENDTAB
  0
TABLE
  2
APPID
 70
    18
  0
APPID
  2
ACAD
 70
     0
  0
APPID
  2
ACADANNOTATIVE
 70
     0
  0
APPID
  2
AUTOCAD_POSTSCRIPT_FIGURE
 70
     0
  0
APPID
  2
ACAD_EXEMPT_FROM_CAD_STANDARDS
 70
     0
  0
APPID
  2
ACAD_PSEXT
 70
     0
  0
APPID
  2
ACAUTHENVIRON
 70
     0
  0
APPID
  2
GENIUS_GENOENT_13
 70
     0
  0
APPID
  2
GENIUS_GENCFG_13
 70
     0
  0
APPID
  2
GENIUS_GENCFG0_13
 70
     0
  0
APPID
  2
GENIUS_GENCFG1_13
 70
     0
  0
APPID
  2
GENIUS_GENCFG2_13
 70
     0
  0
APPID
  2
GENIUS_GENCFG3_13
 70
     0
  0
APPID
  2
GENIUS_GENCFG4_13
 70
     0
  0
APPID
  2
GENIUS_GEVCFG0_13
 70
     0
  0
APPID
  2
CONTENTBLOCKICON
 70
     0
  0
APPID
  2
CONTENTBLOCKDESCRIPTION
 70
     0
  0
APPID
  2
ACAD_NAV_VCDISPLAY
 70
     0
  0
APPID
  2
ACAD_MLEADERVER
 70
     0
  0
ENDTAB
  0
TABLE
  2
DIMSTYLE
 70
     3
  0
DIMSTYLE
  2
STANDARD
 70
     0
  3

  4

  5

  6

  7

 40
1.0
 41
12.0
 42
20.0
 43
200.0
 44
20.0
 45
0.0
 46
0.0
 47
0.0
 48
0.0
140
64.0
141
0.09
142
0.0
143
25.399999999999999
144
1.0
145
0.0
146
1.0
147
25.0
 71
     0
 72
     0
 73
     0
 74
     0
 75
     0
 76
     0
 77
     1
 78
     8
170
     0
171
     2
172
     1
173
     0
174
     1
175
     0
176
     7
177
     7
178
     7
  0
DIMSTYLE
  2
ANNOTATIVE
 70
     0
  3

  4

  5

  6

  7

 40
1.0
 41
0.18
 42
0.0625
 43
0.38
 44
0.18
 45
0.0
 46
0.0
 47
0.0
 48
0.0
140
0.18
141
0.09
142
0.0
143
25.399999999999999
144
1.0
145
0.0
146
1.0
147
0.09
 71
     0
 72
     0
 73
     1
 74
     1
 75
     0
 76
     0
 77
     0
 78
     0
170
     0
171
     2
172
     0
173
     0
174
     0
175
     0
176
     0
177
     0
178
     0
  0
ENDTAB
  0
ENDSEC
  0
SECTION
  2
BLOCKS
  0
BLOCK
  8
0
  2
$MODEL_SPACE
 70
     0
 10
0.0
 20
0.0
 30
0.0
  3
$MODEL_SPACE
  1

  0
ENDBLK
  5
6D
  8
0
  0
BLOCK
 67
     1
  8
0
  2
$PAPER_SPACE
 70
     0
 10
0.0
 20
0.0
 30
0.0
  3
$PAPER_SPACE
  1

  0
ENDBLK
  5
69
 67
     1
  8
0
  0
BLOCK
  8
0
  2
_ORIGIN
 70
     0
 10
0.0
 20
0.0
 30
0.0
  3
_ORIGIN
  1

  0
CIRCLE
  5
90
  8
0
  6
CONTINUOUS
 62
     7
 10
0.0
 20
0.0
 30
0.0
 40
0.5
  0
LINE
  5
91
  8
0
  6
CONTINUOUS
 62
     7
 10
0.0
 20
0.0
 30
0.0
 11
-1.0
 21
0.0
 31
0.0
  0
ENDBLK
  5
92
  8
0
  0
ENDSEC
  0
SECTION
  2
ENTITIES
  0
TEXT
  5
93
  8
ETC
  6
CONTINUOUS
 62
    61
 10
110.6736547461323
 20
440.06112246138559
 30
0.0
 40
64.0
  1
FS-05SW2_3
 41
0.9
  0
TEXT
  5
94
  8
ETC
  6
CONTINUOUS
 62
    61
 10
106.48766074613199
 20
322.1058124465543
 30
0.0
 40
64.0
  1
システム部材
 41
0.9
  0
TEXT
  5
95
  8
ETC
  6
CONTINUOUS
 62
    61
 10
263.36085971030252
 20
213.95703956032909
 30
0.0
 40
40.0
  1
FS-05SW2
 41
0.9
  0
TEXT
  5
96
  8
ETC
  6
CONTINUOUS
 62
    61
 10
263.36085971030252
 20
147.95703956032909
 30
0.0
 40
40.0
  1
FS-08SW2
 41
0.9
  0
CIRCLE
  5
97
  8
ARRANGE
  6
CONTINUOUS
 62
     1
 10
-0.0000000000001137
 20
0.0
 30
0.0
 40
20.0
  0
LINE
  5
98
  8
SIZE
  6
CONTINUOUS
 62
    30
 10
-35.000000000000028
 20
74.0
 30
0.0
 11
-35.000000000000028
 21
141.56948698074021
 31
0.0
  0
LINE
  5
99
  8
SIZE
  6
CONTINUOUS
 62
    30
 10
35.0
 20
74.0
 30
0.0
 11
35.0
 21
141.56948698074021
 31
0.0
  0
LINE
  5
9A
  8
SIZE
  6
CONTINUOUS
 62
    30
 10
-47.000000000000007
 20
121.56948698074019
 30
0.0
 11
-59.000000000000021
 21
121.56948698074019
 31
0.0
  0
LINE
  5
9B
  8
SIZE
  6
CONTINUOUS
 62
    30
 10
47.0
 20
121.56948698074019
 30
0.0
 11
59.0
 21
121.56948698074019
 31
0.0
  0
LINE
  5
9C
  8
SIZE
  6
CONTINUOUS
 62
    30
 10
-35.000000000000028
 20
121.56948698074019
 30
0.0
 11
35.0
 21
121.56948698074019
 31
0.0
  0
CIRCLE
  5
9D
  8
SIZE
  6
CONTINUOUS
 62
    30
 10
-35.000000000000028
 20
121.56948698074019
 30
0.0
 40
6.0
  0
LINE
  5
9E
  8
SIZE
  6
CONTINUOUS
 62
    30
 10
-35.000000000000028
 20
121.56948698074019
 30
0.0
 11
-47.000000000000007
 21
121.56948698074019
 31
0.0
  0
CIRCLE
  5
9F
  8
SIZE
  6
CONTINUOUS
 62
    30
 10
35.0
 20
121.56948698074019
 30
0.0
 40
6.0
  0
LINE
  5
A0
  8
SIZE
  6
CONTINUOUS
 62
    30
 10
35.0
 20
121.56948698074019
 30
0.0
 11
47.0
 21
121.56948698074019
 31
0.0
  0
TEXT
  5
A1
  8
SIZE
  6
CONTINUOUS
 62
    30
 10
-46.628571428571419
 20
146.56948698074021
 30
0.0
 40
64.0
  1
70
 41
0.9
 72
     1
 11
0.0
 21
146.56948698074021
 31
0.0
  0
POINT
  5
A2
  8
DEFPOINTS
  6
CONTINUOUS
 62
    30
 10
-35.000000000000028
 20
54.0
 30
0.0
  0
POINT
  5
A3
  8
DEFPOINTS
  6
CONTINUOUS
 62
    30
 10
35.0
 20
54.0
 30
0.0
  0
POINT
  5
A4
  8
DEFPOINTS
  6
CONTINUOUS
 62
    30
 10
35.0
 20
121.56948698074019
 30
0.0
  0
LINE
  5
A5
  8
SIZE
  6
CONTINUOUS
 62
    30
 10
-48.999999999999972
 20
60.0
 30
0.0
 11
-138.99381824355811
 21
60.000000000000021
 31
0.0
  0
LINE
  5
A6
  8
SIZE
  6
CONTINUOUS
 62
    30
 10
-48.999999999999972
 20
-60.0
 30
0.0
 11
-138.99381824355811
 21
-59.999999999999972
 31
0.0
  0
LINE
  5
A7
  8
SIZE
  6
CONTINUOUS
 62
    30
 10
-118.993818243558
 20
48.000000000000021
 30
0.0
 11
-118.9938182435581
 21
-47.999999999999972
 31
0.0
  0
CIRCLE
  5
A8
  8
SIZE
  6
CONTINUOUS
 62
    30
 10
-118.993818243558
 20
60.000000000000021
 30
0.0
 40
6.0
  0
LINE
  5
A9
  8
SIZE
  6
CONTINUOUS
 62
    30
 10
-118.993818243558
 20
60.000000000000021
 30
0.0
 11
-118.993818243558
 21
48.000000000000021
 31
0.0
  0
CIRCLE
  5
AA
  8
SIZE
  6
CONTINUOUS
 62
    30
 10
-118.9938182435581
 20
-59.999999999999972
 30
0.0
 40
6.0
  0
LINE
  5
AB
  8
SIZE
  6
CONTINUOUS
 62
    30
 10
-118.9938182435581
 20
-59.999999999999972
 30
0.0
 11
-118.9938182435581
 21
-47.999999999999972
 31
0.0
  0
TEXT
  5
AC
  8
SIZE
  6
CONTINUOUS
 62
    30
 10
-143.99381824355811
 20
-68.571428571428569
 30
0.0
 40
64.0
  1
120
 50
90.0
 41
0.9
 72
     1
 11
-143.99381824355811
 21
0.0
 31
0.0
  0
POINT
  5
AD
  8
DEFPOINTS
  6
CONTINUOUS
 62
    30
 10
-28.999999999999972
 20
60.0
 30
0.0
  0
POINT
  5
AE
  8
DEFPOINTS
  6
CONTINUOUS
 62
    30
 10
-28.999999999999972
 20
-60.0
 30
0.0
  0
POINT
  5
AF
  8
DEFPOINTS
  6
CONTINUOUS
 62
    30
 10
-118.9938182435581
 20
-59.999999999999972
 30
0.0
  0
LINE
  5
B0
  8
NOTE
  6
CONTINUOUS
 62
     4
 10
-8.3566203501870842
 20
-41.749999999999993
 30
0.0
 11
8.3566203501870842
 21
-41.749999999999993
 31
0.0
  0
LINE
  5
B1
  8
NOTE
  6
CONTINUOUS
 62
     4
 10
-8.3566203501870842
 20
41.749999999999993
 30
0.0
 11
8.3566203501870842
 21
41.749999999999993
 31
0.0
  0
LINE
  5
B2
  8
BASIS
  6
DASHDOT
 62
     6
 10
-46.929594686481877
 20
0.0
 30
0.0
 11
46.929594686481877
 21
0.0
 31
0.0
  0
ARC
  5
B3
  8
DETAIL
  6
CONTINUOUS
 62
     5
 10
-29.0
 20
54.000000000000057
 30
0.0
 40
6.0
 50
90.0
 51
180.0
  0
LINE
  5
B4
  8
DETAIL
  6
CONTINUOUS
 62
     5
 10
-29.0
 20
60.000000000000071
 30
0.0
 11
29.0
 21
60.000000000000071
 31
0.0
  0
LINE
  5
B5
  8
DETAIL
  6
CONTINUOUS
 62
     5
 10
-35.0
 20
-53.999999999999908
 30
0.0
 11
-35.0
 21
54.000000000000057
 31
0.0
  0
ARC
  5
B6
  8
DETAIL
  6
CONTINUOUS
 62
     5
 10
29.0
 20
54.000000000000057
 30
0.0
 40
6.0
 50
0.0
 51
90.0
  0
LINE
  5
B7
  8
DETAIL
  6
CONTINUOUS
 62
     5
 10
35.0
 20
54.000000000000057
 30
0.0
 11
35.0
 21
-53.999999999999943
 31
0.0
  0
ARC
  5
B8
  8
DETAIL
  6
CONTINUOUS
 62
     5
 10
29.0
 20
-53.999999999999943
 30
0.0
 40
6.0
 50
270.0
 51
0.0
  0
LINE
  5
B9
  8
DETAIL
  6
CONTINUOUS
 62
     5
 10
29.0
 20
-59.999999999999929
 30
0.0
 11
-29.0
 21
-59.999999999999908
 31
0.0
  0
ARC
  5
BA
  8
DETAIL
  6
CONTINUOUS
 62
     5
 10
-29.0
 20
-53.999999999999908
 30
0.0
 40
6.0
 50
180.0
 51
270.0
  0
LINE
  5
BB
  8
DETAIL
  6
CONTINUOUS
 62
     5
 10
21.799999999999901
 20
12.00000000000003
 30
0.0
 11
21.799999999999901
 21
33.999999999999972
 31
0.0
  0
LINE
  5
BC
  8
DETAIL
  6
CONTINUOUS
 62
     5
 10
-21.800000000000122
 20
12.00000000000003
 30
0.0
 11
-17.900000000000141
 21
12.00000000000003
 31
0.0
  0
LINE
  5
BD
  8
DETAIL
  6
CONTINUOUS
 62
     5
 10
-17.900000000000141
 20
11.0
 30
0.0
 11
-17.900000000000141
 21
12.00000000000003
 31
0.0
  0
ARC
  5
BE
  8
DETAIL
  6
CONTINUOUS
 62
     5
 10
-21.000000000000082
 20
33.199999999999989
 30
0.0
 40
1.999999999999956
 50
90.0
 51
180.0
  0
LINE
  5
BF
  8
DETAIL
  6
CONTINUOUS
 62
     5
 10
-17.900000000000141
 20
33.999999999999972
 30
0.0
 11
-17.900000000000141
 21
34.999999999999957
 31
0.0
  0
LINE
  5
C0
  8
DETAIL
  6
CONTINUOUS
 62
     5
 10
22.999999999999929
 20
-53.000000000000057
 30
0.0
 11
22.999999999999929
 21
52.999999999999972
 31
0.0
  0
LINE
  5
C1
  8
DETAIL
  6
CONTINUOUS
 62
     5
 10
-21.800000000000122
 20
33.999999999999972
 30
0.0
 11
-17.900000000000141
 21
33.999999999999972
 31
0.0
  0
LINE
  5
C2
  8
DETAIL
  6
CONTINUOUS
 62
     5
 10
17.999999999999918
 20
46.499999999999972
 30
0.0
 11
20.999999999999918
 21
46.499999999999972
 31
0.0
  0
LINE
  5
C3
  8
DETAIL
  6
CONTINUOUS
 62
     5
 10
17.999999999999918
 20
45.0
 30
0.0
 11
17.999999999999918
 21
46.499999999999972
 31
0.0
  0
LINE
  5
C4
  8
DETAIL
  6
CONTINUOUS
 62
     5
 10
17.999999999999918
 20
45.0
 30
0.0
 11
20.999999999999918
 21
45.0
 31
0.0
  0
ARC
  5
C5
  8
DETAIL
  6
CONTINUOUS
 62
     5
 10
20.999999999999918
 20
48.499999999999943
 30
0.0
 40
1.9999999999999709
 50
270.0
 51
0.0
  0
ARC
  5
C6
  8
DETAIL
  6
CONTINUOUS
 62
     5
 10
20.999999999999918
 20
42.999999999999972
 30
0.0
 40
2.0
 50
0.0
 51
90.0
  0
LINE
  5
C7
  8
DETAIL
  6
CONTINUOUS
 62
     5
 10
-21.000000000000082
 20
35.19999999999996
 30
0.0
 11
20.999999999999918
 21
35.19999999999996
 31
0.0
  0
ARC
  5
C8
  8
DETAIL
  6
CONTINUOUS
 62
     5
 10
4.0
 20
41.749999999999957
 30
0.0
 40
2.5
 50
270.0
 51
90.0
  0
ARC
  5
C9
  8
DETAIL
  6
CONTINUOUS
 62
     5
 10
20.999999999999918
 20
33.199999999999989
 30
0.0
 40
2.0
 50
0.0
 51
90.0
  0
LINE
  5
CA
  8
DETAIL
  6
CONTINUOUS
 62
     5
 10
-4.0000000000001128
 20
39.249999999999972
 30
0.0
 11
4.0
 21
39.249999999999972
 31
0.0
  0
LINE
  5
CB
  8
DETAIL
  6
CONTINUOUS
 62
     5
 10
-4.0000000000001128
 20
44.249999999999972
 30
0.0
 11
4.0
 21
44.249999999999972
 31
0.0
  0
ARC
  5
CC
  8
DETAIL
  6
CONTINUOUS
 62
     5
 10
-4.0000000000001128
 20
41.749999999999957
 30
0.0
 40
2.4999999999999849
 50
90.0
 51
270.0
  0
LINE
  5
CD
  8
DETAIL
  6
CONTINUOUS
 62
     5
 10
-21.000000000000082
 20
55.0
 30
0.0
 11
20.999999999999918
 21
55.0
 31
0.0
  0
ARC
  5
CE
  8
DETAIL
  6
CONTINUOUS
 62
     5
 10
-21.000000000000082
 20
52.999999999999972
 30
0.0
 40
2.0000000000000431
 50
90.0
 51
180.0
  0
LINE
  5
CF
  8
DETAIL
  6
CONTINUOUS
 62
     5
 10
-21.000000000000082
 20
46.499999999999972
 30
0.0
 11
-17.000000000000071
 21
46.499999999999972
 31
0.0
  0
LINE
  5
D0
  8
DETAIL
  6
CONTINUOUS
 62
     5
 10
-17.000000000000071
 20
45.0
 30
0.0
 11
-17.000000000000071
 21
46.499999999999972
 31
0.0
  0
ARC
  5
D1
  8
DETAIL
  6
CONTINUOUS
 62
     5
 10
-21.000000000000082
 20
48.499999999999943
 30
0.0
 40
2.0
 50
179.99999999999659
 51
270.0
  0
ARC
  5
D2
  8
DETAIL
  6
CONTINUOUS
 62
     5
 10
-21.000000000000082
 20
42.999999999999972
 30
0.0
 40
2.0000000000000271
 50
90.0
 51
180.0
  0
LINE
  5
D3
  8
DETAIL
  6
CONTINUOUS
 62
     5
 10
-21.000000000000082
 20
45.0
 30
0.0
 11
-17.000000000000071
 21
45.0
 31
0.0
  0
ARC
  5
D4
  8
DETAIL
  6
CONTINUOUS
 62
     5
 10
20.999999999999918
 20
52.999999999999972
 30
0.0
 40
2.0
 50
0.0
 51
90.0
  0
LINE
  5
D5
  8
DETAIL
  6
CONTINUOUS
 62
     5
 10
-23.000000000000071
 20
-53.000000000000057
 30
0.0
 11
-23.000000000000071
 21
52.999999999999972
 31
0.0
  0
LINE
  5
D6
  8
DETAIL
  6
CONTINUOUS
 62
     5
 10
-21.800000000000122
 20
-10.19999999999996
 30
0.0
 11
-21.800000000000122
 21
11.0
 31
0.0
  0
LINE
  5
D7
  8
DETAIL
  6
CONTINUOUS
 62
     5
 10
-21.800000000000122
 20
12.00000000000003
 30
0.0
 11
-21.800000000000122
 21
33.999999999999972
 31
0.0
  0
LINE
  5
D8
  8
DETAIL
  6
CONTINUOUS
 62
     5
 10
-21.800000000000122
 20
11.0
 30
0.0
 11
-17.900000000000141
 21
11.0
 31
0.0
  0
LINE
  5
D9
  8
DETAIL
  6
CONTINUOUS
 62
     5
 10
21.799999999999901
 20
-10.19999999999996
 30
0.0
 11
21.799999999999901
 21
11.0
 31
0.0
  0
ARC
  5
DA
  8
DETAIL
  6
CONTINUOUS
 62
     5
 10
20.99999999999995
 20
-10.19999999999996
 30
0.0
 40
0.8000000000000541
 50
270.0
 51
0.0
  0
ARC
  5
DB
  8
DETAIL
  6
CONTINUOUS
 62
     5
 10
20.999999999999918
 20
-48.500000000000021
 30
0.0
 40
2.0
 50
0.0
 51
90.0
  0
LINE
  5
DC
  8
DETAIL
  6
CONTINUOUS
 62
     5
 10
17.999999999999918
 20
-45.0
 30
0.0
 11
20.999999999999918
 21
-45.0
 31
0.0
  0
LINE
  5
DD
  8
DETAIL
  6
CONTINUOUS
 62
     5
 10
17.999999999999918
 20
-46.500000000000057
 30
0.0
 11
20.999999999999918
 21
-46.500000000000057
 31
0.0
  0
ARC
  5
DE
  8
DETAIL
  6
CONTINUOUS
 62
     5
 10
20.999999999999918
 20
-43.000000000000057
 30
0.0
 40
1.999999999999956
 50
270.0
 51
0.0
  0
LINE
  5
DF
  8
DETAIL
  6
CONTINUOUS
 62
     5
 10
17.999999999999918
 20
-46.500000000000057
 30
0.0
 11
17.999999999999918
 21
-45.0
 31
0.0
  0
LINE
  5
E0
  8
DETAIL
  6
CONTINUOUS
 62
     5
 10
-21.000000000000082
 20
-55.0
 30
0.0
 11
20.999999999999918
 21
-55.0
 31
0.0
  0
ARC
  5
E1
  8
DETAIL
  6
CONTINUOUS
 62
     5
 10
20.999999999999918
 20
-53.000000000000057
 30
0.0
 40
1.999999999999956
 50
270.0
 51
0.0
  0
ARC
  5
E2
  8
DETAIL
  6
CONTINUOUS
 62
     5
 10
-21.000000000000082
 20
-53.000000000000057
 30
0.0
 40
2.0
 50
180.0
 51
270.0
  0
ARC
  5
E3
  8
DETAIL
  6
CONTINUOUS
 62
     5
 10
-21.000000000000082
 20
-48.500000000000021
 30
0.0
 40
1.999999999999956
 50
90.0
 51
180.0
  0
ARC
  5
E4
  8
DETAIL
  6
CONTINUOUS
 62
     5
 10
-21.000000000000082
 20
-43.000000000000057
 30
0.0
 40
2.0
 50
180.0
 51
270.0
  0
LINE
  5
E5
  8
DETAIL
  6
CONTINUOUS
 62
     5
 10
-21.000000000000082
 20
-45.0
 30
0.0
 11
-17.000000000000071
 21
-45.0
 31
0.0
  0
LINE
  5
E6
  8
DETAIL
  6
CONTINUOUS
 62
     5
 10
-21.000000000000082
 20
-46.500000000000057
 30
0.0
 11
-17.000000000000071
 21
-46.500000000000057
 31
0.0
  0
LINE
  5
E7
  8
DETAIL
  6
CONTINUOUS
 62
     5
 10
-17.000000000000071
 20
-46.500000000000057
 30
0.0
 11
-17.000000000000071
 21
-45.0
 31
0.0
  0
LINE
  5
E8
  8
DETAIL
  6
CONTINUOUS
 62
     5
 10
-4.0000000000001128
 20
-44.250000000000021
 30
0.0
 11
4.0
 21
-44.250000000000021
 31
0.0
  0
ARC
  5
E9
  8
DETAIL
  6
CONTINUOUS
 62
     5
 10
4.0
 20
-41.750000000000021
 30
0.0
 40
2.5
 50
270.0
 51
90.0
  0
ARC
  5
EA
  8
DETAIL
  6
CONTINUOUS
 62
     5
 10
-4.0000000000001128
 20
-41.750000000000021
 30
0.0
 40
2.4999999999999849
 50
90.0
 51
270.0
  0
LINE
  5
EB
  8
DETAIL
  6
CONTINUOUS
 62
     5
 10
-4.0000000000001128
 20
-39.250000000000021
 30
0.0
 11
4.0
 21
-39.250000000000021
 31
0.0
  0
LINE
  5
EC
  8
DETAIL
  6
CONTINUOUS
 62
     5
 10
-17.900000000000141
 20
-11.49999999999997
 30
0.0
 11
18.89999999999992
 21
-11.49999999999997
 31
0.0
  0
LINE
  5
ED
  8
DETAIL
  6
CONTINUOUS
 62
     5
 10
18.89999999999992
 20
-11.00000000000003
 30
0.0
 11
20.99999999999995
 21
-11.00000000000003
 31
0.0
  0
LINE
  5
EE
  8
DETAIL
  6
CONTINUOUS
 62
     5
 10
18.89999999999992
 20
-11.00000000000003
 30
0.0
 11
18.89999999999992
 21
-11.49999999999997
 31
0.0
  0
LINE
  5
EF
  8
DETAIL
  6
CONTINUOUS
 62
     5
 10
-21.00000000000005
 20
-11.00000000000003
 30
0.0
 11
-17.900000000000141
 21
-11.00000000000003
 31
0.0
  0
LINE
  5
F0
  8
DETAIL
  6
CONTINUOUS
 62
     5
 10
-17.900000000000141
 20
-11.00000000000003
 30
0.0
 11
-17.900000000000141
 21
-11.49999999999997
 31
0.0
  0
ARC
  5
F1
  8
DETAIL
  6
CONTINUOUS
 62
     5
 10
-21.00000000000005
 20
-10.19999999999996
 30
0.0
 40
0.800000000000068
 50
180.0
 51
270.0
  0
LINE
  5
F2
  8
DETAIL
  6
CONTINUOUS
 62
     5
 10
-19.650000000000141
 20
-11.00000000000003
 30
0.0
 11
-18.150000000000141
 21
-11.00000000000003
 31
0.0
  0
LINE
  5
F3
  8
DETAIL
  6
CONTINUOUS
 62
     5
 10
18.89999999999992
 20
11.0
 30
0.0
 11
18.89999999999981
 21
12.00000000000003
 31
0.0
  0
LINE
  5
F4
  8
DETAIL
  6
CONTINUOUS
 62
     5
 10
18.89999999999992
 20
12.00000000000003
 30
0.0
 11
21.799999999999901
 21
12.00000000000003
 31
0.0
  0
LINE
  5
F5
  8
DETAIL
  6
CONTINUOUS
 62
     5
 10
18.89999999999992
 20
11.0
 30
0.0
 11
21.799999999999901
 21
11.0
 31
0.0
  0
LINE
  5
F6
  8
DETAIL
  6
CONTINUOUS
 62
     5
 10
18.89999999999992
 20
33.999999999999972
 30
0.0
 11
21.799999999999901
 21
33.999999999999972
 31
0.0
  0
LINE
  5
F7
  8
DETAIL
  6
CONTINUOUS
 62
     5
 10
18.89999999999992
 20
33.999999999999972
 30
0.0
 11
18.89999999999992
 21
34.999999999999957
 31
0.0
  0
ARC
  5
F8
  8
DETAIL
  6
CONTINUOUS
 62
     5
 10
-4.0
 20
-41.557941000000021
 30
0.0
 40
2.499999999999976
 50
182.20137559255701
 51
264.50215000000009
  0
ARC
  5
F9
  8
DETAIL
  6
CONTINUOUS
 62
     5
 10
4.0
 20
-41.557941000000021
 30
0.0
 40
2.4999999999999432
 50
275.4978480000006
 51
357.79862440740709
  0
ARC
  5
FA
  8
DETAIL
  6
CONTINUOUS
 62
     5
 10
4.0
 20
41.557941999999969
 30
0.0
 40
2.5000000000000102
 50
2.201364124974535
 51
84.502151999999356
  0
ARC
  5
FB
  8
DETAIL
  6
CONTINUOUS
 62
     5
 10
-4.0
 20
41.557941999999969
 30
0.0
 40
2.5000000000000351
 50
95.497849999999943
 51
177.7986358750581
  0
ARC
  5
FC
  8
DETAIL
  6
CONTINUOUS
 62
     5
 10
0.0
 20
0.0
 30
0.0
 40
39.499999999999979
 50
84.502151999999356
 51
95.497849999999943
  0
ARC
  5
FD
  8
DETAIL
  6
CONTINUOUS
 62
     5
 10
-4.0
 20
41.557941999999969
 30
0.0
 40
2.2500000000000031
 50
95.49784999999666
 51
275.4978480000006
  0
ARC
  5
FE
  8
DETAIL
  6
CONTINUOUS
 62
     5
 10
0.0
 20
0.0
 30
0.0
 40
43.999999999999972
 50
84.502151999999356
 51
95.497849999999943
  0
ARC
  5
FF
  8
DETAIL
  6
CONTINUOUS
 62
     5
 10
4.0
 20
41.557941999999969
 30
0.0
 40
2.2500000000000031
 50
264.50215000000333
 51
84.502151999999356
  0
ARC
  5
100
  8
DETAIL
  6
CONTINUOUS
 62
     5
 10
0.0
 20
0.0
 30
0.0
 40
44.249999999999972
 50
84.502151999999356
 51
95.497849999999943
  0
ARC
  5
101
  8
DETAIL
  6
CONTINUOUS
 62
     5
 10
0.0
 20
0.0
 30
0.0
 40
44.249999999999979
 50
264.50215000000009
 51
275.4978480000006
  0
ARC
  5
102
  8
DETAIL
  6
CONTINUOUS
 62
     5
 10
0.0
 20
0.0
 30
0.0
 40
39.499999999999993
 50
264.50215000000009
 51
275.4978480000006
  0
ARC
  5
103
  8
DETAIL
  6
CONTINUOUS
 62
     5
 10
-4.0
 20
-41.557941000000021
 30
0.0
 40
2.2500000000000671
 50
84.502151999999356
 51
264.50215000000333
  0
ARC
  5
104
  8
DETAIL
  6
CONTINUOUS
 62
     5
 10
0.0
 20
0.0
 30
0.0
 40
44.000000000000007
 50
264.50215000000009
 51
275.4978480000006
  0
ARC
  5
105
  8
DETAIL
  6
CONTINUOUS
 62
     5
 10
4.0
 20
-41.557941000000021
 30
0.0
 40
2.249999999999952
 50
275.4978480000006
 51
95.49784999999666
  0
LINE
  5
106
  8
DETAIL
  6
CONTINUOUS
 62
     5
 10
-15.7016068581298
 20
34.64999999999992
 30
0.0
 11
-15.701606858129781
 21
27.25000000000006
 31
0.0
  0
LINE
  5
107
  8
DETAIL
  6
CONTINUOUS
 62
     5
 10
-15.701606858129781
 20
27.25000000000006
 30
0.0
 11
-16.901606858129821
 21
26.75000000000006
 31
0.0
  0
LINE
  5
108
  8
DETAIL
  6
CONTINUOUS
 62
     5
 10
-16.901606858129821
 20
26.75000000000006
 30
0.0
 11
-16.901606858129821
 21
19.25000000000006
 31
0.0
  0
LINE
  5
109
  8
DETAIL
  6
CONTINUOUS
 62
     5
 10
-16.901606858129821
 20
19.25000000000006
 30
0.0
 11
-15.701606858129781
 21
18.75000000000006
 31
0.0
  0
LINE
  5
10A
  8
DETAIL
  6
CONTINUOUS
 62
     5
 10
-15.701606858129781
 20
18.75000000000006
 30
0.0
 11
-15.701606858129781
 21
11.349999999999961
 31
0.0
  0
LINE
  5
10B
  8
DETAIL
  6
CONTINUOUS
 62
     5
 10
20.800000000000011
 20
12.00000000000003
 30
0.0
 11
20.800000000000011
 21
33.999999999999972
 31
0.0
  0
ARC
  5
10C
  8
DETAIL
  6
CONTINUOUS
 62
     5
 10
20.74999999999995
 20
-10.5
 30
0.0
 40
0.850000000000001
 50
340.92563714868533
 51
0.0
  0
LINE
  5
10D
  8
DETAIL
  6
CONTINUOUS
 62
     5
 10
18.467045249938849
 20
-11.350000000000019
 30
0.0
 11
18.899999999999871
 21
-11.350000000000019
 31
0.0
  0
ARC
  5
10E
  8
DETAIL
  6
CONTINUOUS
 62
     5
 10
21.599999999999849
 20
-5.5
 30
0.0
 40
0.5000000000000071
 50
66.421821521792836
 51
90.0
  0
ARC
  5
10F
  8
DETAIL
  6
CONTINUOUS
 62
     5
 10
21.599999999999849
 20
5.5
 30
0.0
 40
0.5
 50
270.0
 51
293.57817847820718
  0
ARC
  5
110
  8
DETAIL
  6
CONTINUOUS
 62
     5
 10
21.599999999999849
 20
7.5
 30
0.0
 40
0.500000000000001
 50
66.421821521792836
 51
90.0
  0
ARC
  5
111
  8
DETAIL
  6
CONTINUOUS
 62
     5
 10
21.599999999999849
 20
-7.5
 30
0.0
 40
0.5
 50
270.0
 51
293.57817847820718
  0
ARC
  5
112
  8
DETAIL
  6
CONTINUOUS
 62
     5
 10
20.74999999999995
 20
10.5
 30
0.0
 40
0.8499999999999091
 50
0.0
 51
36.031879072465337
  0
LINE
  5
113
  8
DETAIL
  6
CONTINUOUS
 62
     5
 10
18.467045249938849
 20
11.349999999999961
 30
0.0
 11
18.89999999999992
 21
11.349999999999961
 31
0.0
  0
ARC
  5
114
  8
DETAIL
  6
CONTINUOUS
 62
     5
 10
-20.75000000000005
 20
10.49999999999994
 30
0.0
 40
0.8499999999999859
 50
143.96812092752759
 51
180.0
  0
ARC
  5
115
  8
DETAIL
  6
CONTINUOUS
 62
     5
 10
-18.467045249939058
 20
10.649999999999981
 30
0.0
 40
0.6999999999999929
 50
23.13239639929607
 51
35.897752329577727
  0
ARC
  5
116
  8
DETAIL
  6
CONTINUOUS
 62
     5
 10
-21.60000000000008
 20
-7.5
 30
0.0
 40
0.4999999999999939
 50
246.42182152179279
 51
270.0
  0
ARC
  5
117
  8
DETAIL
  6
CONTINUOUS
 62
     5
 10
-21.60000000000008
 20
-5.5
 30
0.0
 40
0.5
 50
90.0
 51
113.57817847820721
  0
ARC
  5
118
  8
DETAIL
  6
CONTINUOUS
 62
     5
 10
-21.60000000000008
 20
5.5
 30
0.0
 40
0.4999999999999939
 50
246.42182152179279
 51
270.0
  0
ARC
  5
119
  8
DETAIL
  6
CONTINUOUS
 62
     5
 10
-21.60000000000008
 20
7.5
 30
0.0
 40
0.5
 50
90.0
 51
113.57817847820721
  0
ARC
  5
11A
  8
DETAIL
  6
CONTINUOUS
 62
     5
 10
-20.75000000000005
 20
-10.5
 30
0.0
 40
0.8500000000000229
 50
180.0
 51
199.0743628513145
  0
ARC
  5
11B
  8
DETAIL
  6
CONTINUOUS
 62
     5
 10
-18.467045249939058
 20
-10.650000000000031
 30
0.0
 40
0.699999999999998
 50
324.10224767042217
 51
336.86760360070389
  0
LINE
  5
11C
  8
DETAIL
  6
CONTINUOUS
 62
     5
 10
-17.616210784912191
 20
11.349999999999961
 30
0.0
 11
-14.150000000000141
 21
11.349999999999961
 31
0.0
  0
ARC
  5
11D
  8
DETAIL
  6
CONTINUOUS
 62
     5
 10
-10.11404491424565
 20
11.149999999999981
 30
0.0
 40
0.199999999999932
 50
0.0
 51
90.0
  0
LINE
  5
11E
  8
DETAIL
  6
CONTINUOUS
 62
     5
 10
-21.60000000000008
 20
10.0
 30
0.0
 11
-21.60000000000008
 21
10.49999999999994
 31
0.0
  0
ARC
  5
11F
  8
DETAIL
  6
CONTINUOUS
 62
     5
 10
10.11404491424554
 20
11.149999999999981
 30
0.0
 40
0.199999999999989
 50
90.0
 51
180.0
  0
ARC
  5
120
  8
DETAIL
  6
CONTINUOUS
 62
     5
 10
-9.5000000000000515
 20
10.0
 30
0.0
 40
0.5
 50
90.0
 51
180.0
  0
LINE
  5
121
  8
DETAIL
  6
CONTINUOUS
 62
     5
 10
10.11404491424554
 20
11.349999999999961
 30
0.0
 11
13.71013164520258
 21
11.349999999999961
 31
0.0
  0
ARC
  5
122
  8
DETAIL
  6
CONTINUOUS
 62
     5
 10
-9.5000000000000515
 20
10.0
 30
0.0
 40
0.5
 50
90.0
 51
180.0
  0
LINE
  5
123
  8
DETAIL
  6
CONTINUOUS
 62
     5
 10
19.017235450744518
 20
10.92499999999994
 30
0.0
 11
12.54029148101796
 21
10.92499999999994
 31
0.0
  0
ARC
  5
124
  8
DETAIL
  6
CONTINUOUS
 62
     5
 10
-9.5000000000000515
 20
10.0
 30
0.0
 40
0.75
 50
90.0
 51
138.18968510422491
  0
ARC
  5
125
  8
DETAIL
  6
CONTINUOUS
 62
     5
 10
9.4999999999998312
 20
10.0
 30
0.0
 40
0.5000000000001141
 50
0.0
 51
90.0
  0
ARC
  5
126
  8
DETAIL
  6
CONTINUOUS
 62
     5
 10
9.4999999999998312
 20
10.0
 30
0.0
 40
0.7500000000000711
 50
41.810314895775093
 51
90.0
  0
LINE
  5
127
  8
DETAIL
  6
CONTINUOUS
 62
     5
 10
10.059016994374881
 20
10.5
 30
0.0
 11
20.799999999999901
 21
10.5
 31
0.0
  0
LINE
  5
128
  8
DETAIL
  6
CONTINUOUS
 62
     5
 10
19.017235450744518
 20
10.5
 30
0.0
 11
19.017235450744518
 21
10.92499999999994
 31
0.0
  0
LINE
  5
129
  8
DETAIL
  6
CONTINUOUS
 62
     5
 10
12.54029148101796
 20
10.5
 30
0.0
 11
12.54029148101796
 21
10.92499999999994
 31
0.0
  0
LINE
  5
12A
  8
DETAIL
  6
CONTINUOUS
 62
     5
 10
17.616210784911971
 20
11.349999999999961
 30
0.0
 11
14.115576782226469
 21
11.349999999999961
 31
0.0
  0
LINE
  5
12B
  8
DETAIL
  6
CONTINUOUS
 62
     5
 10
14.115576782226469
 20
10.92499999999994
 30
0.0
 11
14.115576782226469
 21
11.349999999999961
 31
0.0
  0
LINE
  5
12C
  8
DETAIL
  6
CONTINUOUS
 62
     5
 10
17.616210784911971
 20
10.92499999999994
 30
0.0
 11
17.616210784911971
 21
11.349999999999961
 31
0.0
  0
LINE
  5
12D
  8
DETAIL
  6
CONTINUOUS
 62
     5
 10
9.9140449142454958
 20
10.625353347306371
 30
0.0
 11
9.9140449142454958
 21
11.149999999999981
 31
0.0
  0
ARC
  5
12E
  8
DETAIL
  6
CONTINUOUS
 62
     5
 10
18.467045249938849
 20
10.649999999999981
 30
0.0
 40
0.699999999999989
 50
90.0
 51
156.8676036007038
  0
LINE
  5
12F
  8
DETAIL
  6
CONTINUOUS
 62
     5
 10
20.799999999999901
 20
10.19999999999999
 30
0.0
 11
9.9582575694954052
 21
10.19999999999999
 31
0.0
  0
LINE
  5
130
  8
DETAIL
  6
CONTINUOUS
 62
     5
 10
14.01013164520254
 20
10.92499999999994
 30
0.0
 11
14.01013164520254
 21
11.049999999999949
 31
0.0
  0
ARC
  5
131
  8
DETAIL
  6
CONTINUOUS
 62
     5
 10
13.71013164520258
 20
11.049999999999949
 30
0.0
 40
0.299999999999955
 50
0.0
 51
90.0
  0
ARC
  5
132
  8
DETAIL
  6
CONTINUOUS
 62
     5
 10
20.799999999999901
 20
-9.7000000000000455
 30
0.0
 40
0.5
 50
270.0
 51
0.0
  0
LINE
  5
133
  8
DETAIL
  6
CONTINUOUS
 62
     5
 10
9.9582575694954052
 20
10.19999999999999
 30
0.0
 11
10.059016994374881
 21
10.5
 31
0.0
  0
ARC
  5
134
  8
DETAIL
  6
CONTINUOUS
 62
     5
 10
20.799999999999901
 20
-9.7000000000000455
 30
0.0
 40
0.799999999999955
 50
270.0
 51
0.0
  0
LINE
  5
135
  8
DETAIL
  6
CONTINUOUS
 62
     5
 10
9.9999999999999432
 20
10.0
 30
0.0
 11
9.9999999999999432
 21
-10.0
 31
0.0
  0
ARC
  5
136
  8
DETAIL
  6
CONTINUOUS
 62
     5
 10
20.799999999999901
 20
9.6999999999999869
 30
0.0
 40
0.5
 50
0.0
 51
90.0
  0
ARC
  5
137
  8
DETAIL
  6
CONTINUOUS
 62
     5
 10
9.4999999999999432
 20
-10.0
 30
0.0
 40
0.5
 50
270.0
 51
0.0
  0
ARC
  5
138
  8
DETAIL
  6
CONTINUOUS
 62
     5
 10
20.799999999999901
 20
9.6999999999999869
 30
0.0
 40
0.799999999999955
 50
0.0
 51
90.0
  0
ARC
  5
139
  8
DETAIL
  6
CONTINUOUS
 62
     5
 10
-20.800000000000122
 20
-9.7000000000000455
 30
0.0
 40
0.5
 50
180.0
 51
270.0
  0
LINE
  5
13A
  8
DETAIL
  6
CONTINUOUS
 62
     5
 10
20.799999999999901
 20
-10.200000000000051
 30
0.0
 11
9.9582575694955207
 21
-10.200000000000051
 31
0.0
  0
LINE
  5
13B
  8
DETAIL
  6
CONTINUOUS
 62
     5
 10
10.059016994374881
 20
-10.5
 30
0.0
 11
20.799999999999901
 21
-10.5
 31
0.0
  0
ARC
  5
13C
  8
DETAIL
  6
CONTINUOUS
 62
     5
 10
-20.800000000000122
 20
9.6999999999999869
 30
0.0
 40
0.5
 50
90.0
 51
180.0
  0
ARC
  5
13D
  8
DETAIL
  6
CONTINUOUS
 62
     5
 10
9.4999999999998312
 20
-10.0
 30
0.0
 40
0.5
 50
270.0
 51
0.0
  0
ARC
  5
13E
  8
DETAIL
  6
CONTINUOUS
 62
     5
 10
-20.800000000000122
 20
9.6999999999999869
 30
0.0
 40
0.800000000000011
 50
90.0
 51
180.0
  0
ARC
  5
13F
  8
DETAIL
  6
CONTINUOUS
 62
     5
 10
9.4999999999998312
 20
-10.0
 30
0.0
 40
0.75
 50
270.0
 51
318.18968510422491
  0
LINE
  5
140
  8
DETAIL
  6
CONTINUOUS
 62
     5
 10
18.299999999999901
 20
4.5
 30
0.0
 11
18.299999999999901
 21
-4.5
 31
0.0
  0
LINE
  5
141
  8
DETAIL
  6
CONTINUOUS
 62
     5
 10
9.9140449142454958
 20
-10.625353347306421
 30
0.0
 11
9.9140449142454958
 21
-11.150000000000031
 31
0.0
  0
LINE
  5
142
  8
DETAIL
  6
CONTINUOUS
 62
     5
 10
-18.300000000000122
 20
4.5
 30
0.0
 11
-18.300000000000122
 21
-4.5
 31
0.0
  0
LINE
  5
143
  8
DETAIL
  6
CONTINUOUS
 62
     5
 10
9.9582575694954052
 20
-10.200000000000051
 30
0.0
 11
10.059016994374881
 21
-10.5
 31
0.0
  0
LINE
  5
144
  8
DETAIL
  6
CONTINUOUS
 62
     5
 10
15.799999999999899
 20
4.5
 30
0.0
 11
15.799999999999899
 21
-4.5
 31
0.0
  0
LINE
  5
145
  8
DETAIL
  6
CONTINUOUS
 62
     5
 10
-10.00000000000005
 20
10.0
 30
0.0
 11
-10.00000000000005
 21
-10.0
 31
0.0
  0
LINE
  5
146
  8
DETAIL
  6
CONTINUOUS
 62
     5
 10
-15.80000000000012
 20
4.5
 30
0.0
 11
-15.80000000000012
 21
-4.5
 31
0.0
  0
ARC
  5
147
  8
DETAIL
  6
CONTINUOUS
 62
     5
 10
-9.5000000000000515
 20
-10.0
 30
0.0
 40
0.5
 50
180.0
 51
270.0
  0
LINE
  5
148
  8
DETAIL
  6
CONTINUOUS
 62
     5
 10
16.049999999999901
 20
4.0
 30
0.0
 11
16.049999999999901
 21
-4.0
 31
0.0
  0
LINE
  5
149
  8
DETAIL
  6
CONTINUOUS
 62
     5
 10
9.4999999999999432
 20
-10.75
 30
0.0
 11
-9.5000000000000515
 21
-10.75
 31
0.0
  0
LINE
  5
14A
  8
DETAIL
  6
CONTINUOUS
 62
     5
 10
-16.050000000000122
 20
4.0
 30
0.0
 11
-16.050000000000122
 21
-4.0
 31
0.0
  0
ARC
  5
14B
  8
DETAIL
  6
CONTINUOUS
 62
     5
 10
-9.5000000000000515
 20
-10.0
 30
0.0
 40
0.7500000000000711
 50
221.81031489577521
 51
270.0
  0
LINE
  5
14C
  8
DETAIL
  6
CONTINUOUS
 62
     5
 10
-10.059016994375099
 20
-10.5
 30
0.0
 11
-20.800000000000122
 21
-10.5
 31
0.0
  0
CIRCLE
  5
14D
  8
DETAIL
  6
CONTINUOUS
 62
     5
 10
12.94999999999988
 20
-5.1750000000000389
 30
0.0
 40
2.0
  0
LINE
  5
14E
  8
DETAIL
  6
CONTINUOUS
 62
     5
 10
-9.9140449142457161
 20
-10.62535334730649
 30
0.0
 11
-9.9140449142457161
 21
-11.150000000000031
 31
0.0
  0
CIRCLE
  5
14F
  8
DETAIL
  6
CONTINUOUS
 62
     5
 10
12.94999999999988
 20
5.1749999999999554
 30
0.0
 40
2.0
  0
LINE
  5
150
  8
DETAIL
  6
CONTINUOUS
 62
     5
 10
9.4999999999999432
 20
-10.5
 30
0.0
 11
-9.5000000000000515
 21
-10.5
 31
0.0
  0
LINE
  5
151
  8
DETAIL
  6
CONTINUOUS
 62
     5
 10
-9.9582575694956237
 20
-10.200000000000051
 30
0.0
 11
-20.800000000000122
 21
-10.200000000000051
 31
0.0
  0
LINE
  5
152
  8
DETAIL
  6
CONTINUOUS
 62
     5
 10
-9.9582575694956237
 20
-10.200000000000051
 30
0.0
 11
-10.059016994375099
 21
-10.5
 31
0.0
  0
LINE
  5
153
  8
DETAIL
  6
CONTINUOUS
 62
     5
 10
-21.60000000000008
 20
10.0
 30
0.0
 11
-21.60000000000008
 21
-10.0
 31
0.0
  0
CIRCLE
  5
154
  8
DETAIL
  6
CONTINUOUS
 62
     5
 10
-12.950000000000101
 20
-5.1750000000000389
 30
0.0
 40
2.0
  0
CIRCLE
  5
155
  8
DETAIL
  6
CONTINUOUS
 62
     5
 10
12.94999999999988
 20
-5.1750000000000389
 30
0.0
 40
1.25
  0
CIRCLE
  5
156
  8
DETAIL
  6
CONTINUOUS
 62
     5
 10
12.94999999999988
 20
5.1749999999999554
 30
0.0
 40
1.25
  0
CIRCLE
  5
157
  8
DETAIL
  6
CONTINUOUS
 62
     5
 10
-12.950000000000101
 20
-5.1750000000000389
 30
0.0
 40
1.25
  0
CIRCLE
  5
158
  8
DETAIL
  6
CONTINUOUS
 62
     5
 10
12.94999999999988
 20
-5.1750000000000389
 30
0.0
 40
1.75
  0
CIRCLE
  5
159
  8
DETAIL
  6
CONTINUOUS
 62
     5
 10
12.94999999999988
 20
5.1749999999999554
 30
0.0
 40
1.75
  0
LINE
  5
15A
  8
DETAIL
  6
CONTINUOUS
 62
     5
 10
-10.059016994375099
 20
10.5
 30
0.0
 11
-14.150000000000141
 21
10.5
 31
0.0
  0
CIRCLE
  5
15B
  8
DETAIL
  6
CONTINUOUS
 62
     5
 10
-12.950000000000101
 20
-5.1750000000000389
 30
0.0
 40
1.75
  0
LINE
  5
15C
  8
DETAIL
  6
CONTINUOUS
 62
     5
 10
15.799999999999899
 20
4.5
 30
0.0
 11
18.299999999999901
 21
4.5
 31
0.0
  0
LINE
  5
15D
  8
DETAIL
  6
CONTINUOUS
 62
     5
 10
-9.9582575694956237
 20
10.19999999999999
 30
0.0
 11
-14.150000000000141
 21
10.19999999999999
 31
0.0
  0
LINE
  5
15E
  8
DETAIL
  6
CONTINUOUS
 62
     5
 10
-15.80000000000012
 20
4.5
 30
0.0
 11
-18.300000000000122
 21
4.5
 31
0.0
  0
LINE
  5
15F
  8
DETAIL
  6
CONTINUOUS
 62
     5
 10
-9.9140449142457161
 20
10.625353347306371
 30
0.0
 11
-9.9140449142457161
 21
11.149999999999981
 31
0.0
  0
LINE
  5
160
  8
DETAIL
  6
CONTINUOUS
 62
     5
 10
15.799999999999899
 20
-4.5
 30
0.0
 11
18.299999999999901
 21
-4.5
 31
0.0
  0
LINE
  5
161
  8
DETAIL
  6
CONTINUOUS
 62
     5
 10
-15.80000000000012
 20
-4.5
 30
0.0
 11
-18.300000000000122
 21
-4.5
 31
0.0
  0
LINE
  5
162
  8
DETAIL
  6
CONTINUOUS
 62
     5
 10
16.049999999999901
 20
-4.0
 30
0.0
 11
18.049999999999901
 21
-4.0
 31
0.0
  0
LINE
  5
163
  8
DETAIL
  6
CONTINUOUS
 62
     5
 10
-16.050000000000122
 20
-4.0
 30
0.0
 11
-18.050000000000122
 21
-4.0
 31
0.0
  0
LINE
  5
164
  8
DETAIL
  6
CONTINUOUS
 62
     5
 10
16.049999999999901
 20
4.0
 30
0.0
 11
18.049999999999901
 21
4.0
 31
0.0
  0
LINE
  5
165
  8
DETAIL
  6
CONTINUOUS
 62
     5
 10
-16.050000000000122
 20
4.0
 30
0.0
 11
-18.050000000000122
 21
4.0
 31
0.0
  0
LINE
  5
166
  8
DETAIL
  6
CONTINUOUS
 62
     5
 10
18.049999999999901
 20
4.0
 30
0.0
 11
18.049999999999901
 21
-4.0
 31
0.0
  0
LINE
  5
167
  8
DETAIL
  6
CONTINUOUS
 62
     5
 10
-18.050000000000122
 20
4.0
 30
0.0
 11
-18.050000000000122
 21
-4.0
 31
0.0
  0
LINE
  5
168
  8
DETAIL
  6
CONTINUOUS
 62
     5
 10
15.799999999999899
 20
-4.5
 30
0.0
 11
16.049999999999901
 21
-4.0
 31
0.0
  0
LINE
  5
169
  8
DETAIL
  6
CONTINUOUS
 62
     5
 10
-15.80000000000012
 20
-4.5
 30
0.0
 11
-16.050000000000122
 21
-4.0
 31
0.0
  0
LINE
  5
16A
  8
DETAIL
  6
CONTINUOUS
 62
     5
 10
18.299999999999901
 20
-4.5
 30
0.0
 11
18.049999999999901
 21
-4.0
 31
0.0
  0
LINE
  5
16B
  8
DETAIL
  6
CONTINUOUS
 62
     5
 10
-18.300000000000122
 20
-4.5
 30
0.0
 11
-18.050000000000122
 21
-4.0
 31
0.0
  0
LINE
  5
16C
  8
DETAIL
  6
CONTINUOUS
 62
     5
 10
18.049999999999901
 20
4.0
 30
0.0
 11
18.299999999999901
 21
4.5
 31
0.0
  0
LINE
  5
16D
  8
DETAIL
  6
CONTINUOUS
 62
     5
 10
-18.050000000000122
 20
4.0
 30
0.0
 11
-18.300000000000122
 21
4.5
 31
0.0
  0
LINE
  5
16E
  8
DETAIL
  6
CONTINUOUS
 62
     5
 10
16.049999999999901
 20
4.0
 30
0.0
 11
15.799999999999899
 21
4.5
 31
0.0
  0
LINE
  5
16F
  8
DETAIL
  6
CONTINUOUS
 62
     5
 10
-9.9582575694956237
 20
10.19999999999999
 30
0.0
 11
-10.059016994375099
 21
10.5
 31
0.0
  0
LINE
  5
170
  8
DETAIL
  6
CONTINUOUS
 62
     5
 10
-16.050000000000122
 20
4.0
 30
0.0
 11
-15.80000000000012
 21
4.5
 31
0.0
  0
ARC
  5
171
  8
DETAIL
  6
CONTINUOUS
 62
     5
 10
9.4999999999999432
 20
10.0
 30
0.0
 40
0.5
 50
0.0
 51
90.0
  0
LINE
  5
172
  8
DETAIL
  6
CONTINUOUS
 62
     5
 10
9.4999999999999432
 20
10.5
 30
0.0
 11
-9.5000000000000515
 21
10.5
 31
0.0
  0
LINE
  5
173
  8
DETAIL
  6
CONTINUOUS
 62
     5
 10
21.599999999999849
 20
10.524999999999981
 30
0.0
 11
21.599999999999849
 21
-10.0
 31
0.0
  0
LINE
  5
174
  8
DETAIL
  6
CONTINUOUS
 62
     5
 10
12.54029148101796
 20
-10.5
 30
0.0
 11
12.54029148101796
 21
-10.92500000000004
 31
0.0
  0
LINE
  5
175
  8
DETAIL
  6
CONTINUOUS
 62
     5
 10
19.017235450744518
 20
-10.5
 30
0.0
 11
19.017235450744518
 21
-10.92500000000004
 31
0.0
  0
LINE
  5
176
  8
DETAIL
  6
CONTINUOUS
 62
     5
 10
19.017235450744518
 20
-10.92500000000004
 30
0.0
 11
12.54029148101796
 21
-10.92500000000004
 31
0.0
  0
LINE
  5
177
  8
DETAIL
  6
CONTINUOUS
 62
     5
 10
14.115576782226469
 20
-10.92500000000004
 30
0.0
 11
14.115576782226469
 21
-11.350000000000019
 31
0.0
  0
LINE
  5
178
  8
DETAIL
  6
CONTINUOUS
 62
     5
 10
9.4999999999999432
 20
10.75
 30
0.0
 11
-9.5000000000000515
 21
10.75
 31
0.0
  0
LINE
  5
179
  8
DETAIL
  6
CONTINUOUS
 62
     5
 10
17.616210784911971
 20
-10.92500000000004
 30
0.0
 11
17.616210784911971
 21
-11.350000000000019
 31
0.0
  0
LINE
  5
17A
  8
DETAIL
  6
CONTINUOUS
 62
     5
 10
17.616210784911971
 20
-11.350000000000019
 30
0.0
 11
14.115576782226469
 21
-11.350000000000019
 31
0.0
  0
LINE
  5
17B
  8
DETAIL
  6
CONTINUOUS
 62
     5
 10
14.01013164520254
 20
-10.92500000000004
 30
0.0
 11
14.01013164520254
 21
-11.050000000000029
 31
0.0
  0
LINE
  5
17C
  8
DETAIL
  6
CONTINUOUS
 62
     5
 10
21.599999999999849
 20
-10.0
 30
0.0
 11
21.599999999999849
 21
-10.5
 31
0.0
  0
ARC
  5
17D
  8
DETAIL
  6
CONTINUOUS
 62
     5
 10
18.467045249938849
 20
-10.650000000000031
 30
0.0
 40
0.7000000000000151
 50
203.13239639929921
 51
270.0
  0
LINE
  5
17E
  8
DETAIL
  6
CONTINUOUS
 62
     5
 10
10.11404491424554
 20
-11.350000000000019
 30
0.0
 11
13.71013164520258
 21
-11.350000000000019
 31
0.0
  0
ARC
  5
17F
  8
DETAIL
  6
CONTINUOUS
 62
     5
 10
13.71013164520258
 20
-11.050000000000029
 30
0.0
 40
0.299999999999955
 50
270.0
 51
0.0
  0
ARC
  5
180
  8
DETAIL
  6
CONTINUOUS
 62
     5
 10
10.11404491424554
 20
-11.150000000000031
 30
0.0
 40
0.200000000000045
 50
180.0
 51
270.0
  0
LINE
  5
181
  8
DETAIL
  6
CONTINUOUS
 62
     5
 10
-21.300000000000122
 20
9.6999999999999869
 30
0.0
 11
-21.300000000000122
 21
-9.7000000000000455
 31
0.0
  0
LINE
  5
182
  8
DETAIL
  6
CONTINUOUS
 62
     5
 10
21.299999999999901
 20
9.6999999999999869
 30
0.0
 11
21.299999999999901
 21
-9.7000000000000455
 31
0.0
  0
LINE
  5
183
  8
DETAIL
  6
CONTINUOUS
 62
     5
 10
-19.017235450744739
 20
-10.92500000000001
 30
0.0
 11
-12.54029148101818
 21
-10.92500000000004
 31
0.0
  0
LINE
  5
184
  8
DETAIL
  6
CONTINUOUS
 62
     5
 10
-19.017235450744739
 20
-10.5
 30
0.0
 11
-19.017235450744739
 21
-10.92500000000001
 31
0.0
  0
LINE
  5
185
  8
DETAIL
  6
CONTINUOUS
 62
     5
 10
-12.54029148101818
 20
-10.5
 30
0.0
 11
-12.54029148101818
 21
-10.92500000000004
 31
0.0
  0
LINE
  5
186
  8
DETAIL
  6
CONTINUOUS
 62
     5
 10
-17.616210784912191
 20
-11.350000000000019
 30
0.0
 11
-14.11557678222669
 21
-11.350000000000019
 31
0.0
  0
LINE
  5
187
  8
DETAIL
  6
CONTINUOUS
 62
     5
 10
-14.11557678222669
 20
-10.92500000000004
 30
0.0
 11
-14.11557678222669
 21
-11.350000000000019
 31
0.0
  0
LINE
  5
188
  8
DETAIL
  6
CONTINUOUS
 62
     5
 10
-17.616210784912191
 20
-10.92500000000001
 30
0.0
 11
-17.616210784912191
 21
-11.350000000000019
 31
0.0
  0
ARC
  5
189
  8
DETAIL
  6
CONTINUOUS
 62
     5
 10
-10.11404491424565
 20
-11.150000000000031
 30
0.0
 40
0.199999999999989
 50
270.0
 51
0.0
  0
LINE
  5
18A
  8
DETAIL
  6
CONTINUOUS
 62
     5
 10
-14.01013164520276
 20
-10.92500000000004
 30
0.0
 11
-14.01013164520276
 21
-11.050000000000029
 31
0.0
  0
ARC
  5
18B
  8
DETAIL
  6
CONTINUOUS
 62
     5
 10
-13.7101316452028
 20
-11.050000000000029
 30
0.0
 40
0.299999999999955
 50
180.0
 51
270.0
  0
LINE
  5
18C
  8
DETAIL
  6
CONTINUOUS
 62
     5
 10
-10.11404491424565
 20
-11.350000000000019
 30
0.0
 11
-13.7101316452028
 21
-11.350000000000019
 31
0.0
  0
LINE
  5
18D
  8
DETAIL
  6
CONTINUOUS
 62
     5
 10
-19.017235450744739
 20
10.92499999999994
 30
0.0
 11
-11.54029148101807
 21
10.92499999999994
 31
0.0
  0
LINE
  5
18E
  8
DETAIL
  6
CONTINUOUS
 62
     5
 10
-19.017235450744739
 20
10.49999999999994
 30
0.0
 11
-19.017235450744739
 21
10.92499999999994
 31
0.0
  0
LINE
  5
18F
  8
DETAIL
  6
CONTINUOUS
 62
     5
 10
-17.616210784912191
 20
10.92499999999994
 30
0.0
 11
-17.616210784912191
 21
11.349999999999961
 31
0.0
  0
ARC
  5
190
  8
DETAIL
  6
CONTINUOUS
 62
     5
 10
-10.11404491424565
 20
11.149999999999981
 30
0.0
 40
0.199999999999932
 50
0.0
 51
90.0
  0
LINE
  5
191
  8
DETAIL
  6
CONTINUOUS
 62
     5
 10
-10.11404491424565
 20
11.349999999999961
 30
0.0
 11
-14.150000000000141
 21
11.349999999999961
 31
0.0
  0
LINE
  5
192
  8
DETAIL
  6
CONTINUOUS
 62
     5
 10
-21.60000000000008
 20
-10.0
 30
0.0
 11
-21.60000000000008
 21
-10.5
 31
0.0
  0
LINE
  5
193
  8
DETAIL
  6
CONTINUOUS
 62
     5
 10
-21.60000000000008
 20
10.0
 30
0.0
 11
-21.60000000000008
 21
10.49999999999994
 31
0.0
  0
LINE
  5
194
  8
DETAIL
  6
CONTINUOUS
 62
     5
 10
10.11404491424554
 20
-11.350000000000019
 30
0.0
 11
-10.11404491424565
 21
-11.350000000000019
 31
0.0
  0
LINE
  5
195
  8
DETAIL
  6
CONTINUOUS
 62
     5
 10
10.11404491424554
 20
11.349999999999961
 30
0.0
 11
-10.11404491424565
 21
11.349999999999961
 31
0.0
  0
ARC
  5
196
  8
DETAIL
  6
CONTINUOUS
 62
     5
 10
10.11404491424554
 20
11.149999999999981
 30
0.0
 40
0.199999999999989
 50
90.0
 51
180.0
  0
LINE
  5
197
  8
DETAIL
  6
CONTINUOUS
 62
     5
 10
10.11404491424554
 20
11.349999999999961
 30
0.0
 11
13.71013164520258
 21
11.349999999999961
 31
0.0
  0
LINE
  5
198
  8
DETAIL
  6
CONTINUOUS
 62
     5
 10
19.017235450744518
 20
10.92499999999994
 30
0.0
 11
12.54029148101796
 21
10.92499999999994
 31
0.0
  0
LINE
  5
199
  8
DETAIL
  6
CONTINUOUS
 62
     5
 10
19.017235450744518
 20
10.5
 30
0.0
 11
19.017235450744518
 21
10.92499999999994
 31
0.0
  0
LINE
  5
19A
  8
DETAIL
  6
CONTINUOUS
 62
     5
 10
12.54029148101796
 20
10.5
 30
0.0
 11
12.54029148101796
 21
10.92499999999994
 31
0.0
  0
LINE
  5
19B
  8
DETAIL
  6
CONTINUOUS
 62
     5
 10
17.616210784911971
 20
11.349999999999961
 30
0.0
 11
14.115576782226469
 21
11.349999999999961
 31
0.0
  0
LINE
  5
19C
  8
DETAIL
  6
CONTINUOUS
 62
     5
 10
14.115576782226469
 20
10.92499999999994
 30
0.0
 11
14.115576782226469
 21
11.349999999999961
 31
0.0
  0
LINE
  5
19D
  8
DETAIL
  6
CONTINUOUS
 62
     5
 10
17.616210784911971
 20
10.92499999999994
 30
0.0
 11
17.616210784911971
 21
11.349999999999961
 31
0.0
  0
ARC
  5
19E
  8
DETAIL
  6
CONTINUOUS
 62
     5
 10
18.467045249938849
 20
10.649999999999981
 30
0.0
 40
0.699999999999989
 50
90.0
 51
156.8676036007038
  0
LINE
  5
19F
  8
DETAIL
  6
CONTINUOUS
 62
     5
 10
14.01013164520254
 20
10.92499999999994
 30
0.0
 11
14.01013164520254
 21
11.049999999999949
 31
0.0
  0
ARC
  5
1A0
  8
DETAIL
  6
CONTINUOUS
 62
     5
 10
13.71013164520258
 20
11.049999999999949
 30
0.0
 40
0.299999999999955
 50
0.0
 51
90.0
  0
ARC
  5
1A1
  8
DETAIL
  6
CONTINUOUS
 62
     5
 10
20.799999999999901
 20
-9.7000000000000455
 30
0.0
 40
0.5
 50
270.0
 51
0.0
  0
ARC
  5
1A2
  8
DETAIL
  6
CONTINUOUS
 62
     5
 10
20.799999999999901
 20
-9.7000000000000455
 30
0.0
 40
0.799999999999955
 50
270.0
 51
0.0
  0
ARC
  5
1A3
  8
DETAIL
  6
CONTINUOUS
 62
     5
 10
20.799999999999901
 20
9.6999999999999869
 30
0.0
 40
0.5
 50
0.0
 51
90.0
  0
ARC
  5
1A4
  8
DETAIL
  6
CONTINUOUS
 62
     5
 10
20.799999999999901
 20
9.6999999999999869
 30
0.0
 40
0.799999999999955
 50
0.0
 51
90.0
  0
ARC
  5
1A5
  8
DETAIL
  6
CONTINUOUS
 62
     5
 10
-20.800000000000122
 20
-9.7000000000000455
 30
0.0
 40
0.5
 50
180.0
 51
270.0
  0
ARC
  5
1A6
  8
DETAIL
  6
CONTINUOUS
 62
     5
 10
-20.800000000000122
 20
-9.7000000000000455
 30
0.0
 40
0.799999999999955
 50
180.0
 51
270.0
  0
ARC
  5
1A7
  8
DETAIL
  6
CONTINUOUS
 62
     5
 10
-20.800000000000122
 20
9.6999999999999869
 30
0.0
 40
0.5
 50
90.0
 51
180.0
  0
ARC
  5
1A8
  8
DETAIL
  6
CONTINUOUS
 62
     5
 10
-20.800000000000122
 20
9.6999999999999869
 30
0.0
 40
0.800000000000011
 50
90.0
 51
180.0
  0
LINE
  5
1A9
  8
DETAIL
  6
CONTINUOUS
 62
     5
 10
-21.60000000000008
 20
10.0
 30
0.0
 11
-21.60000000000008
 21
-10.0
 31
0.0
  0
LINE
  5
1AA
  8
DETAIL
  6
CONTINUOUS
 62
     5
 10
12.54029148101796
 20
-10.5
 30
0.0
 11
12.54029148101796
 21
-10.92500000000004
 31
0.0
  0
LINE
  5
1AB
  8
DETAIL
  6
CONTINUOUS
 62
     5
 10
19.017235450744518
 20
-10.5
 30
0.0
 11
19.017235450744518
 21
-10.92500000000004
 31
0.0
  0
LINE
  5
1AC
  8
DETAIL
  6
CONTINUOUS
 62
     5
 10
14.115576782226469
 20
-10.92500000000004
 30
0.0
 11
14.115576782226469
 21
-11.350000000000019
 31
0.0
  0
LINE
  5
1AD
  8
DETAIL
  6
CONTINUOUS
 62
     5
 10
17.616210784911971
 20
-10.92500000000004
 30
0.0
 11
17.616210784911971
 21
-11.350000000000019
 31
0.0
  0
LINE
  5
1AE
  8
DETAIL
  6
CONTINUOUS
 62
     5
 10
14.01013164520254
 20
-10.92500000000004
 30
0.0
 11
14.01013164520254
 21
-11.050000000000029
 31
0.0
  0
LINE
  5
1AF
  8
DETAIL
  6
CONTINUOUS
 62
     5
 10
21.599999999999849
 20
-10.0
 30
0.0
 11
21.599999999999849
 21
-10.5
 31
0.0
  0
ARC
  5
1B0
  8
DETAIL
  6
CONTINUOUS
 62
     5
 10
13.71013164520258
 20
-11.050000000000029
 30
0.0
 40
0.299999999999955
 50
270.0
 51
0.0
  0
ARC
  5
1B1
  8
DETAIL
  6
CONTINUOUS
 62
     5
 10
10.11404491424554
 20
-11.150000000000031
 30
0.0
 40
0.200000000000045
 50
180.0
 51
270.0
  0
LINE
  5
1B2
  8
DETAIL
  6
CONTINUOUS
 62
     5
 10
-21.300000000000122
 20
9.6999999999999869
 30
0.0
 11
-21.300000000000122
 21
-9.7000000000000455
 31
0.0
  0
LINE
  5
1B3
  8
DETAIL
  6
CONTINUOUS
 62
     5
 10
21.299999999999901
 20
9.6999999999999869
 30
0.0
 11
21.299999999999901
 21
-9.7000000000000455
 31
0.0
  0
LINE
  5
1B4
  8
DETAIL
  6
CONTINUOUS
 62
     5
 10
-19.017235450744739
 20
-10.92500000000001
 30
0.0
 11
-12.54029148101818
 21
-10.92500000000004
 31
0.0
  0
LINE
  5
1B5
  8
DETAIL
  6
CONTINUOUS
 62
     5
 10
-19.017235450744739
 20
-10.5
 30
0.0
 11
-19.017235450744739
 21
-10.92500000000001
 31
0.0
  0
LINE
  5
1B6
  8
DETAIL
  6
CONTINUOUS
 62
     5
 10
-12.54029148101818
 20
-10.5
 30
0.0
 11
-12.54029148101818
 21
-10.92500000000004
 31
0.0
  0
ARC
  5
1B7
  8
DETAIL
  6
CONTINUOUS
 62
     5
 10
-10.11404491424565
 20
-11.150000000000031
 30
0.0
 40
0.199999999999989
 50
270.0
 51
0.0
  0
LINE
  5
1B8
  8
DETAIL
  6
CONTINUOUS
 62
     5
 10
-14.01013164520276
 20
-10.92500000000004
 30
0.0
 11
-14.01013164520276
 21
-11.050000000000029
 31
0.0
  0
LINE
  5
1B9
  8
DETAIL
  6
CONTINUOUS
 62
     5
 10
18.89999999999992
 20
34.649999999999928
 30
0.0
 11
-17.900000000000141
 21
34.64999999999992
 31
0.0
  0
LINE
  5
1BA
  8
DETAIL
  6
CONTINUOUS
 62
     5
 10
-14.150000000000141
 20
10.5
 30
0.0
 11
-20.800000000000122
 21
10.5
 31
0.0
  0
LINE
  5
1BB
  8
DETAIL
  6
CONTINUOUS
 62
     5
 10
-14.150000000000141
 20
10.19999999999999
 30
0.0
 11
-20.800000000000122
 21
10.19999999999999
 31
0.0
  0
CIRCLE
  5
1BC
  8
DETAIL
  6
CONTINUOUS
 62
     5
 10
-14.86026707714309
 20
39.26558053706006
 30
0.0
 40
2.25
  0
CIRCLE
  5
1BD
  8
DETAIL
  6
CONTINUOUS
 62
     5
 10
-14.86026707714309
 20
39.26558053706006
 30
0.0
 40
1.25
  0
ARC
  5
1BE
  8
OUTLINE
  6
CONTINUOUS
 62
     3
 10
-29.0
 20
54.000000000000057
 30
0.0
 40
6.0
 50
90.0
 51
180.0
  0
LINE
  5
1BF
  8
OUTLINE
  6
CONTINUOUS
 62
     3
 10
-29.0
 20
60.000000000000071
 30
0.0
 11
29.0
 21
60.000000000000071
 31
0.0
  0
LINE
  5
1C0
  8
OUTLINE
  6
CONTINUOUS
 62
     3
 10
-35.0
 20
-53.999999999999943
 30
0.0
 11
-35.0
 21
54.000000000000057
 31
0.0
  0
ARC
  5
1C1
  8
OUTLINE
  6
CONTINUOUS
 62
     3
 10
29.0
 20
54.000000000000057
 30
0.0
 40
6.0
 50
0.0
 51
90.0
  0
LINE
  5
1C2
  8
OUTLINE
  6
CONTINUOUS
 62
     3
 10
35.0
 20
54.000000000000057
 30
0.0
 11
35.0
 21
-53.999999999999943
 31
0.0
  0
ARC
  5
1C3
  8
OUTLINE
  6
CONTINUOUS
 62
     3
 10
29.0
 20
-53.999999999999943
 30
0.0
 40
6.0
 50
270.0
 51
0.0
  0
LINE
  5
1C4
  8
OUTLINE
  6
CONTINUOUS
 62
     3
 10
29.0
 20
-59.999999999999929
 30
0.0
 11
-29.0
 21
-59.999999999999929
 31
0.0
  0
ARC
  5
1C5
  8
OUTLINE
  6
CONTINUOUS
 62
     3
 10
-29.0
 20
-53.999999999999943
 30
0.0
 40
6.0
 50
180.0
 51
270.0
  0
CIRCLE
  5
1C6
  8
FIX
  6
CONTINUOUS
 62
    11
 39
50.0
 10
0.0
 20
-41.749999999999993
 30
0.0
 40
5.0
  0
CIRCLE
  5
1C7
  8
FIX
  6
CONTINUOUS
 62
    11
 39
50.0
 10
0.0
 20
41.749999999999993
 30
0.0
 40
5.0
  0
LINE
  5
1C8
  8
SIZE
  6
CONTINUOUS
 62
    30
 10
28.356620350187089
 20
41.749999999999993
 30
0.0
 11
195.72273538325879
 21
41.749999999999929
 31
0.0
  0
LINE
  5
1C9
  8
SIZE
  6
CONTINUOUS
 62
    30
 10
28.356620350187089
 20
-41.749999999999993
 30
0.0
 11
195.72273538325879
 21
-41.75000000000005
 31
0.0
  0
LINE
  5
1CA
  8
SIZE
  6
CONTINUOUS
 62
    30
 10
175.72273538325891
 20
-29.75000000000006
 30
0.0
 11
175.72273538325891
 21
29.74999999999994
 31
0.0
  0
LINE
  5
1CB
  8
SIZE
  6
CONTINUOUS
 62
    30
 10
175.72273538325891
 20
-279.29285714285709
 30
0.0
 11
175.72273538325891
 21
-41.75000000000005
 31
0.0
  0
CIRCLE
  5
1CC
  8
SIZE
  6
CONTINUOUS
 62
    30
 10
175.72273538325891
 20
-41.750000000000021
 30
0.0
 40
6.0
  0
LINE
  5
1CD
  8
SIZE
  6
CONTINUOUS
 62
    30
 10
175.72273538325891
 20
-41.750000000000021
 30
0.0
 11
175.72273538325891
 21
-29.75000000000006
 31
0.0
  0
CIRCLE
  5
1CE
  8
SIZE
  6
CONTINUOUS
 62
    30
 10
175.72273538325891
 20
41.749999999999957
 30
0.0
 40
6.0
  0
LINE
  5
1CF
  8
SIZE
  6
CONTINUOUS
 62
    30
 10
175.72273538325891
 20
41.749999999999957
 30
0.0
 11
175.72273538325891
 21
29.74999999999994
 31
0.0
  0
TEXT
  5
1D0
  8
SIZE
  6
CONTINUOUS
 62
    30
 10
150.72273538325891
 20
-242.29285714285709
 30
0.0
 40
64.0
  1
83.5
 50
90.0
 41
0.9
 72
     1
 11
150.72273538325891
 21
-154.52142857142849
 31
0.0
  0
POINT
  5
1D1
  8
DEFPOINTS
  6
CONTINUOUS
 62
    30
 10
8.8566203501870167
 20
41.749999999999993
 30
0.0
  0
POINT
  5
1D2
  8
DEFPOINTS
  6
CONTINUOUS
 62
    30
 10
8.8566203501870167
 20
-41.749999999999993
 30
0.0
  0
POINT
  5
1D3
  8
DEFPOINTS
  6
CONTINUOUS
 62
    30
 10
175.72273538325891
 20
-41.750000000000021
 30
0.0
  0
CIRCLE
  5
1D4
  8
DETAIL
  6
CONTINUOUS
 62
     5
 10
15.86026707714295
 20
39.26558053706006
 30
0.0
 40
2.25
  0
CIRCLE
  5
1D5
  8
DETAIL
  6
CONTINUOUS
 62
     5
 10
15.86026707714295
 20
39.26558053706006
 30
0.0
 40
1.25
  0
CIRCLE
  5
1D6
  8
DETAIL
  6
CONTINUOUS
 62
     5
 10
-14.86026707714309
 20
-39.26558053706006
 30
0.0
 40
2.25
  0
CIRCLE
  5
1D7
  8
DETAIL
  6
CONTINUOUS
 62
     5
 10
-14.86026707714309
 20
-39.26558053706006
 30
0.0
 40
1.25
  0
CIRCLE
  5
1D8
  8
DETAIL
  6
CONTINUOUS
 62
     5
 10
15.86026707714295
 20
-39.26558053706006
 30
0.0
 40
2.25
  0
CIRCLE
  5
1D9
  8
DETAIL
  6
CONTINUOUS
 62
     5
 10
15.86026707714295
 20
-39.26558053706006
 30
0.0
 40
1.25
  0
CIRCLE
  5
1DA
  8
DETAIL
  6
CONTINUOUS
 62
     5
 10
-10.02887991059306
 20
50.646769412112718
 30
0.0
 40
2.25
  0
CIRCLE
  5
1DB
  8
DETAIL
  6
CONTINUOUS
 62
     5
 10
-10.02887991059306
 20
50.646769412112718
 30
0.0
 40
1.25
  0
CIRCLE
  5
1DC
  8
DETAIL
  6
CONTINUOUS
 62
     5
 10
11.02887991059292
 20
-50.646769412112718
 30
0.0
 40
2.25
  0
CIRCLE
  5
1DD
  8
DETAIL
  6
CONTINUOUS
 62
     5
 10
11.02887991059292
 20
-50.646769412112718
 30
0.0
 40
1.25
  0
CIRCLE
  5
1DE
  8
DETAIL
  6
CONTINUOUS
 62
     5
 10
-12.950000000000101
 20
5.1749999999999607
 30
0.0
 40
2.0
  0
CIRCLE
  5
1DF
  8
DETAIL
  6
CONTINUOUS
 62
     5
 10
-12.950000000000101
 20
5.1749999999999607
 30
0.0
 40
1.25
  0
CIRCLE
  5
1E0
  8
DETAIL
  6
CONTINUOUS
 62
     5
 10
-12.950000000000101
 20
5.1749999999999607
 30
0.0
 40
1.75
  0
LINE
  5
1E1
  8
DETAIL
  6
CONTINUOUS
 62
     5
 10
-11.54029148101807
 20
10.5
 30
0.0
 11
-11.54029148101807
 21
10.92499999999994
 31
0.0
  0
LINE
  5
1E2
  8
DETAIL
  6
CONTINUOUS
 62
     5
 10
21.799999999999901
 20
-12.00000000000003
 30
0.0
 11
21.799999999999901
 21
-33.999999999999972
 31
0.0
  0
LINE
  5
1E3
  8
DETAIL
  6
CONTINUOUS
 62
     5
 10
-21.800000000000122
 20
-12.00000000000003
 30
0.0
 11
-17.900000000000141
 21
-12.00000000000003
 31
0.0
  0
LINE
  5
1E4
  8
DETAIL
  6
CONTINUOUS
 62
     5
 10
-17.900000000000141
 20
-11.0
 30
0.0
 11
-17.900000000000141
 21
-12.00000000000003
 31
0.0
  0
ARC
  5
1E5
  8
DETAIL
  6
CONTINUOUS
 62
     5
 10
-21.000000000000082
 20
-33.199999999999989
 30
0.0
 40
1.999999999999956
 50
180.0
 51
270.0
  0
LINE
  5
1E6
  8
DETAIL
  6
CONTINUOUS
 62
     5
 10
-17.900000000000141
 20
-33.999999999999972
 30
0.0
 11
-17.900000000000141
 21
-34.999999999999957
 31
0.0
  0
LINE
  5
1E7
  8
DETAIL
  6
CONTINUOUS
 62
     5
 10
-21.800000000000122
 20
-33.999999999999972
 30
0.0
 11
-17.900000000000141
 21
-33.999999999999972
 31
0.0
  0
LINE
  5
1E8
  8
DETAIL
  6
CONTINUOUS
 62
     5
 10
-21.000000000000082
 20
-35.19999999999996
 30
0.0
 11
20.999999999999918
 21
-35.19999999999996
 31
0.0
  0
ARC
  5
1E9
  8
DETAIL
  6
CONTINUOUS
 62
     5
 10
20.999999999999918
 20
-33.199999999999989
 30
0.0
 40
2.0
 50
270.0
 51
0.0
  0
LINE
  5
1EA
  8
DETAIL
  6
CONTINUOUS
 62
     5
 10
-21.800000000000122
 20
-12.00000000000003
 30
0.0
 11
-21.800000000000122
 21
-33.999999999999972
 31
0.0
  0
LINE
  5
1EB
  8
DETAIL
  6
CONTINUOUS
 62
     5
 10
18.89999999999992
 20
-11.0
 30
0.0
 11
18.89999999999981
 21
-12.00000000000003
 31
0.0
  0
LINE
  5
1EC
  8
DETAIL
  6
CONTINUOUS
 62
     5
 10
18.89999999999992
 20
-12.00000000000003
 30
0.0
 11
21.799999999999901
 21
-12.00000000000003
 31
0.0
  0
LINE
  5
1ED
  8
DETAIL
  6
CONTINUOUS
 62
     5
 10
18.89999999999992
 20
-33.999999999999972
 30
0.0
 11
21.799999999999901
 21
-33.999999999999972
 31
0.0
  0
LINE
  5
1EE
  8
DETAIL
  6
CONTINUOUS
 62
     5
 10
18.89999999999992
 20
-33.999999999999972
 30
0.0
 11
18.89999999999992
 21
-34.999999999999957
 31
0.0
  0
LINE
  5
1EF
  8
DETAIL
  6
CONTINUOUS
 62
     5
 10
-15.701606858129789
 20
-34.64999999999992
 30
0.0
 11
-15.701606858129781
 21
-27.25000000000006
 31
0.0
  0
LINE
  5
1F0
  8
DETAIL
  6
CONTINUOUS
 62
     5
 10
-15.701606858129781
 20
-27.25000000000006
 30
0.0
 11
-16.901606858129821
 21
-26.75000000000006
 31
0.0
  0
LINE
  5
1F1
  8
DETAIL
  6
CONTINUOUS
 62
     5
 10
-16.901606858129821
 20
-26.75000000000006
 30
0.0
 11
-16.901606858129821
 21
-19.25000000000006
 31
0.0
  0
LINE
  5
1F2
  8
DETAIL
  6
CONTINUOUS
 62
     5
 10
-16.901606858129821
 20
-19.25000000000006
 30
0.0
 11
-15.701606858129781
 21
-18.75000000000006
 31
0.0
  0
LINE
  5
1F3
  8
DETAIL
  6
CONTINUOUS
 62
     5
 10
-15.701606858129781
 20
-18.75000000000006
 30
0.0
 11
-15.701606858129759
 21
-11.49999999999997
 31
0.0
  0
LINE
  5
1F4
  8
DETAIL
  6
CONTINUOUS
 62
     5
 10
20.800000000000011
 20
-12.00000000000003
 30
0.0
 11
20.800000000000011
 21
-33.999999999999972
 31
0.0
  0
LINE
  5
1F5
  8
DETAIL
  6
CONTINUOUS
 62
     5
 10
18.89999999999992
 20
-34.649999999999928
 30
0.0
 11
-17.900000000000141
 21
-34.64999999999992
 31
0.0
  0
LINE
  5
1F6
  8
DETAIL
  6
CONTINUOUS
 62
     5
 10
16.701606858129662
 20
34.64999999999992
 30
0.0
 11
16.70160685812964
 21
27.25000000000006
 31
0.0
  0
LINE
  5
1F7
  8
DETAIL
  6
CONTINUOUS
 62
     5
 10
16.70160685812964
 20
27.25000000000006
 30
0.0
 11
17.901606858129679
 21
26.75000000000006
 31
0.0
  0
LINE
  5
1F8
  8
DETAIL
  6
CONTINUOUS
 62
     5
 10
17.901606858129679
 20
26.75000000000006
 30
0.0
 11
17.901606858129679
 21
19.25000000000006
 31
0.0
  0
LINE
  5
1F9
  8
DETAIL
  6
CONTINUOUS
 62
     5
 10
17.901606858129679
 20
19.25000000000006
 30
0.0
 11
16.70160685812964
 21
18.75000000000006
 31
0.0
  0
LINE
  5
1FA
  8
DETAIL
  6
CONTINUOUS
 62
     5
 10
16.70160685812964
 20
18.75000000000006
 30
0.0
 11
16.70160685812964
 21
11.349999999999961
 31
0.0
  0
LINE
  5
1FB
  8
DETAIL
  6
CONTINUOUS
 62
     5
 10
16.701606858129651
 20
-34.64999999999992
 30
0.0
 11
16.70160685812964
 21
-27.25000000000006
 31
0.0
  0
LINE
  5
1FC
  8
DETAIL
  6
CONTINUOUS
 62
     5
 10
16.70160685812964
 20
-27.25000000000006
 30
0.0
 11
17.901606858129679
 21
-26.75000000000006
 31
0.0
  0
LINE
  5
1FD
  8
DETAIL
  6
CONTINUOUS
 62
     5
 10
17.901606858129679
 20
-26.75000000000006
 30
0.0
 11
17.901606858129679
 21
-19.25000000000006
 31
0.0
  0
LINE
  5
1FE
  8
DETAIL
  6
CONTINUOUS
 62
     5
 10
17.901606858129679
 20
-19.25000000000006
 30
0.0
 11
16.70160685812964
 21
-18.75000000000006
 31
0.0
  0
LINE
  5
1FF
  8
DETAIL
  6
CONTINUOUS
 62
     5
 10
16.70160685812964
 20
-18.75000000000006
 30
0.0
 11
16.701606858129619
 21
-11.49999999999997
 31
0.0
  0
LINE
  5
200
  8
DETAIL
  6
CONTINUOUS
 62
     5
 10
-19.800000000000161
 20
12.00000000000003
 30
0.0
 11
-19.800000000000161
 21
33.999999999999972
 31
0.0
  0
LINE
  5
201
  8
DETAIL
  6
CONTINUOUS
 62
     5
 10
-19.800000000000161
 20
-12.00000000000003
 30
0.0
 11
-19.800000000000161
 21
-33.999999999999972
 31
0.0
  0
LINE
  5
202
  8
BASIS
  6
DASHDOT
 62
     6
 10
-0.0000000000000568
 20
-73.713939371489232
 30
0.0
 11
-0.0000000000001705
 21
73.713939371489232
 31
0.0
  0
LINE
  5
203
  8
DETAIL
  6
CONTINUOUS
 62
     5
 39
50.0
 10
-35.0
 20
48.899999999999928
 30
0.0
 11
-23.000000000000071
 21
48.89999999999997
 31
0.0
  0
LINE
  5
204
  8
DETAIL
  6
CONTINUOUS
 62
     5
 39
50.0
 10
-32.399999999999977
 20
47.08851573442098
 30
0.0
 11
-23.000000000000099
 21
47.08851573442098
 31
0.0
  0
LINE
  5
205
  8
DETAIL
  6
CONTINUOUS
 62
     5
 10
-32.399999999999977
 20
-47.08851573442098
 30
0.0
 11
-32.399999999999977
 21
47.08851573442098
 31
0.0
  0
LINE
  5
206
  8
DETAIL
  6
CONTINUOUS
 62
     5
 39
50.0
 10
-35.0
 20
-48.899999999999928
 30
0.0
 11
-23.000000000000071
 21
-48.89999999999997
 31
0.0
  0
LINE
  5
207
  8
DETAIL
  6
CONTINUOUS
 62
     5
 39
50.0
 10
-32.399999999999977
 20
-47.08851573442098
 30
0.0
 11
-23.000000000000028
 21
-47.08851573442098
 31
0.0
  0
LINE
  5
208
  8
DETAIL
  6
CONTINUOUS
 62
     5
 39
50.0
 10
34.999999999999687
 20
48.899999999999991
 30
0.0
 11
22.999999999999929
 21
48.899999999999899
 31
0.0
  0
LINE
  5
209
  8
DETAIL
  6
CONTINUOUS
 62
     5
 39
50.0
 10
32.399999999999679
 20
47.08851573442103
 30
0.0
 11
22.99999999999994
 21
47.088515734420959
 31
0.0
  0
LINE
  5
20A
  8
DETAIL
  6
CONTINUOUS
 62
     5
 10
32.399999999999821
 20
-47.08851573442093
 30
0.0
 11
32.399999999999679
 21
47.08851573442103
 31
0.0
  0
LINE
  5
20B
  8
DETAIL
  6
CONTINUOUS
 62
     5
 39
50.0
 10
34.999999999999837
 20
-48.899999999999892
 30
0.0
 11
22.999999999999929
 21
-48.899999999999892
 31
0.0
  0
LINE
  5
20C
  8
DETAIL
  6
CONTINUOUS
 62
     5
 39
50.0
 10
32.399999999999821
 20
-47.08851573442093
 30
0.0
 11
22.999999999999929
 21
-47.088515734420959
 31
0.0
  0
POINT
  5
20D
  8
ARRANGE
  6
CONTINUOUS
 62
     1
 10
0.0
 20
0.0
 30
0.0
 39
50.0
  0
TEXT
  5
216
  8
ETC
  6
CONTINUOUS
 62
    61
 10
268.22226283514232
 20
83.282104286956454
 30
0.0
 40
40.0
  1
FS-05AHS2
 41
0.9
  0
TEXT
  5
21C
  8
ETC
  6
CONTINUOUS
 62
    61
 10
268.22226283514232
 20
18.7528881949316
 30
0.0
 40
40.0
  1
FS-08AHS2
 41
0.9
  0
ENDSEC
  0
EOF
