  0
SECTION
  2
HEADER
  9
$ACADVER
  1
AC1009
  9
$DWGCODEPAGE
  3
dos932
  9
$INSBASE
 10
0.0
 20
0.0
 30
0.0
  9
$EXTMIN
 10
-460.43699496709451
 20
-236.1602663716312
 30
-0.0015257624927045
  9
$EXTMAX
 10
1157.890331544784
 20
495.39185361400268
 30
50.001525995323327
  9
$LIMMIN
 10
-2970.0
 20
-2100.0
  9
$LIMMAX
 10
2970.0
 20
2100.0
  9
$ORTHOMODE
 70
     1
  9
$REGENMODE
 70
     1
  9
$FILLMODE
 70
     1
  9
$QTEXTMODE
 70
     0
  9
$MIRRTEXT
 70
     0
  9
$LTSCALE
 40
20.0
  9
$ATTMODE
 70
     1
  9
$TEXTSIZE
 40
64.0
  9
$TRACEWID
 40
0.05
  9
$TEXTSTYLE
  7
STANDARD
  9
$CLAYER
  8
SIZE
  9
$CELTYPE
  6
CONTINUOUS
  9
$CECOLOR
 62
     7
  9
$DIMSCALE
 40
1.0
  9
$DIMASZ
 40
12.0
  9
$DIMEXO
 40
20.0
  9
$DIMDLI
 40
200.0
  9
$DIMRND
 40
0.0
  9
$DIMDLE
 40
0.0
  9
$DIMEXE
 40
20.0
  9
$DIMTP
 40
0.0
  9
$DIMTM
 40
0.0
  9
$DIMTXT
 40
64.0
  9
$DIMCEN
 40
0.09
  9
$DIMTSZ
 40
0.0
  9
$DIMTOL
 70
     0
  9
$DIMLIM
 70
     0
  9
$DIMTIH
 70
     0
  9
$DIMTOH
 70
     0
  9
$DIMSE1
 70
     0
  9
$DIMSE2
 70
     0
  9
$DIMTAD
 70
     1
  9
$DIMZIN
 70
     8
  9
$DIMBLK
  1

  9
$DIMASO
 70
     1
  9
$DIMSHO
 70
     0
  9
$DIMPOST
  1

  9
$DIMAPOST
  1

  9
$DIMALT
 70
     0
  9
$DIMALTD
 70
     2
  9
$DIMALTF
 40
25.399999999999999
  9
$DIMLFAC
 40
1.0
  9
$DIMTOFL
 70
     1
  9
$DIMTVP
 40
0.0
  9
$DIMTIX
 70
     1
  9
$DIMSOXD
 70
     0
  9
$DIMSAH
 70
     0
  9
$DIMBLK1
  1

  9
$DIMBLK2
  1

  9
$DIMSTYLE
  2
STANDARD
  9
$DIMCLRD
 70
     7
  9
$DIMCLRE
 70
     7
  9
$DIMCLRT
 70
     7
  9
$DIMTFAC
 40
1.0
  9
$DIMGAP
 40
25.0
  9
$LUNITS
 70
     2
  9
$LUPREC
 70
     4
  9
$SKETCHINC
 40
0.1
  9
$FILLETRAD
 40
3.0
  9
$AUNITS
 70
     1
  9
$AUPREC
 70
     3
  9
$MENU
  1
ACAD
  9
$ELEVATION
 40
0.0
  9
$PELEVATION
 40
0.0
  9
$THICKNESS
 40
50.0
  9
$LIMCHECK
 70
     0
  9
$CHAMFERA
 40
0.0
  9
$CHAMFERB
 40
0.0
  9
$SKPOLY
 70
     0
  9
$TDCREATE
 40
2453019.62301037
  9
$TDUPDATE
 40
2457687.64679213
  9
$TDINDWG
 40
1.7141242593
  9
$TDUSRTIMER
 40
1.7141242593
  9
$USRTIMER
 70
     1
  9
$ANGBASE
 50
0.0
  9
$ANGDIR
 70
     0
  9
$PDMODE
 70
     3
  9
$PDSIZE
 40
-2.0
  9
$PLINEWID
 40
0.0
  9
$SPLFRAME
 70
     0
  9
$SPLINETYPE
 70
     6
  9
$SPLINESEGS
 70
     8
  9
$SURFTAB1
 70
     6
  9
$SURFTAB2
 70
     6
  9
$SURFTYPE
 70
     6
  9
$SURFU
 70
     6
  9
$SURFV
 70
     6
  9
$UCSNAME
  2

  9
$UCSORG
 10
0.0
 20
0.0
 30
0.0
  9
$UCSXDIR
 10
1.0
 20
0.0
 30
0.0
  9
$UCSYDIR
 10
0.0
 20
1.0
 30
0.0
  9
$PUCSNAME
  2

  9
$PUCSORG
 10
0.0
 20
0.0
 30
0.0
  9
$PUCSXDIR
 10
1.0
 20
0.0
 30
0.0
  9
$PUCSYDIR
 10
0.0
 20
1.0
 30
0.0
  9
$USERI1
 70
     0
  9
$USERI2
 70
     0
  9
$USERI3
 70
     0
  9
$USERI4
 70
     0
  9
$USERI5
 70
     0
  9
$USERR1
 40
20.0
  9
$USERR2
 40
0.0
  9
$USERR3
 40
0.0
  9
$USERR4
 40
0.0
  9
$USERR5
 40
0.0
  9
$WORLDVIEW
 70
     1
  9
$SHADEDGE
 70
     3
  9
$SHADEDIF
 70
    70
  9
$TILEMODE
 70
     1
  9
$MAXACTVP
 70
    48
  9
$PINSBASE
 10
0.0
 20
0.0
 30
0.0
  9
$PLIMCHECK
 70
     0
  9
$PEXTMIN
 10
-100000000000000000000.0
 20
-100000000000000000000.0
 30
-100000000000000000000.0
  9
$PEXTMAX
 10
100000000000000000000.0
 20
100000000000000000000.0
 30
100000000000000000000.0
  9
$PLIMMIN
 10
0.0
 20
0.0
  9
$PLIMMAX
 10
12.0
 20
9.0
  9
$UNITMODE
 70
     0
  9
$VISRETAIN
 70
     0
  9
$PLINEGEN
 70
     0
  9
$PSLTSCALE
 70
     0
  9
$TREEDEPTH
 70
  3020
  9
$ATTDIA
 70
     0
  9
$ATTREQ
 70
     1
  9
$BLIPMODE
 70
     1
  9
$COORDS
 70
     1
  9
$DRAGMODE
 70
     2
  9
$OSMODE
 70
     0
  9
$HANDLING
 70
     0
  9
$HANDSEED
  5
EB8F
  0
ENDSEC
  0
SECTION
  2
TABLES
  0
TABLE
  2
LTYPE
 70
     2
  0
LTYPE
  2
CONTINUOUS
 70
     0
  3
実線
 72
    65
 73
     0
 40
0.0
  0
LTYPE
  2
DASHDOT
 70
     0
  3
____ _ ____ _ ____ _ ____ _ ____ _ ____ _ ____
 72
    65
 73
     4
 40
5.5
 49
4.0
 49
-0.6
 49
0.3
 49
-0.6
  0
ENDTAB
  0
TABLE
  2
LAYER
 70
    12
  0
LAYER
  2
0
 70
     0
 62
     7
  6
CONTINUOUS
  0
LAYER
  2
BASIS
 70
     0
 62
     6
  6
DASHDOT
  0
LAYER
  2
OUTLINE
 70
     0
 62
     3
  6
CONTINUOUS
  0
LAYER
  2
DETAIL
 70
     0
 62
     5
  6
CONTINUOUS
  0
LAYER
  2
SIZE
 70
     0
 62
    30
  6
CONTINUOUS
  0
LAYER
  2
ARRANGE
 70
     0
 62
     1
  6
CONTINUOUS
  0
LAYER
  2
DEFPOINTS
 70
     0
 62
     7
  6
CONTINUOUS
  0
LAYER
  2
ETC
 70
     0
 62
    61
  6
CONTINUOUS
  0
LAYER
  2
FIX
 70
     0
 62
    11
  6
CONTINUOUS
  0
LAYER
  2
NOTE
 70
     0
 62
     4
  6
CONTINUOUS
  0
LAYER
  2
SERVICESPACE
 70
    64
 62
     2
  6
DASHDOT
  0
LAYER
  2
SYMBOLLINE
 70
    64
 62
    15
  6
CONTINUOUS
  0
ENDTAB
  0
TABLE
  2
STYLE
 70
     1
  0
STYLE
  2
STANDARD
 70
     0
 40
64.0
 41
0.9
 50
0.0
 71
     0
 42
64.0
  3
SIMPLEX.shx
  4
BIGFONT.shx
  0
ENDTAB
  0
TABLE
  2
APPID
 70
    15
  0
APPID
  2
ACAD
 70
     0
  0
APPID
  2
AUTOCAD_POSTSCRIPT_FIGURE
 70
     0
  0
APPID
  2
ACAD_EXEMPT_FROM_CAD_STANDARDS
 70
     0
  0
APPID
  2
ACAD_PSEXT
 70
     0
  0
APPID
  2
ACAUTHENVIRON
 70
     0
  0
APPID
  2
GENIUS_GENOENT_13
 70
     0
  0
APPID
  2
GENIUS_GENCFG_13
 70
     0
  0
APPID
  2
GENIUS_GENCFG0_13
 70
     0
  0
APPID
  2
GENIUS_GENCFG1_13
 70
     0
  0
APPID
  2
GENIUS_GENCFG2_13
 70
     0
  0
APPID
  2
GENIUS_GENCFG3_13
 70
     0
  0
APPID
  2
GENIUS_GENCFG4_13
 70
     0
  0
APPID
  2
GENIUS_GEVCFG0_13
 70
     0
  0
APPID
  2
CONTENTBLOCKICON
 70
     0
  0
APPID
  2
CONTENTBLOCKDESCRIPTION
 70
     0
  0
ENDTAB
  0
TABLE
  2
DIMSTYLE
 70
     1
  0
DIMSTYLE
  2
STANDARD
 70
     0
  3

  4

  5
_ORIGIN
  6

  7

 40
1.0
 41
12.0
 42
20.0
 43
200.0
 44
20.0
 45
0.0
 46
0.0
 47
0.0
 48
0.0
140
64.0
141
0.09
142
0.0
143
25.399999999999999
144
1.0
145
0.0
146
1.0
147
25.0
 71
     0
 72
     0
 73
     0
 74
     0
 75
     0
 76
     0
 77
     1
 78
     8
170
     0
171
     2
172
     1
173
     0
174
     1
175
     0
176
     7
177
     7
178
     7
  0
ENDTAB
  0
TABLE
  2
VIEW
 70
     1
  0
VIEW
  2
ALL
 70
     0
 40
4282.6198079999986
 10
0.0
 20
41.309904000000003
 41
5940.0
 11
0.0
 21
0.0
 31
1.0
 12
0.0
 22
0.0
 32
0.0
 42
50.0
 43
0.0
 44
0.0
 50
0.0
 71
     0
  0
ENDTAB
  0
TABLE
  2
UCS
 70
     0
  0
ENDTAB
  0
TABLE
  2
VPORT
 70
     1
  0
VPORT
  2
*ACTIVE
 70
     0
 10
0.0
 20
0.0
 11
1.0
 21
1.0
 12
148.85537278895069
 22
61.171065955160323
 13
0.0
 23
0.0
 14
1.0
 24
1.0
 15
0.0
 25
0.0
 16
0.0
 26
0.0
 36
1.0
 17
0.0
 27
0.0
 37
0.0
 40
963.94599171991172
 41
1.3283582089552239
 42
50.0
 43
0.0
 44
0.0
 50
0.0
 51
0.0
 71
     0
 72
  1000
 73
     1
 74
     3
 75
     0
 76
     0
 77
     0
 78
     0
  0
ENDTAB
  0
ENDSEC
  0
SECTION
  2
BLOCKS
  0
BLOCK
  8
0
  2
_ORIGIN
 70
     0
 10
0.0
 20
0.0
 30
0.0
  3
_ORIGIN
  1

  0
CIRCLE
  8
0
  6
CONTINUOUS
 62
     7
 10
0.0
 20
0.0
 30
0.0
 40
0.5
  0
LINE
  8
0
  6
CONTINUOUS
 62
     7
 10
0.0
 20
0.0
 30
0.0
 11
-1.0
 21
0.0
 31
0.0
  0
ENDBLK
  8
0
  0
ENDSEC
  0
SECTION
  2
ENTITIES
  0
TEXT
  8
ETC
  6
CONTINUOUS
 62
    61
 10
320.69691276106818
 20
431.29125455668441
 30
0.0
 40
64.0
  1
FS-10AHF3_5
 41
0.9
  0
TEXT
  8
ETC
  6
CONTINUOUS
 62
    61
 10
316.51091876106778
 20
313.33594454185322
 30
0.0
 40
64.0
  1
システム部材
 41
0.9
  0
CIRCLE
  8
ARRANGE
  6
CONTINUOUS
 62
     1
 10
0.0
 20
0.0
 30
0.0
 40
40.0
  0
TEXT
  8
ETC
  6
CONTINUOUS
 62
    61
 10
367.2123170096238
 20
205.18717165562791
 30
0.0
 40
40.0
  1
FS-10AHF3
 50
0.0
 41
0.9
 51
0.0
  7
STANDARD
 71
     0
 11
0.0
 21
0.0
 31
0.0
210
0.0
220
0.0
230
1.0
  0
POINT
  8
ARRANGE
  6
CONTINUOUS
 62
     1
 10
0.0
 20
0.0
 30
0.0
 39
50.0
 50
180.0
  0
LINE
  8
BASIS
  6
DASHDOT
 62
     6
 39
50.0
 10
70.471489232311342
 20
0.0
 30
0.0
 11
-70.471489232311342
 21
0.0
 31
0.0
  0
ARC
  8
OUTLINE
  6
CONTINUOUS
 62
     3
 10
2.799999999999955
 20
58.891348631549931
 30
0.0
 40
0.5
 50
180.0
 51
233.39995121459989
  0
ARC
  8
OUTLINE
  6
CONTINUOUS
 62
     3
 10
2.100000000000136
 20
59.803460547350028
 30
0.0
 40
0.199999999999989
 50
0.0
 51
88.999999999998238
  0
LINE
  8
DETAIL
  6
CONTINUOUS
 62
     5
 10
2.3000000000006371
 20
59.803460547350028
 30
0.0
 11
2.3000000000006371
 21
-59.803460547350028
 31
0.0
  0
ARC
  8
OUTLINE
  6
CONTINUOUS
 62
     3
 10
2.799999999999955
 20
-58.891348631550038
 30
0.0
 40
0.500000000000001
 50
126.6000016404014
 51
180.0
  0
ARC
  8
OUTLINE
  6
CONTINUOUS
 62
     3
 10
2.100000000000136
 20
-59.803460547350028
 30
0.0
 40
0.199999999999994
 50
271.00000000000182
 51
0.0
  0
LINE
  8
OUTLINE
  6
CONTINUOUS
 62
     3
 10
2.1034904813000139
 20
-60.003430086349908
 30
0.0
 11
0.0
 21
-60.040146649349943
 31
0.0
  0
LINE
  8
OUTLINE
  6
CONTINUOUS
 62
     3
 10
-23.03489949670006
 20
-34.195603584450048
 30
0.0
 11
0.0
 21
-34.999999999949978
 31
0.0
  0
ARC
  8
OUTLINE
  6
CONTINUOUS
 62
     3
 10
-23.0
 20
-33.19620240744996
 30
0.0
 40
1.000000000000014
 50
180.00059300700079
 51
268.0000206950013
  0
LINE
  8
OUTLINE
  6
CONTINUOUS
 62
     3
 10
-23.999999999999321
 20
33.196212757350047
 30
0.0
 11
-23.999999999999321
 21
-33.19620240744996
 31
0.0
  0
ARC
  8
OUTLINE
  6
CONTINUOUS
 62
     3
 10
-23.0
 20
33.19620240744996
 30
0.0
 40
1.00000000000001
 50
91.999979304998703
 51
179.99940699299921
  0
LINE
  8
OUTLINE
  6
CONTINUOUS
 62
     3
 10
0.0
 20
35.000000000050022
 30
0.0
 11
-23.03489949670006
 21
34.195603584449941
 31
0.0
  0
ARC
  8
OUTLINE
  6
CONTINUOUS
 62
     3
 10
20.096360757645812
 20
-26.9686742315663
 30
0.0
 40
1.0000000000000031
 50
274.99999999999972
 51
354.21076951914802
  0
ARC
  8
OUTLINE
  6
CONTINUOUS
 62
     3
 10
20.096360757645812
 20
-11.031325768333771
 30
0.0
 40
0.9999999999999988
 50
5.7892304808519643
 51
85.000000000000256
  0
ARC
  8
OUTLINE
  6
CONTINUOUS
 62
     3
 10
-58.500714448689791
 20
-18.999999999949981
 30
0.0
 40
80.0
 50
354.21076951914802
 51
5.7892304808519643
  0
LINE
  8
OUTLINE
  6
CONTINUOUS
 62
     3
 10
20.18351650039347
 20
-10.03513107024196
 30
0.0
 11
18.499285551310209
 21
-9.8877799554375088
 31
0.0
  0
LINE
  8
OUTLINE
  6
CONTINUOUS
 62
     3
 10
20.18351650039347
 20
-27.96486892965811
 30
0.0
 11
18.499285551310209
 21
-28.11222004446233
 31
0.0
  0
LINE
  8
OUTLINE
  6
CONTINUOUS
 62
     3
 10
18.499285551310209
 20
-9.7873979716835038
 30
0.0
 11
8.5992727948975016
 21
-9.0482226964419397
 31
0.0
  0
LINE
  8
OUTLINE
  6
CONTINUOUS
 62
     3
 10
18.499285551310209
 20
-28.212602028216679
 30
0.0
 11
8.5992982791973418
 21
-28.999999999949981
 31
0.0
  0
LINE
  8
DETAIL
  6
CONTINUOUS
 62
     5
 10
18.499285551310209
 20
-28.212602028216679
 30
0.0
 11
18.499285551310209
 21
-9.7873979716835038
 31
0.0
  0
LINE
  8
OUTLINE
  6
CONTINUOUS
 62
     3
 10
4.5339860735005004
 20
-59.964496641049998
 30
0.0
 11
2.5
 21
-59.999999999949978
 31
0.0
  0
LINE
  8
OUTLINE
  6
CONTINUOUS
 62
     3
 10
4.5368421855002907
 20
-59.964446787349971
 30
0.0
 11
4.9335185393006213
 21
-59.913074695049893
 31
0.0
  0
LINE
  8
OUTLINE
  6
CONTINUOUS
 62
     3
 10
4.9335185393006213
 20
-59.913074695049893
 30
0.0
 11
5.309055866099925
 21
-59.775368404849807
 31
0.0
  0
LINE
  8
OUTLINE
  6
CONTINUOUS
 62
     3
 10
5.309055866099925
 20
-59.775368404849807
 30
0.0
 11
5.6449100282000018
 21
-59.558127891650088
 31
0.0
  0
LINE
  8
OUTLINE
  6
CONTINUOUS
 62
     3
 10
5.6449100282000018
 20
-59.558127891650088
 30
0.0
 11
5.9244964539004741
 21
-59.272080552450007
 31
0.0
  0
LINE
  8
OUTLINE
  6
CONTINUOUS
 62
     3
 10
5.9244964539004741
 20
-59.272080552450007
 30
0.0
 11
6.1340090878006777
 21
-58.931351484249831
 31
0.0
  0
LINE
  8
OUTLINE
  6
CONTINUOUS
 62
     3
 10
6.1340056250003272
 20
-58.931349854149971
 30
0.0
 11
6.1356128939999053
 21
-58.936445645150002
 31
0.0
  0
ARC
  8
OUTLINE
  6
CONTINUOUS
 62
     3
 10
4.5094743392999126
 20
-58.164650304449879
 30
0.0
 40
1.8
 50
271.0000000009008
 51
334.61016592480291
  0
LINE
  8
DETAIL
  6
CONTINUOUS
 62
     5
 10
2.5
 20
-59.999999999949978
 30
0.0
 11
2.5
 21
60.000000000050022
 31
0.0
  0
LINE
  8
OUTLINE
  6
CONTINUOUS
 62
     3
 10
8.5991994108001109
 20
-48.201588291749893
 30
0.0
 11
8.4261899973000709
 21
-50.970155409250083
 31
0.0
  0
LINE
  8
OUTLINE
  6
CONTINUOUS
 62
     3
 10
8.4261899973000709
 20
-50.970155409250083
 30
0.0
 11
7.9539241388004029
 21
-53.70363125854999
 31
0.0
  0
LINE
  8
OUTLINE
  6
CONTINUOUS
 62
     3
 10
7.9539241388004029
 20
-53.70363125854999
 30
0.0
 11
7.1871547904004274
 21
-56.369490813850121
 31
0.0
  0
LINE
  8
OUTLINE
  6
CONTINUOUS
 62
     3
 10
7.1871547904004274
 20
-56.369490813850121
 30
0.0
 11
6.1356132174003051
 21
-58.936445286450073
 31
0.0
  0
LINE
  8
OUTLINE
  6
CONTINUOUS
 62
     3
 10
8.5991994108001109
 20
48.201588291749893
 30
0.0
 11
8.5993217819000165
 21
-47.264903674649993
 31
0.0
  0
LINE
  8
OUTLINE
  6
CONTINUOUS
 62
     3
 10
8.5993217819000165
 20
-47.264903674649993
 30
0.0
 11
8.5991994108001109
 21
-48.201588291749893
 31
0.0
  0
LINE
  8
OUTLINE
  6
CONTINUOUS
 62
     3
 10
8.5991994108001109
 20
48.201588291749893
 30
0.0
 11
8.4261901163001767
 21
50.970153504349923
 31
0.0
  0
LINE
  8
OUTLINE
  6
CONTINUOUS
 62
     3
 10
7.9539243658002761
 20
53.703629944650061
 30
0.0
 11
7.1871550152004602
 21
56.369490032249928
 31
0.0
  0
LINE
  8
OUTLINE
  6
CONTINUOUS
 62
     3
 10
8.4261901163001767
 20
50.970153504349923
 30
0.0
 11
7.9539243658002761
 21
53.703629944650061
 31
0.0
  0
LINE
  8
OUTLINE
  6
CONTINUOUS
 62
     3
 10
7.1871550152004602
 20
56.369490032249928
 30
0.0
 11
6.1356132174003051
 21
58.936445286450073
 31
0.0
  0
LINE
  8
OUTLINE
  6
CONTINUOUS
 62
     3
 10
6.1356127242004277
 20
58.936445723449992
 30
0.0
 11
6.1340056250003272
 21
58.931349854150078
 31
0.0
  0
LINE
  8
OUTLINE
  6
CONTINUOUS
 62
     3
 10
4.5368421855002907
 20
59.964446787450129
 30
0.0
 11
4.9335179554000206
 21
59.913073872050063
 31
0.0
  0
LINE
  8
OUTLINE
  6
CONTINUOUS
 62
     3
 10
4.9335179554000206
 20
59.913073872050063
 30
0.0
 11
5.3090545672002918
 21
59.775367006049919
 31
0.0
  0
LINE
  8
OUTLINE
  6
CONTINUOUS
 62
     3
 10
5.3090545672002918
 20
59.775367006049919
 30
0.0
 11
5.6449079623000671
 21
59.558126176750079
 31
0.0
  0
LINE
  8
OUTLINE
  6
CONTINUOUS
 62
     3
 10
5.6449079623000671
 20
59.558126176750079
 30
0.0
 11
5.9244936457000676
 21
59.272078771450083
 31
0.0
  0
LINE
  8
OUTLINE
  6
CONTINUOUS
 62
     3
 10
5.9244936457000676
 20
59.272078771450083
 30
0.0
 11
6.1340056311998978
 21
58.93134985724987
 31
0.0
  0
LINE
  8
OUTLINE
  6
CONTINUOUS
 62
     3
 10
4.5339860735005004
 20
59.964496641049998
 30
0.0
 11
2.5
 21
60.000000000050022
 31
0.0
  0
ARC
  8
OUTLINE
  6
CONTINUOUS
 62
     3
 10
4.5094743392999126
 20
58.164650304450113
 30
0.0
 40
1.7999999999999969
 50
25.389825248298632
 51
88.999999999893987
  0
LINE
  8
OUTLINE
  6
CONTINUOUS
 62
     3
 10
0.0
 20
-60.040146649349943
 30
0.0
 11
0.0
 21
60.040146649349943
 31
0.0
  0
LINE
  8
OUTLINE
  6
CONTINUOUS
 62
     3
 10
2.1034904813000139
 20
60.003430086450066
 30
0.0
 11
0.0
 21
60.040146649349943
 31
0.0
  0
CIRCLE
  8
FIX
  6
CONTINUOUS
 62
    11
 39
50.0
 10
0.0
 20
-42.021113858777433
 30
0.0
 40
3.0
  0
CIRCLE
  8
FIX
  6
CONTINUOUS
 62
    11
 39
50.0
 10
0.0
 20
41.499117976889117
 30
0.0
 40
3.0
  0
LINE
  8
NOTE
  6
DASHDOT
 62
     4
 39
50.0
 10
-9.7152464658647659
 20
41.499117976889117
 30
0.0
 11
9.7152464658647659
 21
41.499117976889117
 31
0.0
  0
LINE
  8
NOTE
  6
DASHDOT
 62
     4
 39
50.0
 10
-9.7152464658647659
 20
-42.021113858777433
 30
0.0
 11
9.7152464658647659
 21
-42.021113858777433
 31
0.0
  0
LINE
  8
SIZE
  6
CONTINUOUS
 62
    30
 10
-20.0
 20
35.000000000050029
 30
0.0
 11
-239.43779790500781
 21
35.000000000050093
 31
0.0
  0
LINE
  8
SIZE
  6
CONTINUOUS
 62
    30
 10
-20.0
 20
-34.999999999949971
 30
0.0
 11
-239.43779790500781
 21
-34.999999999949907
 31
0.0
  0
LINE
  8
SIZE
  6
CONTINUOUS
 62
    30
 10
-219.43779790500781
 20
-46.999999999949907
 30
0.0
 11
-219.43779790500781
 21
-58.999999999949907
 31
0.0
  0
LINE
  8
SIZE
  6
CONTINUOUS
 62
    30
 10
-219.43779790500781
 20
47.000000000050093
 30
0.0
 11
-219.4377979050077
 21
202.25714285719309
 31
0.0
  0
LINE
  8
SIZE
  6
CONTINUOUS
 62
    30
 10
-219.43779790500781
 20
-34.999999999949907
 30
0.0
 11
-219.43779790500781
 21
35.000000000050093
 31
0.0
  0
CIRCLE
  8
SIZE
  6
CONTINUOUS
 62
    30
 10
-219.43779790500781
 20
-34.999999999949907
 30
0.0
 40
6.0
  0
LINE
  8
SIZE
  6
CONTINUOUS
 62
    30
 10
-219.43779790500781
 20
-34.999999999949907
 30
0.0
 11
-219.43779790500781
 21
-46.999999999949907
 31
0.0
  0
CIRCLE
  8
SIZE
  6
CONTINUOUS
 62
    30
 10
-219.43779790500781
 20
35.000000000050093
 30
0.0
 40
6.0
  0
LINE
  8
SIZE
  6
CONTINUOUS
 62
    30
 10
-219.43779790500781
 20
35.000000000050093
 30
0.0
 11
-219.43779790500781
 21
47.000000000050093
 31
0.0
  0
TEXT
  8
SIZE
  6
CONTINUOUS
 62
    30
 10
-244.43779790500781
 20
76.484571428621592
 30
0.0
 40
64.0
  1
70
 50
90.0
 41
0.9
 51
0.0
  7
STANDARD
 71
     0
 72
     1
 11
-244.43779790500781
 21
130.6285714286216
 31
0.0
210
0.0
220
0.0
230
1.0
  0
POINT
  8
DEFPOINTS
  6
CONTINUOUS
 62
    30
 10
0.0
 20
35.000000000050022
 30
0.0
  0
POINT
  8
DEFPOINTS
  6
CONTINUOUS
 62
    30
 10
0.0
 20
-34.999999999949978
 30
0.0
  0
POINT
  8
DEFPOINTS
  6
CONTINUOUS
 62
    30
 10
-219.43779790500781
 20
-34.999999999949907
 30
0.0
  0
LINE
  8
SIZE
  6
CONTINUOUS
 62
    30
 10
8.5991994108001091
 20
-68.201588291749886
 30
0.0
 11
8.5991994108001002
 21
-236.00622075053261
 31
0.0
  0
LINE
  8
SIZE
  6
CONTINUOUS
 62
    30
 10
-0.0000000000000012
 20
-80.040146649349936
 30
0.0
 11
-0.0000000000000108
 21
-236.00622075053261
 31
0.0
  0
LINE
  8
SIZE
  6
CONTINUOUS
 62
    30
 10
20.5991994108001
 20
-216.00622075053261
 30
0.0
 11
32.599199410800097
 21
-216.00622075053261
 31
0.0
  0
LINE
  8
SIZE
  6
CONTINUOUS
 62
    30
 10
-12.000000000000011
 20
-216.00622075053261
 30
0.0
 11
-191.94285714285709
 21
-216.00622075053261
 31
0.0
  0
LINE
  8
SIZE
  6
CONTINUOUS
 62
    30
 10
8.5991994108001002
 20
-216.00622075053261
 30
0.0
 11
-0.0000000000000096
 21
-216.00622075053261
 31
0.0
  0
CIRCLE
  8
SIZE
  6
CONTINUOUS
 62
    30
 10
8.5991994108001002
 20
-216.00622075053261
 30
0.0
 40
6.0
  0
LINE
  8
SIZE
  6
CONTINUOUS
 62
    30
 10
8.5991994108001002
 20
-216.00622075053261
 30
0.0
 11
20.5991994108001
 21
-216.00622075053261
 31
0.0
  0
CIRCLE
  8
SIZE
  6
CONTINUOUS
 62
    30
 10
-0.0000000000000096
 20
-216.00622075053261
 30
0.0
 40
6.0
  0
LINE
  8
SIZE
  6
CONTINUOUS
 62
    30
 10
-0.0000000000000096
 20
-216.00622075053261
 30
0.0
 11
-12.000000000000009
 21
-216.00622075053261
 31
0.0
  0
TEXT
  8
SIZE
  6
CONTINUOUS
 62
    30
 10
-175.36342857142861
 20
-191.00622075053261
 30
0.0
 40
64.0
  1
8.6
 50
0.0
 41
0.9
 51
0.0
  7
STANDARD
 71
     0
 72
     1
 11
-107.9714285714286
 21
-191.00622075053261
 31
0.0
210
0.0
220
0.0
230
1.0
  0
POINT
  8
DEFPOINTS
  6
CONTINUOUS
 62
    30
 10
8.5991994108001109
 20
-48.201588291749893
 30
0.0
  0
POINT
  8
DEFPOINTS
  6
CONTINUOUS
 62
    30
 10
0.0
 20
-60.040146649349943
 30
0.0
  0
POINT
  8
DEFPOINTS
  6
CONTINUOUS
 62
    30
 10
-0.0000000000000096
 20
-216.00622075053261
 30
0.0
  0
LINE
  8
NOTE
  6
CONTINUOUS
 62
     4
 10
2.3000000000006371
 20
-43.947249887202588
 30
0.0
 11
174.34475703657941
 21
-205.9296981274947
 31
0.0
  0
LINE
  8
NOTE
  6
CONTINUOUS
 62
     4
 10
174.34475703657941
 20
-205.9296981274947
 30
0.0
 11
1157.5720301396241
 21
-206.24617088934869
 31
0.0
  0
TEXT
  8
NOTE
  6
CONTINUOUS
 62
     4
 10
171.13858440203228
 20
-187.9848146655454
 30
0.0
 40
64.0
  1
JISボックス固定ネジ穴 2ヶ所
 50
0.0
 41
0.9
 51
0.0
  7
STANDARD
 71
     0
 72
     2
 11
1141.1225844020321
 21
-187.9848146655454
 31
0.0
210
0.0
220
0.0
230
1.0
  0
LINE
  8
NOTE
  6
CONTINUOUS
 62
     4
 39
50.0
 10
2.3000000000006371
 20
-43.947249887202588
 30
0.0
 11
5.2886643823736676
 21
-48.341444584326609
 31
0.0
  0
LINE
  8
NOTE
  6
CONTINUOUS
 62
     4
 39
50.0
 10
2.3000000000006371
 20
-43.947249887202588
 30
0.0
 11
7.8578162704781107
 21
-45.662924171464738
 31
0.0
  0
LINE
  8
SIZE
  6
CONTINUOUS
 62
    30
 10
-29.715246465864759
 20
41.499117976889131
 30
0.0
 11
-391.3888487619779
 21
41.499117976889231
 31
0.0
  0
LINE
  8
SIZE
  6
CONTINUOUS
 62
    30
 10
-29.715246465864769
 20
-42.021113858777419
 30
0.0
 11
-391.3888487619779
 21
-42.021113858777319
 31
0.0
  0
LINE
  8
SIZE
  6
CONTINUOUS
 62
    30
 10
-371.3888487619779
 20
53.499117976889231
 30
0.0
 11
-371.3888487619779
 21
65.499117976889238
 31
0.0
  0
LINE
  8
SIZE
  6
CONTINUOUS
 62
    30
 10
-371.3888487619779
 20
-54.021113858777319
 30
0.0
 11
-371.3888487619779
 21
-66.021113858777312
 31
0.0
  0
LINE
  8
SIZE
  6
CONTINUOUS
 62
    30
 10
-371.3888487619779
 20
41.499117976889231
 30
0.0
 11
-371.3888487619779
 21
-42.021113858777319
 31
0.0
  0
CIRCLE
  8
SIZE
  6
CONTINUOUS
 62
    30
 10
-371.3888487619779
 20
41.499117976889231
 30
0.0
 40
6.0
  0
LINE
  8
SIZE
  6
CONTINUOUS
 62
    30
 10
-371.3888487619779
 20
41.499117976889231
 30
0.0
 11
-371.3888487619779
 21
53.499117976889231
 31
0.0
  0
CIRCLE
  8
SIZE
  6
CONTINUOUS
 62
    30
 10
-371.3888487619779
 20
-42.021113858777319
 30
0.0
 40
6.0
  0
LINE
  8
SIZE
  6
CONTINUOUS
 62
    30
 10
-371.3888487619779
 20
-42.021113858777319
 30
0.0
 11
-371.3888487619779
 21
-54.021113858777319
 31
0.0
  0
TEXT
  8
SIZE
  6
CONTINUOUS
 62
    30
 10
-396.3888487619779
 20
-94.436997940944138
 30
0.0
 40
64.0
  1
83.5
 50
90.0
 41
0.9
 51
0.0
  7
STANDARD
 71
     0
 72
     1
 11
-396.3888487619779
 21
-0.2609979409441585
 31
0.0
210
0.0
220
0.0
230
1.0
  0
POINT
  8
DEFPOINTS
  6
CONTINUOUS
 62
    30
 10
-9.7152464658647659
 20
41.499117976889117
 30
0.0
  0
POINT
  8
DEFPOINTS
  6
CONTINUOUS
 62
    30
 10
-9.7152464658647659
 20
-42.021113858777433
 30
0.0
  0
POINT
  8
DEFPOINTS
  6
CONTINUOUS
 62
    30
 10
-371.3888487619779
 20
-42.021113858777319
 30
0.0
  0
LINE
  8
SIZE
  6
CONTINUOUS
 62
    30
 10
20.0
 20
-60.040146649349943
 30
0.0
 11
223.06753063472021
 21
-60.04014664935
 31
0.0
  0
LINE
  8
SIZE
  6
CONTINUOUS
 62
    30
 10
20.0
 20
60.040146649349929
 30
0.0
 11
223.06753063472021
 21
60.040146649349872
 31
0.0
  0
LINE
  8
SIZE
  6
CONTINUOUS
 62
    30
 10
203.06753063472021
 20
-48.040146649349992
 30
0.0
 11
203.06753063472021
 21
48.040146649349879
 31
0.0
  0
LINE
  8
SIZE
  6
CONTINUOUS
 62
    30
 10
203.06753063472021
 20
60.040146649349879
 30
0.0
 11
203.0675306347203
 21
259.18300379220699
 31
0.0
  0
CIRCLE
  8
SIZE
  6
CONTINUOUS
 62
    30
 10
203.06753063472021
 20
-60.040146649349992
 30
0.0
 40
6.0
  0
LINE
  8
SIZE
  6
CONTINUOUS
 62
    30
 10
203.06753063472021
 20
-60.040146649349992
 30
0.0
 11
203.06753063472021
 21
-48.040146649349992
 31
0.0
  0
CIRCLE
  8
SIZE
  6
CONTINUOUS
 62
    30
 10
203.06753063472021
 20
60.040146649349879
 30
0.0
 40
6.0
  0
LINE
  8
SIZE
  6
CONTINUOUS
 62
    30
 10
203.06753063472021
 20
60.040146649349879
 30
0.0
 11
203.06753063472021
 21
48.040146649349879
 31
0.0
  0
TEXT
  8
SIZE
  6
CONTINUOUS
 62
    30
 10
178.06753063472021
 20
90.443575220778484
 30
0.0
 40
64.0
  1
120
 50
90.0
 41
0.9
 51
0.0
  7
STANDARD
 71
     0
 72
     1
 11
178.06753063472021
 21
165.61157522077849
 31
0.0
210
0.0
220
0.0
230
1.0
  0
POINT
  8
DEFPOINTS
  6
CONTINUOUS
 62
    30
 10
0.0
 20
-60.040146649349943
 30
0.0
  0
POINT
  8
DEFPOINTS
  6
CONTINUOUS
 62
    30
 10
0.0
 20
60.040146649349943
 30
0.0
  0
POINT
  8
DEFPOINTS
  6
CONTINUOUS
 62
    30
 10
203.06753063472021
 20
60.040146649349879
 30
0.0
  0
LINE
  8
SIZE
  6
CONTINUOUS
 62
    30
 10
-23.99999999994645
 20
53.19621275737461
 30
0.0
 11
-23.999999999946429
 21
332.94861379822532
 31
0.0
  0
LINE
  8
SIZE
  6
CONTINUOUS
 62
    30
 10
0.0000000000000012
 20
80.040146649349936
 30
0.0
 11
0.0000000000000167
 21
332.94861379822532
 31
0.0
  0
LINE
  8
SIZE
  6
CONTINUOUS
 62
    30
 10
12.00000000000002
 20
312.94861379822532
 30
0.0
 11
24.000000000000011
 21
312.94861379822532
 31
0.0
  0
LINE
  8
SIZE
  6
CONTINUOUS
 62
    30
 10
-35.999999999946432
 20
312.94861379822532
 30
0.0
 11
-193.9999999999464
 21
312.94861379822532
 31
0.0
  0
LINE
  8
SIZE
  6
CONTINUOUS
 62
    30
 10
0.0000000000000155
 20
312.94861379822532
 30
0.0
 11
-23.999999999946429
 21
312.94861379822532
 31
0.0
  0
CIRCLE
  8
SIZE
  6
CONTINUOUS
 62
    30
 10
0.0000000000000155
 20
312.94861379822532
 30
0.0
 40
6.0
  0
LINE
  8
SIZE
  6
CONTINUOUS
 62
    30
 10
0.0000000000000155
 20
312.94861379822532
 30
0.0
 11
12.000000000000016
 21
312.94861379822532
 31
0.0
  0
CIRCLE
  8
SIZE
  6
CONTINUOUS
 62
    30
 10
-23.999999999946429
 20
312.94861379822532
 30
0.0
 40
6.0
  0
LINE
  8
SIZE
  6
CONTINUOUS
 62
    30
 10
-23.999999999946429
 20
312.94861379822532
 30
0.0
 11
-35.999999999946425
 21
312.94861379822532
 31
0.0
  0
TEXT
  8
SIZE
  6
CONTINUOUS
 62
    30
 10
-175.1439999999464
 20
337.94861379822532
 30
0.0
 40
64.0
  1
24
 50
0.0
 41
0.9
 51
0.0
  7
STANDARD
 71
     0
 72
     1
 11
-120.9999999999464
 21
337.94861379822532
 31
0.0
210
0.0
220
0.0
230
1.0
  0
POINT
  8
DEFPOINTS
  6
CONTINUOUS
 62
    30
 10
-23.99999999994645
 20
33.19621275737461
 30
0.0
  0
POINT
  8
DEFPOINTS
  6
CONTINUOUS
 62
    30
 10
0.0
 20
60.040146649349943
 30
0.0
  0
POINT
  8
DEFPOINTS
  6
CONTINUOUS
 62
    30
 10
0.0000000000000155
 20
312.94861379822532
 30
0.0
  0
LINE
  8
SIZE
  6
CONTINUOUS
 62
    30
 10
0.0000000000000012
 20
80.040146649349936
 30
0.0
 11
0.0000000000000167
 21
332.94861379822532
 31
0.0
  0
LINE
  8
SIZE
  6
CONTINUOUS
 62
    30
 10
21.499285551310209
 20
1.000000000050022
 30
0.0
 11
21.49928555131023
 21
332.94861379822532
 31
0.0
  0
LINE
  8
SIZE
  6
CONTINUOUS
 62
    30
 10
-11.99999999999998
 20
312.94861379822532
 30
0.0
 11
-23.999999999999989
 21
312.94861379822532
 31
0.0
  0
LINE
  8
SIZE
  6
CONTINUOUS
 62
    30
 10
33.49928555131023
 20
312.94861379822532
 30
0.0
 11
260.07071412273882
 21
312.94861379822532
 31
0.0
  0
LINE
  8
SIZE
  6
CONTINUOUS
 62
    30
 10
0.0000000000000155
 20
312.94861379822532
 30
0.0
 11
21.49928555131023
 21
312.94861379822532
 31
0.0
  0
CIRCLE
  8
SIZE
  6
CONTINUOUS
 62
    30
 10
0.0000000000000155
 20
312.94861379822532
 30
0.0
 40
6.0
  0
LINE
  8
SIZE
  6
CONTINUOUS
 62
    30
 10
0.0000000000000155
 20
312.94861379822532
 30
0.0
 11
-11.999999999999984
 21
312.94861379822532
 31
0.0
  0
CIRCLE
  8
SIZE
  6
CONTINUOUS
 62
    30
 10
21.49928555131023
 20
312.94861379822532
 30
0.0
 40
6.0
  0
LINE
  8
SIZE
  6
CONTINUOUS
 62
    30
 10
21.49928555131023
 20
312.94861379822532
 30
0.0
 11
33.49928555131023
 21
312.94861379822532
 31
0.0
  0
TEXT
  8
SIZE
  6
CONTINUOUS
 62
    30
 10
64.368999837024475
 20
337.94861379822532
 30
0.0
 40
64.0
  1
21.5
 50
0.0
 41
0.9
 51
0.0
  7
STANDARD
 71
     0
 72
     1
 11
152.78499983702449
 21
337.94861379822532
 31
0.0
210
0.0
220
0.0
230
1.0
  0
POINT
  8
DEFPOINTS
  6
CONTINUOUS
 62
    30
 10
0.0
 20
60.040146649349943
 30
0.0
  0
POINT
  8
DEFPOINTS
  6
CONTINUOUS
 62
    30
 10
21.499285551310209
 20
-18.999999999949981
 30
0.0
  0
POINT
  8
DEFPOINTS
  6
CONTINUOUS
 62
    30
 10
21.49928555131023
 20
312.94861379822532
 30
0.0
  0
ENDSEC
  0
EOF
