  0
SECTION
  2
HEADER
  9
$ACADVER
  1
AC1009
  9
$DWGCODEPAGE
  3
dos932
  9
$INSBASE
 10
0.0
 20
0.0
 30
0.0
  9
$EXTMIN
 10
-363.21383500000002
 20
-161.20042433333339
 30
0.0
  9
$EXTMAX
 10
898.73902060216494
 20
601.17343952308465
 30
50.0
  9
$LIMMIN
 10
-2970.0
 20
-2100.0
  9
$LIMMAX
 10
2970.0
 20
2100.0
  9
$ORTHOMODE
 70
     1
  9
$REGENMODE
 70
     1
  9
$FILLMODE
 70
     1
  9
$QTEXTMODE
 70
     0
  9
$MIRRTEXT
 70
     0
  9
$LTSCALE
 40
20.0
  9
$ATTMODE
 70
     1
  9
$TEXTSIZE
 40
64.0
  9
$TRACEWID
 40
0.05
  9
$TEXTSTYLE
  7
STANDARD
  9
$CLAYER
  8
DETAIL
  9
$CELTYPE
  6
CONTINUOUS
  9
$CECOLOR
 62
     7
  9
$DIMSCALE
 40
1.0
  9
$DIMASZ
 40
12.0
  9
$DIMEXO
 40
20.0
  9
$DIMDLI
 40
200.0
  9
$DIMRND
 40
0.0
  9
$DIMDLE
 40
0.0
  9
$DIMEXE
 40
20.0
  9
$DIMTP
 40
0.0
  9
$DIMTM
 40
0.0
  9
$DIMTXT
 40
64.0
  9
$DIMCEN
 40
0.09
  9
$DIMTSZ
 40
0.0
  9
$DIMTOL
 70
     0
  9
$DIMLIM
 70
     0
  9
$DIMTIH
 70
     0
  9
$DIMTOH
 70
     0
  9
$DIMSE1
 70
     0
  9
$DIMSE2
 70
     0
  9
$DIMTAD
 70
     1
  9
$DIMZIN
 70
     8
  9
$DIMBLK
  1

  9
$DIMASO
 70
     1
  9
$DIMSHO
 70
     0
  9
$DIMPOST
  1

  9
$DIMAPOST
  1

  9
$DIMALT
 70
     0
  9
$DIMALTD
 70
     2
  9
$DIMALTF
 40
25.399999999999999
  9
$DIMLFAC
 40
1.0
  9
$DIMTOFL
 70
     1
  9
$DIMTVP
 40
0.0
  9
$DIMTIX
 70
     1
  9
$DIMSOXD
 70
     0
  9
$DIMSAH
 70
     0
  9
$DIMBLK1
  1

  9
$DIMBLK2
  1

  9
$DIMSTYLE
  2
STANDARD
  9
$DIMCLRD
 70
     7
  9
$DIMCLRE
 70
     7
  9
$DIMCLRT
 70
     7
  9
$DIMTFAC
 40
1.0
  9
$DIMGAP
 40
25.0
  9
$LUNITS
 70
     2
  9
$LUPREC
 70
     4
  9
$SKETCHINC
 40
0.1
  9
$FILLETRAD
 40
3.0
  9
$AUNITS
 70
     1
  9
$AUPREC
 70
     3
  9
$MENU
  1
ACAD
  9
$ELEVATION
 40
0.0
  9
$PELEVATION
 40
0.0
  9
$THICKNESS
 40
50.0
  9
$LIMCHECK
 70
     0
  9
$CHAMFERA
 40
0.0
  9
$CHAMFERB
 40
0.0
  9
$SKPOLY
 70
     0
  9
$TDCREATE
 40
2453019.62301037
  9
$TDUPDATE
 40
2456267.436045602
  9
$TDINDWG
 40
1.6824492708
  9
$TDUSRTIMER
 40
1.6824490856
  9
$USRTIMER
 70
     1
  9
$ANGBASE
 50
0.0
  9
$ANGDIR
 70
     0
  9
$PDMODE
 70
     3
  9
$PDSIZE
 40
-2.0
  9
$PLINEWID
 40
0.0
  9
$SPLFRAME
 70
     0
  9
$SPLINETYPE
 70
     6
  9
$SPLINESEGS
 70
     8
  9
$SURFTAB1
 70
     6
  9
$SURFTAB2
 70
     6
  9
$SURFTYPE
 70
     6
  9
$SURFU
 70
     6
  9
$SURFV
 70
     6
  9
$UCSNAME
  2

  9
$UCSORG
 10
0.0
 20
0.0
 30
0.0
  9
$UCSXDIR
 10
1.0
 20
0.0
 30
0.0
  9
$UCSYDIR
 10
0.0
 20
1.0
 30
0.0
  9
$PUCSNAME
  2

  9
$PUCSORG
 10
0.0
 20
0.0
 30
0.0
  9
$PUCSXDIR
 10
1.0
 20
0.0
 30
0.0
  9
$PUCSYDIR
 10
0.0
 20
1.0
 30
0.0
  9
$USERI1
 70
     0
  9
$USERI2
 70
     0
  9
$USERI3
 70
     0
  9
$USERI4
 70
     0
  9
$USERI5
 70
     0
  9
$USERR1
 40
20.0
  9
$USERR2
 40
0.0
  9
$USERR3
 40
0.0
  9
$USERR4
 40
0.0
  9
$USERR5
 40
0.0
  9
$WORLDVIEW
 70
     1
  9
$SHADEDGE
 70
     3
  9
$SHADEDIF
 70
    70
  9
$TILEMODE
 70
     1
  9
$MAXACTVP
 70
    48
  9
$PINSBASE
 10
0.0
 20
0.0
 30
0.0
  9
$PLIMCHECK
 70
     0
  9
$PEXTMIN
 10
-100000000000000000000.0
 20
-100000000000000000000.0
 30
-100000000000000000000.0
  9
$PEXTMAX
 10
100000000000000000000.0
 20
100000000000000000000.0
 30
100000000000000000000.0
  9
$PLIMMIN
 10
0.0
 20
0.0
  9
$PLIMMAX
 10
12.0
 20
9.0
  9
$UNITMODE
 70
     0
  9
$VISRETAIN
 70
     0
  9
$PLINEGEN
 70
     0
  9
$PSLTSCALE
 70
     0
  9
$TREEDEPTH
 70
  3020
  9
$ATTDIA
 70
     0
  9
$ATTREQ
 70
     1
  9
$BLIPMODE
 70
     1
  9
$COORDS
 70
     1
  9
$DRAGMODE
 70
     2
  9
$OSMODE
 70
     0
  9
$HANDLING
 70
     0
  9
$HANDSEED
  5
151
  0
ENDSEC
  0
SECTION
  2
TABLES
  0
TABLE
  2
LTYPE
 70
     2
  0
LTYPE
  2
CONTINUOUS
 70
     0
  3
実線
 72
    65
 73
     0
 40
0.0
  0
LTYPE
  2
DASHDOT
 70
     0
  3
____ _ ____ _ ____ _ ____ _ ____ _ ____ _ ____
 72
    65
 73
     4
 40
5.5
 49
4.0
 49
-0.6
 49
0.3
 49
-0.6
  0
ENDTAB
  0
TABLE
  2
LAYER
 70
    12
  0
LAYER
  2
0
 70
     0
 62
     7
  6
CONTINUOUS
  0
LAYER
  2
DETAIL
 70
     0
 62
     5
  6
CONTINUOUS
  0
LAYER
  2
BASIS
 70
     0
 62
     6
  6
DASHDOT
  0
LAYER
  2
OUTLINE
 70
     0
 62
     3
  6
CONTINUOUS
  0
LAYER
  2
SIZE
 70
     0
 62
    30
  6
CONTINUOUS
  0
LAYER
  2
ARRANGE
 70
     0
 62
     1
  6
CONTINUOUS
  0
LAYER
  2
DEFPOINTS
 70
     0
 62
     7
  6
CONTINUOUS
  0
LAYER
  2
ETC
 70
     0
 62
    61
  6
CONTINUOUS
  0
LAYER
  2
NOTE
 70
     0
 62
     4
  6
CONTINUOUS
  0
LAYER
  2
FIX
 70
    64
 62
    11
  6
CONTINUOUS
  0
LAYER
  2
SERVICESPACE
 70
    64
 62
     2
  6
DASHDOT
  0
LAYER
  2
SYMBOLLINE
 70
    64
 62
    15
  6
CONTINUOUS
  0
ENDTAB
  0
TABLE
  2
STYLE
 70
     1
  0
STYLE
  2
STANDARD
 70
     0
 40
64.0
 41
0.9
 50
0.0
 71
     0
 42
64.0
  3
SIMPLEX.shx
  4
BIGFONT.shx
  0
ENDTAB
  0
TABLE
  2
APPID
 70
    15
  0
APPID
  2
ACAD
 70
     0
  0
APPID
  2
AUTOCAD_POSTSCRIPT_FIGURE
 70
     0
  0
APPID
  2
ACAD_EXEMPT_FROM_CAD_STANDARDS
 70
     0
  0
APPID
  2
ACAD_PSEXT
 70
     0
  0
APPID
  2
ACAUTHENVIRON
 70
     0
  0
APPID
  2
GENIUS_GENOENT_13
 70
     0
  0
APPID
  2
GENIUS_GENCFG_13
 70
     0
  0
APPID
  2
GENIUS_GENCFG0_13
 70
     0
  0
APPID
  2
GENIUS_GENCFG1_13
 70
     0
  0
APPID
  2
GENIUS_GENCFG2_13
 70
     0
  0
APPID
  2
GENIUS_GENCFG3_13
 70
     0
  0
APPID
  2
GENIUS_GENCFG4_13
 70
     0
  0
APPID
  2
GENIUS_GEVCFG0_13
 70
     0
  0
APPID
  2
CONTENTBLOCKICON
 70
     0
  0
APPID
  2
CONTENTBLOCKDESCRIPTION
 70
     0
  0
ENDTAB
  0
TABLE
  2
DIMSTYLE
 70
     1
  0
DIMSTYLE
  2
STANDARD
 70
     0
  3

  4

  5

  6

  7

 40
1.0
 41
0.18
 42
0.0625
 43
0.38
 44
0.18
 45
0.0
 46
0.0
 47
0.0
 48
0.0
140
0.18
141
0.09
142
0.0
143
25.399999999999999
144
1.0
145
0.0
146
1.0
147
0.09
 71
     0
 72
     0
 73
     1
 74
     1
 75
     0
 76
     0
 77
     0
 78
     0
170
     0
171
     2
172
     0
173
     0
174
     0
175
     0
176
     7
177
     7
178
     7
  0
ENDTAB
  0
TABLE
  2
VIEW
 70
     1
  0
VIEW
  2
ALL
 70
     0
 40
4282.6198080000004
 10
0.0
 20
41.309904000000003
 41
5940.0
 11
0.0
 21
0.0
 31
1.0
 12
0.0
 22
0.0
 32
0.0
 42
50.0
 43
0.0
 44
0.0
 50
0.0
 71
     0
  0
ENDTAB
  0
TABLE
  2
UCS
 70
     0
  0
ENDTAB
  0
TABLE
  2
VPORT
 70
     1
  0
VPORT
  2
*ACTIVE
 70
     0
 10
0.0
 20
0.0
 11
1.0
 21
1.0
 12
306.71907452224099
 22
181.8578552516756
 13
0.0
 23
0.0
 14
1.0
 24
1.0
 15
0.0
 25
0.0
 16
0.0
 26
0.0
 36
1.0
 17
0.0
 27
0.0
 37
0.0
 40
1096.286654747742
 41
1.214285714285714
 42
50.0
 43
0.0
 44
0.0
 50
0.0
 51
0.0
 71
     0
 72
  1000
 73
     1
 74
     0
 75
     0
 76
     0
 77
     0
 78
     0
  0
ENDTAB
  0
ENDSEC
  0
SECTION
  2
BLOCKS
  0
BLOCK
  8
0
  2
_ORIGIN
 70
     0
 10
0.0
 20
0.0
 30
0.0
  3
_ORIGIN
  1

  0
CIRCLE
  8
0
  6
CONTINUOUS
 62
     7
 10
0.0
 20
0.0
 30
0.0
 40
0.5
  0
LINE
  8
0
  6
CONTINUOUS
 62
     7
 10
0.0
 20
0.0
 30
0.0
 11
-1.0
 21
0.0
 31
0.0
  0
ENDBLK
  8
0
  0
ENDSEC
  0
SECTION
  2
ENTITIES
  0
CIRCLE
  8
ARRANGE
  6
CONTINUOUS
 62
     1
 10
0.0
 20
0.0
 30
0.0
 40
40.0
  0
POINT
  8
ARRANGE
  6
CONTINUOUS
 62
     1
 10
0.0
 20
0.0
 30
0.0
 39
50.0
  0
LINE
  8
BASIS
  6
DASHDOT
 62
     6
 39
50.0
 10
0.0
 20
-86.15260499999998
 30
0.0
 11
0.0
 21
11.070104000000001
 31
0.0
  0
TEXT
  8
NOTE
  6
CONTINUOUS
 62
     4
 10
157.33129323530869
 20
-44.340762258206638
 30
0.0
 40
64.0
  1
配線接続口
 41
0.9
  0
TEXT
  8
NOTE
  6
CONTINUOUS
 62
     4
 10
157.33129323530869
 20
-120.12733225820659
 30
0.0
 40
64.0
  1
ノックアウト穴 φ27
 41
0.9
  0
LINE
  8
NOTE
  6
CONTINUOUS
 62
     4
 39
50.0
 10
143.99579700000001
 20
-148.12902600000001
 30
0.0
 11
859.27584899999999
 21
-148.12902600000001
 31
0.0
  0
LINE
  8
NOTE
  6
CONTINUOUS
 62
     4
 39
50.0
 10
143.99579700000001
 20
-148.12902600000001
 30
0.0
 11
16.999981999999999
 21
-25.499976
 31
0.0
  0
LINE
  8
NOTE
  6
CONTINUOUS
 62
     4
 10
34.749963999999999
 20
-25.499974000000002
 30
0.0
 11
-0.75
 21
-25.499974000000002
 31
0.0
  0
LINE
  8
NOTE
  6
CONTINUOUS
 62
     4
 10
16.999981999999999
 20
-6.999992
 30
0.0
 11
16.999981999999999
 21
-43.999955999999997
 31
0.0
  0
LINE
  8
SIZE
  6
CONTINUOUS
 62
    30
 10
16.999981999999999
 20
13.000007999999999
 30
0.0
 11
16.999981999999999
 21
123.798945
 31
0.0
  0
LINE
  8
SIZE
  6
CONTINUOUS
 62
    30
 10
0.0
 20
31.070104000000001
 30
0.0
 11
0.0
 21
123.798945
 31
0.0
  0
LINE
  8
SIZE
  6
CONTINUOUS
 62
    30
 10
-12.0
 20
103.798945
 30
0.0
 11
-24.0
 21
103.798945
 31
0.0
  0
LINE
  8
SIZE
  6
CONTINUOUS
 62
    30
 10
28.999981999999999
 20
103.798945
 30
0.0
 11
197.199648
 21
103.798945
 31
0.0
  0
LINE
  8
SIZE
  6
CONTINUOUS
 62
    30
 10
0.0
 20
103.798945
 30
0.0
 11
16.999981999999999
 21
103.798945
 31
0.0
  0
CIRCLE
  8
SIZE
  6
CONTINUOUS
 62
    30
 10
0.0
 20
103.798945
 30
0.0
 40
6.0
  0
LINE
  8
SIZE
  6
CONTINUOUS
 62
    30
 10
0.0
 20
103.798945
 30
0.0
 11
-12.0
 21
103.798945
 31
0.0
  0
CIRCLE
  8
SIZE
  6
CONTINUOUS
 62
    30
 10
16.999981999999999
 20
103.798945
 30
0.0
 40
6.0
  0
LINE
  8
SIZE
  6
CONTINUOUS
 62
    30
 10
16.999981999999999
 20
103.798945
 30
0.0
 11
28.999981999999999
 21
103.798945
 31
0.0
  0
TEXT
  8
SIZE
  6
CONTINUOUS
 62
    30
 10
89.913933857142865
 20
128.798945
 30
0.0
 40
64.0
  1
17
 41
0.9
 72
     1
 11
131.056791
 21
128.798945
 31
0.0
  0
POINT
  8
DEFPOINTS
  6
CONTINUOUS
 62
    30
 10
16.999981999999999
 20
-6.999992
 30
0.0
  0
POINT
  8
DEFPOINTS
  6
CONTINUOUS
 62
    30
 10
0.0
 20
11.070104000000001
 30
0.0
  0
POINT
  8
DEFPOINTS
  6
CONTINUOUS
 62
    30
 10
0.0
 20
103.798945
 30
0.0
  0
LINE
  8
SIZE
  6
CONTINUOUS
 62
    30
 10
-59.999940000000002
 20
19.000001999999999
 30
0.0
 11
-59.999940000000002
 21
258.41731299999998
 31
0.0
  0
LINE
  8
SIZE
  6
CONTINUOUS
 62
    30
 10
59.999940000000002
 20
19.000001999999999
 30
0.0
 11
59.999940000000002
 21
258.41731299999998
 31
0.0
  0
LINE
  8
SIZE
  6
CONTINUOUS
 62
    30
 10
-71.999939999999995
 20
238.41731300000001
 30
0.0
 11
-83.999939999999981
 21
238.41731300000001
 31
0.0
  0
LINE
  8
SIZE
  6
CONTINUOUS
 62
    30
 10
71.999939999999995
 20
238.41731300000001
 30
0.0
 11
83.999939999999981
 21
238.41731300000001
 31
0.0
  0
LINE
  8
SIZE
  6
CONTINUOUS
 62
    30
 10
-59.999940000000002
 20
238.41731300000001
 30
0.0
 11
59.999940000000002
 21
238.41731300000001
 31
0.0
  0
CIRCLE
  8
SIZE
  6
CONTINUOUS
 62
    30
 10
-59.999940000000002
 20
238.41731300000001
 30
0.0
 40
6.0
  0
LINE
  8
SIZE
  6
CONTINUOUS
 62
    30
 10
-59.999940000000002
 20
238.41731300000001
 30
0.0
 11
-71.999940000000024
 21
238.41731300000001
 31
0.0
  0
CIRCLE
  8
SIZE
  6
CONTINUOUS
 62
    30
 10
59.999940000000002
 20
238.41731300000001
 30
0.0
 40
6.0
  0
LINE
  8
SIZE
  6
CONTINUOUS
 62
    30
 10
59.999940000000002
 20
238.41731300000001
 30
0.0
 11
71.999940000000024
 21
238.41731300000001
 31
0.0
  0
TEXT
  8
SIZE
  6
CONTINUOUS
 62
    30
 10
-68.571428571428569
 20
263.41731299999998
 30
0.0
 40
64.0
  1
120
 41
0.9
 72
     1
 11
0.0
 21
263.41731299999998
 31
0.0
  0
POINT
  8
DEFPOINTS
  6
CONTINUOUS
 62
    30
 10
-59.999940000000002
 20
-0.999998
 30
0.0
  0
POINT
  8
DEFPOINTS
  6
CONTINUOUS
 62
    30
 10
59.999940000000002
 20
-0.999998
 30
0.0
  0
POINT
  8
DEFPOINTS
  6
CONTINUOUS
 62
    30
 10
59.999940000000002
 20
238.41731300000001
 30
0.0
  0
LINE
  8
SIZE
  6
CONTINUOUS
 62
    30
 10
-74.99994599999998
 20
0.0
 30
0.0
 11
-294.21383500000002
 21
0.0
 31
0.0
  0
LINE
  8
SIZE
  6
CONTINUOUS
 62
    30
 10
-57.045865999999997
 20
-75.983580000000003
 30
0.0
 11
-294.21383500000002
 21
-75.983580000000003
 31
0.0
  0
LINE
  8
SIZE
  6
CONTINUOUS
 62
    30
 10
-274.21383500000002
 20
-12.0
 30
0.0
 11
-274.21383500000002
 21
-63.983580000000003
 31
0.0
  0
CIRCLE
  8
SIZE
  6
CONTINUOUS
 62
    30
 10
-274.21383500000002
 20
0.0
 30
0.0
 40
6.0
  0
LINE
  8
SIZE
  6
CONTINUOUS
 62
    30
 10
-274.21383500000002
 20
0.0
 30
0.0
 11
-274.21383500000002
 21
-12.0
 31
0.0
  0
CIRCLE
  8
SIZE
  6
CONTINUOUS
 62
    30
 10
-274.21383500000002
 20
-75.983580000000003
 30
0.0
 40
6.0
  0
LINE
  8
SIZE
  6
CONTINUOUS
 62
    30
 10
-274.21383500000002
 20
-75.983580000000003
 30
0.0
 11
-274.21383500000002
 21
-63.983580000000003
 31
0.0
  0
TEXT
  8
SIZE
  6
CONTINUOUS
 62
    30
 10
-299.21383500000002
 20
-83.248932857142862
 30
0.0
 40
64.0
  1
76
 50
90.0
 41
0.9
 72
     1
 11
-299.21383500000002
 21
-37.991790000000002
 31
0.0
  0
POINT
  8
DEFPOINTS
  6
CONTINUOUS
 62
    30
 10
-54.999946000000001
 20
0.0
 30
0.0
  0
POINT
  8
DEFPOINTS
  6
CONTINUOUS
 62
    30
 10
-37.045865999999997
 20
-75.983580000000003
 30
0.0
  0
POINT
  8
DEFPOINTS
  6
CONTINUOUS
 62
    30
 10
-274.21383500000002
 20
-75.983580000000003
 30
0.0
  0
LINE
  8
SIZE
  6
CONTINUOUS
 62
    30
 10
-74.99994599999998
 20
0.0
 30
0.0
 11
-174.21383499999999
 21
0.0
 31
0.0
  0
LINE
  8
SIZE
  6
CONTINUOUS
 62
    30
 10
-53.999966000000001
 20
-25.499974000000002
 30
0.0
 11
-174.21383499999999
 21
-25.499974000000002
 31
0.0
  0
LINE
  8
SIZE
  6
CONTINUOUS
 62
    30
 10
-154.21383499999999
 20
-37.499974000000002
 30
0.0
 11
-154.21383499999999
 21
-49.499974000000002
 31
0.0
  0
LINE
  8
SIZE
  6
CONTINUOUS
 62
    30
 10
-154.21383499999999
 20
12.0
 30
0.0
 11
-154.21383499999999
 21
249.542857
 31
0.0
  0
LINE
  8
SIZE
  6
CONTINUOUS
 62
    30
 10
-154.21383499999999
 20
-25.499974000000002
 30
0.0
 11
-154.21383499999999
 21
0.0
 31
0.0
  0
CIRCLE
  8
SIZE
  6
CONTINUOUS
 62
    30
 10
-154.21383499999999
 20
-25.499974000000002
 30
0.0
 40
6.0
  0
LINE
  8
SIZE
  6
CONTINUOUS
 62
    30
 10
-154.21383499999999
 20
-25.499974000000002
 30
0.0
 11
-154.21383499999999
 21
-37.499974000000002
 31
0.0
  0
CIRCLE
  8
SIZE
  6
CONTINUOUS
 62
    30
 10
-154.21383499999999
 20
0.0
 30
0.0
 40
6.0
  0
LINE
  8
SIZE
  6
CONTINUOUS
 62
    30
 10
-154.21383499999999
 20
0.0
 30
0.0
 11
-154.21383499999999
 21
12.0
 31
0.0
  0
TEXT
  8
SIZE
  6
CONTINUOUS
 62
    30
 10
-179.21383499999999
 20
49.000000428571411
 30
0.0
 40
64.0
  1
25.5
 50
90.0
 41
0.9
 72
     1
 11
-179.21383499999999
 21
136.77142900000001
 31
0.0
  0
POINT
  8
DEFPOINTS
  6
CONTINUOUS
 62
    30
 10
-54.999946000000001
 20
0.0
 30
0.0
  0
POINT
  8
DEFPOINTS
  6
CONTINUOUS
 62
    30
 10
-33.999966000000001
 20
-25.499974000000002
 30
0.0
  0
POINT
  8
DEFPOINTS
  6
CONTINUOUS
 62
    30
 10
-154.21383499999999
 20
-25.499974000000002
 30
0.0
  0
LINE
  8
NOTE
  6
CONTINUOUS
 62
     4
 39
50.0
 10
16.999981999999999
 20
-25.499976
 30
0.0
 11
22.727988
 21
-28.262343999999999
 31
0.0
  0
LINE
  8
NOTE
  6
CONTINUOUS
 62
     4
 39
50.0
 10
16.999981999999999
 20
-25.499976
 30
0.0
 11
19.932112
 21
-31.142966999999999
 31
0.0
  0
LINE
  8
OUTLINE
  6
CONTINUOUS
 62
     3
 10
-57.539307999999998
 20
-69.162896000000003
 30
0.0
 11
-57.885662000000004
 21
-52.999721999999998
 31
0.0
  0
LINE
  8
OUTLINE
  6
CONTINUOUS
 62
     3
 10
57.539306000000003
 20
-69.162896000000003
 30
0.0
 11
57.885660000000001
 21
-52.999721999999998
 31
0.0
  0
LINE
  8
OUTLINE
  6
CONTINUOUS
 62
     3
 10
54.999943999999999
 20
0.0
 30
0.0
 11
-54.999946000000001
 21
0.0
 31
0.0
  0
LINE
  8
OUTLINE
  6
CONTINUOUS
 62
     3
 10
-58.933101999999998
 20
-50.785794000000003
 30
0.0
 11
-59.999940000000002
 21
-1.0
 31
0.0
  0
LINE
  8
OUTLINE
  6
CONTINUOUS
 62
     3
 10
-59.999940000000002
 20
-1.0
 30
0.0
 11
-54.999946000000001
 21
-1.0
 31
0.0
  0
LINE
  8
OUTLINE
  6
CONTINUOUS
 62
     3
 10
-56.199944000000002
 20
0.0
 30
0.0
 11
-56.999943999999999
 21
0.0
 31
0.0
  0
LINE
  8
OUTLINE
  6
CONTINUOUS
 62
     3
 10
-56.199944000000002
 20
-1.0
 30
0.0
 11
-56.199944000000002
 21
0.0
 31
0.0
  0
LINE
  8
OUTLINE
  6
CONTINUOUS
 62
     3
 10
-56.999943999999999
 20
-1.0
 30
0.0
 11
-56.999943999999999
 21
0.0
 31
0.0
  0
LINE
  8
OUTLINE
  6
CONTINUOUS
 62
     3
 10
-54.999946000000001
 20
-1.0
 30
0.0
 11
-54.999946000000001
 21
0.0
 31
0.0
  0
ARC
  8
OUTLINE
  6
CONTINUOUS
 62
     3
 10
-55.933793999999999
 20
-50.721524000000002
 30
0.0
 40
2.999998
 50
181.22757899999999
 51
229.411383
  0
LINE
  8
OUTLINE
  6
CONTINUOUS
 62
     3
 10
58.933100000000003
 20
-50.785794000000003
 30
0.0
 11
59.999940000000002
 21
-1.0
 31
0.0
  0
LINE
  8
OUTLINE
  6
CONTINUOUS
 62
     3
 10
54.999943999999999
 20
-1.0
 30
0.0
 11
59.999940000000002
 21
-1.0
 31
0.0
  0
LINE
  8
OUTLINE
  6
CONTINUOUS
 62
     3
 10
56.199944000000002
 20
0.0
 30
0.0
 11
56.999941999999997
 21
0.0
 31
0.0
  0
LINE
  8
OUTLINE
  6
CONTINUOUS
 62
     3
 10
56.199944000000002
 20
-1.0
 30
0.0
 11
56.199944000000002
 21
0.0
 31
0.0
  0
LINE
  8
OUTLINE
  6
CONTINUOUS
 62
     3
 10
56.999941999999997
 20
-1.0
 30
0.0
 11
56.999941999999997
 21
0.0
 31
0.0
  0
LINE
  8
OUTLINE
  6
CONTINUOUS
 62
     3
 10
54.999943999999999
 20
-1.0
 30
0.0
 11
54.999943999999999
 21
0.0
 31
0.0
  0
ARC
  8
OUTLINE
  6
CONTINUOUS
 62
     3
 10
55.933791999999997
 20
-50.721524000000002
 30
0.0
 40
2.999998
 50
310.588617
 51
358.77242100000001
  0
ARC
  8
OUTLINE
  6
CONTINUOUS
 62
     3
 10
0.0
 20
-28.999972
 30
0.0
 40
49.999949999999998
 50
254.614857
 51
285.38514300000008
  0
LINE
  8
OUTLINE
  6
CONTINUOUS
 62
     3
 10
33.999966000000001
 20
-73.999926000000002
 30
0.0
 11
13.999986
 21
-73.999926000000002
 31
0.0
  0
ARC
  8
OUTLINE
  6
CONTINUOUS
 62
     3
 10
-36.64331
 20
-29.999970000000001
 30
0.0
 40
45.999954000000002
 50
245.404934
 51
269.34828299999998
  0
ARC
  8
OUTLINE
  6
CONTINUOUS
 62
     3
 10
-54.539999999999999
 20
-69.098625999999996
 30
0.0
 40
2.999998
 50
181.22757899999999
 51
245.404934
  0
ARC
  8
OUTLINE
  6
CONTINUOUS
 62
     3
 10
-33.999966000000001
 20
-76.999923999999979
 30
0.0
 40
2.999996
 50
90.0
 51
154.56972500000001
  0
ARC
  8
OUTLINE
  6
CONTINUOUS
 62
     3
 10
-37.160843999999997
 20
-75.496982000000003
 30
0.0
 40
0.5
 50
269.34828299999998
 51
334.56972500000001
  0
ARC
  8
OUTLINE
  6
CONTINUOUS
 62
     3
 10
-12.999988
 20
-76.243971999999999
 30
0.0
 40
0.999998
 50
180.0
 51
254.614857
  0
LINE
  8
OUTLINE
  6
CONTINUOUS
 62
     3
 10
-13.999986
 20
-76.243971999999999
 30
0.0
 11
-13.999986
 21
-73.999926000000002
 31
0.0
  0
ARC
  8
OUTLINE
  6
CONTINUOUS
 62
     3
 10
-14.299986000000001
 20
-74.299925999999999
 30
0.0
 40
0.3
 50
0.0
 51
90.0
  0
ARC
  8
OUTLINE
  6
CONTINUOUS
 62
     3
 10
36.64331
 20
-29.999970000000001
 30
0.0
 40
45.999954000000002
 50
270.65171700000002
 51
294.59506599999997
  0
ARC
  8
OUTLINE
  6
CONTINUOUS
 62
     3
 10
12.999986
 20
-76.243971999999999
 30
0.0
 40
1.0
 50
285.38514300000008
 51
0.0
  0
LINE
  8
OUTLINE
  6
CONTINUOUS
 62
     3
 10
13.999986
 20
-76.243971999999999
 30
0.0
 11
13.999986
 21
-73.999926000000002
 31
0.0
  0
ARC
  8
OUTLINE
  6
CONTINUOUS
 62
     3
 10
14.299986000000001
 20
-74.299925999999999
 30
0.0
 40
0.3
 50
90.0
 51
180.0
  0
ARC
  8
OUTLINE
  6
CONTINUOUS
 62
     3
 10
33.999966000000001
 20
-76.999923999999979
 30
0.0
 40
2.999998
 50
25.430275000000002
 51
90.0
  0
ARC
  8
OUTLINE
  6
CONTINUOUS
 62
     3
 10
37.160842000000002
 20
-75.496982000000003
 30
0.0
 40
0.5
 50
205.43027499999999
 51
270.65171700000002
  0
ARC
  8
OUTLINE
  6
CONTINUOUS
 62
     3
 10
54.539997999999997
 20
-69.098625999999996
 30
0.0
 40
2.999998
 50
294.59506599999997
 51
358.77242100000001
  0
LINE
  8
DETAIL
  6
CONTINUOUS
 62
     5
 10
-57.539307999999998
 20
-69.162896000000003
 30
0.0
 11
-57.885662000000004
 21
-52.999721999999998
 31
0.0
  0
LINE
  8
DETAIL
  6
CONTINUOUS
 62
     5
 10
57.539306000000003
 20
-69.162896000000003
 30
0.0
 11
57.885660000000001
 21
-52.999721999999998
 31
0.0
  0
ARC
  8
DETAIL
  6
CONTINUOUS
 62
     5
 10
16.999981999999999
 20
-25.499976
 30
0.0
 40
19.999980000000001
 50
180.0
 51
0.0
  0
LINE
  8
DETAIL
  6
CONTINUOUS
 62
     5
 10
29.999970000000001
 20
-4.999996
 30
0.0
 11
3.999996
 21
-4.999996
 31
0.0
  0
CIRCLE
  8
DETAIL
  6
CONTINUOUS
 62
     5
 10
16.999981999999999
 20
-25.499976
 30
0.0
 40
13.499986
  0
LINE
  8
DETAIL
  6
CONTINUOUS
 62
     5
 10
54.999943999999999
 20
0.0
 30
0.0
 11
-54.999946000000001
 21
0.0
 31
0.0
  0
LINE
  8
DETAIL
  6
CONTINUOUS
 62
     5
 10
-7.210848
 20
-52.999948000000003
 30
0.0
 11
7.201142
 21
-52.999948000000003
 31
0.0
  0
ARC
  8
DETAIL
  6
CONTINUOUS
 62
     5
 10
0.0
 20
-52.999948000000003
 30
0.0
 40
6.999994
 50
192.838122
 51
347.161878
  0
ARC
  8
DETAIL
  6
CONTINUOUS
 62
     5
 10
16.999981999999999
 20
-25.499976
 30
0.0
 40
21.999977999999999
 50
180.0
 51
0.0
  0
LINE
  8
DETAIL
  6
CONTINUOUS
 62
     5
 10
-58.933101999999998
 20
-50.785794000000003
 30
0.0
 11
-59.999940000000002
 21
-1.0
 31
0.0
  0
LINE
  8
DETAIL
  6
CONTINUOUS
 62
     5
 10
-6.999994
 20
-1.0
 30
0.0
 11
-59.999940000000002
 21
-1.0
 31
0.0
  0
LINE
  8
DETAIL
  6
CONTINUOUS
 62
     5
 10
-59.999940000000002
 20
-1.0
 30
0.0
 11
-41.999957999999999
 21
-1.0
 31
0.0
  0
LINE
  8
DETAIL
  6
CONTINUOUS
 62
     5
 10
-56.199944000000002
 20
0.0
 30
0.0
 11
-56.999943999999999
 21
0.0
 31
0.0
  0
LINE
  8
DETAIL
  6
CONTINUOUS
 62
     5
 10
-56.199944000000002
 20
-1.0
 30
0.0
 11
-56.199944000000002
 21
0.0
 31
0.0
  0
LINE
  8
DETAIL
  6
CONTINUOUS
 62
     5
 10
-56.999943999999999
 20
-1.0
 30
0.0
 11
-56.999943999999999
 21
0.0
 31
0.0
  0
LINE
  8
DETAIL
  6
CONTINUOUS
 62
     5
 10
-54.999946000000001
 20
-1.0
 30
0.0
 11
-54.999946000000001
 21
0.0
 31
0.0
  0
ARC
  8
DETAIL
  6
CONTINUOUS
 62
     5
 10
3.999996
 20
-11.999988
 30
0.0
 40
6.999994
 50
90.0
 51
180.0
  0
LINE
  8
DETAIL
  6
CONTINUOUS
 62
     5
 10
-4.999996
 20
-2.999998
 30
0.0
 11
-4.999996
 21
-25.499976
 31
0.0
  0
ARC
  8
DETAIL
  6
CONTINUOUS
 62
     5
 10
-6.999994
 20
-2.999998
 30
0.0
 40
1.999998
 50
0.0
 51
90.0
  0
LINE
  8
DETAIL
  6
CONTINUOUS
 62
     5
 10
-2.999998
 20
-11.999988
 30
0.0
 11
-2.999998
 21
-25.499976
 31
0.0
  0
ARC
  8
DETAIL
  6
CONTINUOUS
 62
     5
 10
-32.249968000000003
 20
-55.999943999999999
 30
0.0
 40
0.75
 50
90.0
 51
270.0
  0
ARC
  8
DETAIL
  6
CONTINUOUS
 62
     5
 10
-32.249968000000003
 20
-59.499941999999997
 30
0.0
 40
0.75
 50
90.0
 51
270.0
  0
ARC
  8
DETAIL
  6
CONTINUOUS
 62
     5
 10
-32.249968000000003
 20
-62.999938
 30
0.0
 40
0.75
 50
90.0
 51
270.0
  0
LINE
  8
DETAIL
  6
CONTINUOUS
 62
     5
 10
-8.775007999999998
 20
-52.999721999999998
 30
0.0
 11
-57.885662000000004
 21
-52.999721999999998
 31
0.0
  0
ARC
  8
DETAIL
  6
CONTINUOUS
 62
     5
 10
-32.249968000000003
 20
-47.999952
 30
0.0
 40
0.75
 50
90.0
 51
270.0
  0
ARC
  8
DETAIL
  6
CONTINUOUS
 62
     5
 10
-32.249968000000003
 20
-44.499955999999997
 30
0.0
 40
0.75
 50
90.0
 51
270.0
  0
ARC
  8
DETAIL
  6
CONTINUOUS
 62
     5
 10
-32.249968000000003
 20
-40.999960000000002
 30
0.0
 40
0.75
 50
90.0
 51
270.0
  0
ARC
  8
DETAIL
  6
CONTINUOUS
 62
     5
 10
-55.933793999999999
 20
-50.721524000000002
 30
0.0
 40
2.999998
 50
181.22757899999999
 51
229.411383
  0
CIRCLE
  8
DETAIL
  6
CONTINUOUS
 62
     5
 10
0.0
 20
-52.999948000000003
 30
0.0
 40
4.699996
  0
ARC
  8
DETAIL
  6
CONTINUOUS
 62
     5
 10
-8.749992000000001
 20
-47.999952
 30
0.0
 40
0.75
 50
270.0
 51
90.0
  0
LINE
  8
DETAIL
  6
CONTINUOUS
 62
     5
 10
-21.249980000000001
 20
-48.749952
 30
0.0
 11
-21.249980000000001
 21
-47.249954000000002
 31
0.0
  0
LINE
  8
DETAIL
  6
CONTINUOUS
 62
     5
 10
-19.749980000000001
 20
-48.749952
 30
0.0
 11
-19.749980000000001
 21
-47.249954000000002
 31
0.0
  0
LINE
  8
DETAIL
  6
CONTINUOUS
 62
     5
 10
-32.249968000000003
 20
-47.249954000000002
 30
0.0
 11
-8.749992000000001
 21
-47.249954000000002
 31
0.0
  0
LINE
  8
DETAIL
  6
CONTINUOUS
 62
     5
 10
-32.249968000000003
 20
-45.249955999999997
 30
0.0
 11
-8.749992000000001
 21
-45.249955999999997
 31
0.0
  0
LINE
  8
DETAIL
  6
CONTINUOUS
 62
     5
 10
-32.249968000000003
 20
-43.749955999999997
 30
0.0
 11
-8.749992000000001
 21
-43.749955999999997
 31
0.0
  0
LINE
  8
DETAIL
  6
CONTINUOUS
 62
     5
 10
-32.249968000000003
 20
-41.749957999999999
 30
0.0
 11
-8.749992000000001
 21
-41.749957999999999
 31
0.0
  0
LINE
  8
DETAIL
  6
CONTINUOUS
 62
     5
 10
-32.249968000000003
 20
-40.249960000000002
 30
0.0
 11
-8.749992000000001
 21
-40.249960000000002
 31
0.0
  0
LINE
  8
DETAIL
  6
CONTINUOUS
 62
     5
 10
-21.249980000000001
 20
-41.749957999999999
 30
0.0
 11
-21.249980000000001
 21
-40.249960000000002
 31
0.0
  0
LINE
  8
DETAIL
  6
CONTINUOUS
 62
     5
 10
-19.749980000000001
 20
-41.749957999999999
 30
0.0
 11
-19.749980000000001
 21
-40.249960000000002
 31
0.0
  0
LINE
  8
DETAIL
  6
CONTINUOUS
 62
     5
 10
-21.249980000000001
 20
-45.249955999999997
 30
0.0
 11
-21.249980000000001
 21
-43.749955999999997
 31
0.0
  0
LINE
  8
DETAIL
  6
CONTINUOUS
 62
     5
 10
-19.749980000000001
 20
-45.249955999999997
 30
0.0
 11
-19.749980000000001
 21
-43.749955999999997
 31
0.0
  0
ARC
  8
DETAIL
  6
CONTINUOUS
 62
     5
 10
-8.749992000000001
 20
-44.499955999999997
 30
0.0
 40
0.75
 50
270.0
 51
90.0
  0
ARC
  8
DETAIL
  6
CONTINUOUS
 62
     5
 10
-8.749992000000001
 20
-40.999960000000002
 30
0.0
 40
0.75
 50
270.0
 51
90.0
  0
LINE
  8
DETAIL
  6
CONTINUOUS
 62
     5
 10
-32.249968000000003
 20
-56.749943999999999
 30
0.0
 11
-8.749992000000001
 21
-56.749943999999999
 31
0.0
  0
LINE
  8
DETAIL
  6
CONTINUOUS
 62
     5
 10
-32.249968000000003
 20
-55.249946000000001
 30
0.0
 11
-8.749992000000001
 21
-55.249946000000001
 31
0.0
  0
LINE
  8
DETAIL
  6
CONTINUOUS
 62
     5
 10
-32.249968000000003
 20
-60.249940000000002
 30
0.0
 11
-8.749992000000001
 21
-60.249940000000002
 31
0.0
  0
LINE
  8
DETAIL
  6
CONTINUOUS
 62
     5
 10
-32.249968000000003
 20
-58.749941999999997
 30
0.0
 11
-8.749992000000001
 21
-58.749941999999997
 31
0.0
  0
LINE
  8
DETAIL
  6
CONTINUOUS
 62
     5
 10
-32.249968000000003
 20
-63.749935999999998
 30
0.0
 11
-8.749992000000001
 21
-63.749935999999998
 31
0.0
  0
LINE
  8
DETAIL
  6
CONTINUOUS
 62
     5
 10
-32.249968000000003
 20
-62.249938
 30
0.0
 11
-8.749992000000001
 21
-62.249938
 31
0.0
  0
LINE
  8
DETAIL
  6
CONTINUOUS
 62
     5
 10
-32.249968000000003
 20
-48.749952
 30
0.0
 11
-8.749992000000001
 21
-48.749952
 31
0.0
  0
LINE
  8
DETAIL
  6
CONTINUOUS
 62
     5
 10
-19.749980000000001
 20
-56.749943999999999
 30
0.0
 11
-19.749980000000001
 21
-55.249946000000001
 31
0.0
  0
LINE
  8
DETAIL
  6
CONTINUOUS
 62
     5
 10
-21.249980000000001
 20
-56.749943999999999
 30
0.0
 11
-21.249980000000001
 21
-55.249946000000001
 31
0.0
  0
LINE
  8
DETAIL
  6
CONTINUOUS
 62
     5
 10
-19.749980000000001
 20
-63.749935999999998
 30
0.0
 11
-19.749980000000001
 21
-62.249938
 31
0.0
  0
LINE
  8
DETAIL
  6
CONTINUOUS
 62
     5
 10
-19.749980000000001
 20
-60.249940000000002
 30
0.0
 11
-19.749980000000001
 21
-58.749941999999997
 31
0.0
  0
LINE
  8
DETAIL
  6
CONTINUOUS
 62
     5
 10
-21.249980000000001
 20
-60.249940000000002
 30
0.0
 11
-21.249980000000001
 21
-58.749941999999997
 31
0.0
  0
LINE
  8
DETAIL
  6
CONTINUOUS
 62
     5
 10
-21.249980000000001
 20
-63.749935999999998
 30
0.0
 11
-21.249980000000001
 21
-62.249938
 31
0.0
  0
ARC
  8
DETAIL
  6
CONTINUOUS
 62
     5
 10
-8.749992000000001
 20
-55.999943999999999
 30
0.0
 40
0.75
 50
270.0
 51
90.0
  0
ARC
  8
DETAIL
  6
CONTINUOUS
 62
     5
 10
-8.775007999999998
 20
-54.999720000000003
 30
0.0
 40
1.999998
 50
12.838122
 51
90.0
  0
LINE
  8
DETAIL
  6
CONTINUOUS
 62
     5
 10
1.484924
 20
-54.484867999999999
 30
0.0
 11
-1.484926
 21
-51.515028000000001
 31
0.0
  0
LINE
  8
DETAIL
  6
CONTINUOUS
 62
     5
 10
-1.48492
 20
-54.484872000000003
 30
0.0
 11
1.48492
 21
-51.515022000000002
 31
0.0
  0
ARC
  8
DETAIL
  6
CONTINUOUS
 62
     5
 10
-8.749992000000001
 20
-59.499941999999997
 30
0.0
 40
0.75
 50
270.0
 51
90.0
  0
ARC
  8
DETAIL
  6
CONTINUOUS
 62
     5
 10
-8.749992000000001
 20
-62.999938
 30
0.0
 40
0.75
 50
270.0
 51
90.0
  0
LINE
  8
DETAIL
  6
CONTINUOUS
 62
     5
 10
58.933100000000003
 20
-50.785794000000003
 30
0.0
 11
59.999940000000002
 21
-1.0
 31
0.0
  0
LINE
  8
DETAIL
  6
CONTINUOUS
 62
     5
 10
40.999957999999999
 20
-1.0
 30
0.0
 11
59.999940000000002
 21
-1.0
 31
0.0
  0
ARC
  8
DETAIL
  6
CONTINUOUS
 62
     5
 10
29.999970000000001
 20
-11.999988
 30
0.0
 40
6.999992
 50
0.0
 51
90.0
  0
LINE
  8
DETAIL
  6
CONTINUOUS
 62
     5
 10
38.999960000000002
 20
-2.999998
 30
0.0
 11
38.999960000000002
 21
-25.499976
 31
0.0
  0
ARC
  8
DETAIL
  6
CONTINUOUS
 62
     5
 10
40.999957999999999
 20
-2.999998
 30
0.0
 40
1.999998
 50
90.0
 51
180.0
  0
LINE
  8
DETAIL
  6
CONTINUOUS
 62
     5
 10
36.999961999999996
 20
-11.999988
 30
0.0
 11
36.999961999999996
 21
-25.499976
 31
0.0
  0
LINE
  8
DETAIL
  6
CONTINUOUS
 62
     5
 10
56.199944000000002
 20
0.0
 30
0.0
 11
56.999941999999997
 21
0.0
 31
0.0
  0
LINE
  8
DETAIL
  6
CONTINUOUS
 62
     5
 10
56.199944000000002
 20
-1.0
 30
0.0
 11
56.199944000000002
 21
0.0
 31
0.0
  0
LINE
  8
DETAIL
  6
CONTINUOUS
 62
     5
 10
56.999941999999997
 20
-1.0
 30
0.0
 11
56.999941999999997
 21
0.0
 31
0.0
  0
LINE
  8
DETAIL
  6
CONTINUOUS
 62
     5
 10
54.999943999999999
 20
-1.0
 30
0.0
 11
54.999943999999999
 21
0.0
 31
0.0
  0
LINE
  8
DETAIL
  6
CONTINUOUS
 62
     5
 10
8.775005999999998
 20
-52.999721999999998
 30
0.0
 11
57.885660000000001
 21
-52.999721999999998
 31
0.0
  0
LINE
  8
DETAIL
  6
CONTINUOUS
 62
     5
 10
32.249968000000003
 20
-63.749935999999998
 30
0.0
 11
8.74999
 21
-63.749935999999998
 31
0.0
  0
LINE
  8
DETAIL
  6
CONTINUOUS
 62
     5
 10
32.249968000000003
 20
-62.249938
 30
0.0
 11
8.74999
 21
-62.249938
 31
0.0
  0
LINE
  8
DETAIL
  6
CONTINUOUS
 62
     5
 10
32.249968000000003
 20
-60.249940000000002
 30
0.0
 11
8.74999
 21
-60.249940000000002
 31
0.0
  0
LINE
  8
DETAIL
  6
CONTINUOUS
 62
     5
 10
32.249968000000003
 20
-58.749941999999997
 30
0.0
 11
8.74999
 21
-58.749941999999997
 31
0.0
  0
LINE
  8
DETAIL
  6
CONTINUOUS
 62
     5
 10
32.249968000000003
 20
-56.749943999999999
 30
0.0
 11
8.74999
 21
-56.749943999999999
 31
0.0
  0
LINE
  8
DETAIL
  6
CONTINUOUS
 62
     5
 10
32.249968000000003
 20
-55.249946000000001
 30
0.0
 11
8.74999
 21
-55.249946000000001
 31
0.0
  0
ARC
  8
DETAIL
  6
CONTINUOUS
 62
     5
 10
8.74999
 20
-55.999943999999999
 30
0.0
 40
0.75
 50
90.0
 51
270.0
  0
LINE
  8
DETAIL
  6
CONTINUOUS
 62
     5
 10
6.999992
 20
-54.999720000000003
 30
0.0
 11
6.999992
 21
-54.999946000000001
 31
0.0
  0
ARC
  8
DETAIL
  6
CONTINUOUS
 62
     5
 10
8.775005999999998
 20
-54.999720000000003
 30
0.0
 40
1.999998
 50
90.0
 51
167.161878
  0
LINE
  8
DETAIL
  6
CONTINUOUS
 62
     5
 10
19.749980000000001
 20
-56.749943999999999
 30
0.0
 11
19.749980000000001
 21
-55.249946000000001
 31
0.0
  0
LINE
  8
DETAIL
  6
CONTINUOUS
 62
     5
 10
21.249977999999999
 20
-56.749943999999999
 30
0.0
 11
21.249977999999999
 21
-55.249946000000001
 31
0.0
  0
ARC
  8
DETAIL
  6
CONTINUOUS
 62
     5
 10
8.74999
 20
-62.999938
 30
0.0
 40
0.75
 50
90.0
 51
270.0
  0
ARC
  8
DETAIL
  6
CONTINUOUS
 62
     5
 10
8.74999
 20
-59.499941999999997
 30
0.0
 40
0.75
 50
90.0
 51
270.0
  0
LINE
  8
DETAIL
  6
CONTINUOUS
 62
     5
 10
19.749980000000001
 20
-60.249940000000002
 30
0.0
 11
19.749980000000001
 21
-58.749941999999997
 31
0.0
  0
LINE
  8
DETAIL
  6
CONTINUOUS
 62
     5
 10
19.749980000000001
 20
-63.749935999999998
 30
0.0
 11
19.749980000000001
 21
-62.249938
 31
0.0
  0
LINE
  8
DETAIL
  6
CONTINUOUS
 62
     5
 10
21.249977999999999
 20
-60.249940000000002
 30
0.0
 11
21.249977999999999
 21
-58.749941999999997
 31
0.0
  0
LINE
  8
DETAIL
  6
CONTINUOUS
 62
     5
 10
21.249977999999999
 20
-63.749935999999998
 30
0.0
 11
21.249977999999999
 21
-62.249938
 31
0.0
  0
ARC
  8
DETAIL
  6
CONTINUOUS
 62
     5
 10
32.249968000000003
 20
-55.999943999999999
 30
0.0
 40
0.75
 50
270.0
 51
90.0
  0
ARC
  8
DETAIL
  6
CONTINUOUS
 62
     5
 10
32.249968000000003
 20
-62.999938
 30
0.0
 40
0.75
 50
270.0
 51
90.0
  0
ARC
  8
DETAIL
  6
CONTINUOUS
 62
     5
 10
32.249968000000003
 20
-59.499941999999997
 30
0.0
 40
0.75
 50
270.0
 51
90.0
  0
ARC
  8
DETAIL
  6
CONTINUOUS
 62
     5
 10
55.933791999999997
 20
-50.721524000000002
 30
0.0
 40
2.999998
 50
310.588617
 51
358.77242100000001
  0
ARC
  8
DETAIL
  6
CONTINUOUS
 62
     5
 10
0.0
 20
-28.999972
 30
0.0
 40
49.999949999999998
 50
254.614857
 51
285.38514300000008
  0
LINE
  8
DETAIL
  6
CONTINUOUS
 62
     5
 10
33.999966000000001
 20
-73.999926000000002
 30
0.0
 11
-33.999966000000001
 21
-73.999926000000002
 31
0.0
  0
LINE
  8
DETAIL
  6
CONTINUOUS
 62
     5
 10
0.0
 20
-70.99993000000002
 30
0.0
 11
55.672781999999998
 21
-70.99993000000002
 31
0.0
  0
LINE
  8
DETAIL
  6
CONTINUOUS
 62
     5
 10
0.0
 20
-70.99993000000002
 30
0.0
 11
-55.672784
 21
-70.99993000000002
 31
0.0
  0
ARC
  8
DETAIL
  6
CONTINUOUS
 62
     5
 10
-36.64331
 20
-29.999970000000001
 30
0.0
 40
45.999954000000002
 50
245.404934
 51
269.34828299999998
  0
ARC
  8
DETAIL
  6
CONTINUOUS
 62
     5
 10
-54.539999999999999
 20
-69.098625999999996
 30
0.0
 40
2.999998
 50
181.22757899999999
 51
245.404934
  0
ARC
  8
DETAIL
  6
CONTINUOUS
 62
     5
 10
-33.999966000000001
 20
-76.999923999999979
 30
0.0
 40
2.999996
 50
90.0
 51
154.56972500000001
  0
ARC
  8
DETAIL
  6
CONTINUOUS
 62
     5
 10
-37.160843999999997
 20
-75.496982000000003
 30
0.0
 40
0.5
 50
269.34828299999998
 51
334.56972500000001
  0
ARC
  8
DETAIL
  6
CONTINUOUS
 62
     5
 10
-12.999988
 20
-76.243971999999999
 30
0.0
 40
0.999998
 50
180.0
 51
254.614857
  0
LINE
  8
DETAIL
  6
CONTINUOUS
 62
     5
 10
-13.999986
 20
-76.243971999999999
 30
0.0
 11
-13.999986
 21
-73.999926000000002
 31
0.0
  0
ARC
  8
DETAIL
  6
CONTINUOUS
 62
     5
 10
-14.299986000000001
 20
-74.299925999999999
 30
0.0
 40
0.3
 50
0.0
 51
90.0
  0
ARC
  8
DETAIL
  6
CONTINUOUS
 62
     5
 10
36.64331
 20
-29.999970000000001
 30
0.0
 40
45.999954000000002
 50
270.65171700000002
 51
294.59506599999997
  0
ARC
  8
DETAIL
  6
CONTINUOUS
 62
     5
 10
12.999986
 20
-76.243971999999999
 30
0.0
 40
1.0
 50
285.38514300000008
 51
0.0
  0
LINE
  8
DETAIL
  6
CONTINUOUS
 62
     5
 10
13.999986
 20
-76.243971999999999
 30
0.0
 11
13.999986
 21
-73.999926000000002
 31
0.0
  0
ARC
  8
DETAIL
  6
CONTINUOUS
 62
     5
 10
14.299986000000001
 20
-74.299925999999999
 30
0.0
 40
0.3
 50
90.0
 51
180.0
  0
ARC
  8
DETAIL
  6
CONTINUOUS
 62
     5
 10
33.999966000000001
 20
-76.999923999999979
 30
0.0
 40
2.999998
 50
25.430275000000002
 51
90.0
  0
ARC
  8
DETAIL
  6
CONTINUOUS
 62
     5
 10
37.160842000000002
 20
-75.496982000000003
 30
0.0
 40
0.5
 50
205.43027499999999
 51
270.65171700000002
  0
ARC
  8
DETAIL
  6
CONTINUOUS
 62
     5
 10
54.539997999999997
 20
-69.098625999999996
 30
0.0
 40
2.999998
 50
294.59506599999997
 51
358.77242100000001
  0
LINE
  8
OUTLINE
  6
CONTINUOUS
 62
     3
 10
-13.999986
 20
-73.999926000000002
 30
0.0
 11
-33.999966000000001
 21
-73.999926000000002
 31
0.0
  0
TEXT
  8
ETC
  6
CONTINUOUS
 62
    61
 10
366.62473488787941
 20
459.14612723597338
 30
0.0
 40
64.0
  1
FS-10HE3_6
 41
0.9
  0
TEXT
  8
ETC
  6
CONTINUOUS
 62
    61
 10
362.43874088787942
 20
341.19081723597333
 30
0.0
 40
64.0
  1
システム部材
 41
0.9
  0
TEXT
  8
ETC
  6
CONTINUOUS
 62
    61
 10
414.35421050922201
 20
267.03401904344508
 30
0.0
 40
40.0
  1
FS-10HE3
 50
0.0
 41
0.9
 51
0.0
  7
STANDARD
 71
     0
 11
0.0
 21
0.0
 31
0.0
210
0.0
220
0.0
230
1.0
  0
TEXT
  8
ETC
  6
CONTINUOUS
 62
    61
 10
414.35421050922201
 20
201.03401904344508
 30
0.0
 40
40.0
  1
FS-10TE3
 50
0.0
 41
0.9
 51
0.0
  7
STANDARD
 71
     0
 11
0.0
 21
0.0
 31
0.0
210
0.0
220
0.0
230
1.0
  0
TEXT
  8
ETC
  6
CONTINUOUS
 62
    61
 10
414.35421050922201
 20
135.03401904344508
 30
0.0
 40
40.0
  1
FS-10TET3
 50
0.0
 41
0.9
 51
0.0
  7
STANDARD
 71
     0
 11
0.0
 21
0.0
 31
0.0
210
0.0
220
0.0
230
1.0
  0
ENDSEC
  0
EOF
