  0
SECTION
  2
HEADER
  9
$ACADVER
  1
AC1015
  9
$ACADMAINTVER
 70
    20
  9
$DWGCODEPAGE
  3
ANSI_932
  9
$INSBASE
 10
0.0
 20
0.0
 30
0.0
  9
$EXTMIN
 10
-854.3872759511796
 20
-431.8615745741298
 30
0.0
  9
$EXTMAX
 10
1055.026559308827
 20
640.0563642873223
 30
50.0
  9
$LIMMIN
 10
-2970.0
 20
-2100.0
  9
$LIMMAX
 10
2970.0
 20
2100.0
  9
$ORTHOMODE
 70
     1
  9
$REGENMODE
 70
     0
  9
$FILLMODE
 70
     1
  9
$QTEXTMODE
 70
     0
  9
$MIRRTEXT
 70
     0
  9
$LTSCALE
 40
20.0
  9
$ATTMODE
 70
     1
  9
$TEXTSIZE
 40
64.0
  9
$TRACEWID
 40
0.05
  9
$TEXTSTYLE
  7
STANDARD
  9
$CLAYER
  8
0
  9
$CELTYPE
  6
ByLayer
  9
$CECOLOR
 62
   256
  9
$CELTSCALE
 40
1.0
  9
$DISPSILH
 70
     0
  9
$DIMSCALE
 40
1.0
  9
$DIMASZ
 40
0.12
  9
$DIMEXO
 40
0.05
  9
$DIMDLI
 40
0.5
  9
$DIMRND
 40
0.0
  9
$DIMDLE
 40
0.0
  9
$DIMEXE
 40
0.1
  9
$DIMTP
 40
0.1
  9
$DIMTM
 40
0.1
  9
$DIMTXT
 40
0.12
  9
$DIMCEN
 40
0.0
  9
$DIMTSZ
 40
0.0
  9
$DIMTOL
 70
     0
  9
$DIMLIM
 70
     0
  9
$DIMTIH
 70
     1
  9
$DIMTOH
 70
     1
  9
$DIMSE1
 70
     0
  9
$DIMSE2
 70
     0
  9
$DIMTAD
 70
     0
  9
$DIMZIN
 70
     7
  9
$DIMBLK
  1

  9
$DIMASO
 70
     1
  9
$DIMSHO
 70
     0
  9
$DIMPOST
  1

  9
$DIMAPOST
  1
mm
  9
$DIMALT
 70
     0
  9
$DIMALTD
 70
     2
  9
$DIMALTF
 40
25.4
  9
$DIMLFAC
 40
1.0
  9
$DIMTOFL
 70
     0
  9
$DIMTVP
 40
0.0
  9
$DIMTIX
 70
     0
  9
$DIMSOXD
 70
     0
  9
$DIMSAH
 70
     0
  9
$DIMBLK1
  1

  9
$DIMBLK2
  1

  9
$DIMSTYLE
  2
AM_ANSI
  9
$DIMCLRD
 70
   256
  9
$DIMCLRE
 70
   256
  9
$DIMCLRT
 70
     2
  9
$DIMTFAC
 40
0.71
  9
$DIMGAP
 40
0.06
  9
$DIMJUST
 70
     0
  9
$DIMSD1
 70
     0
  9
$DIMSD2
 70
     0
  9
$DIMTOLJ
 70
     1
  9
$DIMTZIN
 70
     7
  9
$DIMALTZ
 70
     0
  9
$DIMALTTZ
 70
     0
  9
$DIMUPT
 70
     0
  9
$DIMDEC
 70
     4
  9
$DIMTDEC
 70
     4
  9
$DIMALTU
 70
     2
  9
$DIMALTTD
 70
     4
  9
$DIMTXSTY
  7
STANDARD
  9
$DIMAUNIT
 70
     0
  9
$DIMADEC
 70
     0
  9
$DIMALTRND
 40
0.0
  9
$DIMAZIN
 70
     2
  9
$DIMDSEP
 70
    46
  9
$DIMATFIT
 70
     3
  9
$DIMFRAC
 70
     0
  9
$DIMLDRBLK
  1

  9
$DIMLUNIT
 70
     2
  9
$DIMLWD
 70
    -1
  9
$DIMLWE
 70
    -1
  9
$DIMTMOVE
 70
     0
  9
$LUNITS
 70
     2
  9
$LUPREC
 70
     4
  9
$SKETCHINC
 40
0.1
  9
$FILLETRAD
 40
4.0
  9
$AUNITS
 70
     1
  9
$AUPREC
 70
     3
  9
$MENU
  1
ACAD
  9
$ELEVATION
 40
0.0
  9
$PELEVATION
 40
0.0
  9
$THICKNESS
 40
50.0
  9
$LIMCHECK
 70
     0
  9
$CHAMFERA
 40
0.0
  9
$CHAMFERB
 40
0.0
  9
$CHAMFERC
 40
0.0
  9
$CHAMFERD
 40
0.0
  9
$SKPOLY
 70
     0
  9
$TDCREATE
 40
2452321.396199653
  9
$TDUCREATE
 40
2452321.021199653
  9
$TDUPDATE
 40
2456213.471565440
  9
$TDUUPDATE
 40
2456213.096565440
  9
$TDINDWG
 40
1.0501005208
  9
$TDUSRTIMER
 40
1.0500945949
  9
$USRTIMER
 70
     1
  9
$ANGBASE
 50
0.0
  9
$ANGDIR
 70
     0
  9
$PDMODE
 70
     3
  9
$PDSIZE
 40
-2.0
  9
$PLINEWID
 40
0.0
  9
$SPLFRAME
 70
     0
  9
$SPLINETYPE
 70
     6
  9
$SPLINESEGS
 70
     8
  9
$HANDSEED
  5
3B60
  9
$SURFTAB1
 70
     6
  9
$SURFTAB2
 70
     6
  9
$SURFTYPE
 70
     6
  9
$SURFU
 70
     6
  9
$SURFV
 70
     6
  9
$UCSBASE
  2

  9
$UCSNAME
  2

  9
$UCSORG
 10
0.0
 20
0.0
 30
0.0
  9
$UCSXDIR
 10
1.0
 20
0.0
 30
0.0
  9
$UCSYDIR
 10
0.0
 20
1.0
 30
0.0
  9
$UCSORTHOREF
  2

  9
$UCSORTHOVIEW
 70
     0
  9
$UCSORGTOP
 10
0.0
 20
0.0
 30
0.0
  9
$UCSORGBOTTOM
 10
0.0
 20
0.0
 30
0.0
  9
$UCSORGLEFT
 10
0.0
 20
0.0
 30
0.0
  9
$UCSORGRIGHT
 10
0.0
 20
0.0
 30
0.0
  9
$UCSORGFRONT
 10
0.0
 20
0.0
 30
0.0
  9
$UCSORGBACK
 10
0.0
 20
0.0
 30
0.0
  9
$PUCSBASE
  2

  9
$PUCSNAME
  2

  9
$PUCSORG
 10
0.0
 20
0.0
 30
0.0
  9
$PUCSXDIR
 10
1.0
 20
0.0
 30
0.0
  9
$PUCSYDIR
 10
0.0
 20
1.0
 30
0.0
  9
$PUCSORTHOREF
  2

  9
$PUCSORTHOVIEW
 70
     0
  9
$PUCSORGTOP
 10
0.0
 20
0.0
 30
0.0
  9
$PUCSORGBOTTOM
 10
0.0
 20
0.0
 30
0.0
  9
$PUCSORGLEFT
 10
0.0
 20
0.0
 30
0.0
  9
$PUCSORGRIGHT
 10
0.0
 20
0.0
 30
0.0
  9
$PUCSORGFRONT
 10
0.0
 20
0.0
 30
0.0
  9
$PUCSORGBACK
 10
0.0
 20
0.0
 30
0.0
  9
$USERI1
 70
     0
  9
$USERI2
 70
     0
  9
$USERI3
 70
     0
  9
$USERI4
 70
     0
  9
$USERI5
 70
     0
  9
$USERR1
 40
20.0
  9
$USERR2
 40
0.0
  9
$USERR3
 40
0.0
  9
$USERR4
 40
0.0
  9
$USERR5
 40
0.0
  9
$WORLDVIEW
 70
     1
  9
$SHADEDGE
 70
     3
  9
$SHADEDIF
 70
    70
  9
$TILEMODE
 70
     1
  9
$MAXACTVP
 70
    64
  9
$PINSBASE
 10
0.0
 20
0.0
 30
0.0
  9
$PLIMCHECK
 70
     0
  9
$PEXTMIN
 10
1.000000000000000E+20
 20
1.000000000000000E+20
 30
1.000000000000000E+20
  9
$PEXTMAX
 10
-1.000000000000000E+20
 20
-1.000000000000000E+20
 30
-1.000000000000000E+20
  9
$PLIMMIN
 10
0.0
 20
0.0
  9
$PLIMMAX
 10
12.0
 20
9.0
  9
$UNITMODE
 70
     0
  9
$VISRETAIN
 70
     1
  9
$PLINEGEN
 70
     0
  9
$PSLTSCALE
 70
     1
  9
$TREEDEPTH
 70
  3020
  9
$CMLSTYLE
  2
Standard
  9
$CMLJUST
 70
     0
  9
$CMLSCALE
 40
1.0
  9
$PROXYGRAPHICS
 70
     1
  9
$MEASUREMENT
 70
     0
  9
$CELWEIGHT
370
    -1
  9
$ENDCAPS
280
     0
  9
$JOINSTYLE
280
     0
  9
$LWDISPLAY
290
     0
  9
$INSUNITS
 70
     0
  9
$HYPERLINKBASE
  1

  9
$STYLESHEET
  1

  9
$XEDIT
290
     1
  9
$CEPSNTYPE
380
     0
  9
$PSTYLEMODE
290
     1
  9
$FINGERPRINTGUID
  2
{67E1AB9D-2E73-4ADA-BCB0-3186147C6AB9}
  9
$VERSIONGUID
  2
{D0882BDA-D77C-4CEA-A1D9-5DFDC823E054}
  9
$EXTNAMES
290
     1
  9
$PSVPSCALE
 40
0.0
  9
$OLESTARTUP
290
     0
  0
ENDSEC
  0
SECTION
  2
CLASSES
  0
CLASS
  1
ACDBDICTIONARYWDFLT
  2
AcDbDictionaryWithDefault
  3
ObjectDBX Classes
 90
        0
280
     0
281
     0
  0
CLASS
  1
MATERIAL
  2
AcDbMaterial
  3
ObjectDBX Classes
 90
     1153
280
     0
281
     0
  0
CLASS
  1
VISUALSTYLE
  2
AcDbVisualStyle
  3
ObjectDBX Classes
 90
     4095
280
     0
281
     0
  0
CLASS
  1
SCALE
  2
AcDbScale
  3
ObjectDBX Classes
 90
     1153
280
     0
281
     0
  0
CLASS
  1
TABLESTYLE
  2
AcDbTableStyle
  3
ObjectDBX Classes
 90
     4095
280
     0
281
     0
  0
CLASS
  1
MLEADERSTYLE
  2
AcDbMLeaderStyle
  3
ACDB_MLEADERSTYLE_CLASS
 90
     4095
280
     0
281
     0
  0
CLASS
  1
AMGSETTINGSOBJ
  2
AmgSettingsObj
  3
"AcadM|Product Description: AutoCAD Mechanical|Company: Autodesk, Inc."
 90
     1024
280
     0
281
     0
  0
CLASS
  1
ACME_DOCUMENT
  2
AcMeDbDoc
  3
AcMeServices
 90
     1024
280
     0
281
     0
  0
CLASS
  1
ACMESCOPE
  2
AcMeScope
  3
AcMeServices
 90
     1024
280
     0
281
     0
  0
CLASS
  1
ACMECOMMANDHISTORY
  2
AcMeCommandHistory
  3
AcMeServices
 90
     1024
280
     0
281
     0
  0
CLASS
  1
ACIMSYSVARMAN
  2
AcImSysVarManager
  3
AcMeServices
 90
     1024
280
     0
281
     0
  0
CLASS
  1
ACIMREALSYSVAR
  2
AcImRealSysVar
  3
AcMeServices
 90
     1024
280
     0
281
     0
  0
CLASS
  1
ACIMINTSYSVAR
  2
AcImIntSysVar
  3
AcMeServices
 90
     1024
280
     0
281
     0
  0
CLASS
  1
ACMEDRAWINGMAN
  2
AcMeDrawingMan
  3
AcMeServices
 90
     1024
280
     0
281
     0
  0
CLASS
  1
ACMEVIEW
  2
AcMeView
  3
AcMeServices
 90
     1024
280
     0
281
     0
  0
CLASS
  1
ACDBENTITYCACHE
  2
AcMeEntityCache
  3
AcMeServices
 90
     1024
280
     0
281
     0
  0
CLASS
  1
GSMANAGER
  2
AcMeGSManager
  3
AcMeServices
 90
     1024
280
     0
281
     0
  0
CLASS
  1
AMDTINTERNALREACTOR
  2
AmdtInternalReactor
  3
AcMeServices
 90
     1024
280
     0
281
     0
  0
CLASS
  1
ACMESTATEMGR
  2
AcMeStateMgr
  3
AcMeServices
 90
     1024
280
     0
281
     0
  0
CLASS
  1
ACGREFMASTER
  2
AcGrefMaster
  3
AcAttribServices
 90
     1024
280
     0
281
     0
  0
CLASS
  1
AM_DRAWING_MGR
  2
AcDmDwgMgr
  3
AcMechDwgViewMgmt
 90
     1024
280
     0
281
     0
  0
CLASS
  1
AM_DWG_DOCUMENT
  2
AcDmDwgDocument
  3
AcMechDwgViewMgmt
 90
     1024
280
     0
281
     0
  0
CLASS
  1
AM_DWG_SHEET
  2
AcDmSheet
  3
AcMechDwgViewMgmt
 90
     1024
280
     0
281
     0
  0
CLASS
  1
AM_VIEWDIMPARMAP
  2
AcDmViewDimParMap
  3
AcMechDwgViewMgmt
 90
     1024
280
     0
281
     0
  0
CLASS
  1
AM_DWGMGR_NAME
  2
AcDmDwgMgrName
  3
AcMechDwgViewMgmt
 90
     1024
280
     0
281
     0
  0
CLASS
  1
ACME_DATABASE
  2
AcMeDbDatabase
  3
AcMeServices
 90
     1024
280
     0
281
     0
  0
CLASS
  1
ACRFINSADJUSTERMGR
  2
AcRfInsAdjusterMgr
  3
AcMeServices
 90
     1024
280
     0
281
     0
  0
CLASS
  1
ACGREFACADMASTER
  2
AcGrefacadMaster
  3
AcGrefServices
 90
     1024
280
     0
281
     0
  0
CLASS
  1
AMDTMENUSTATEMGR
  2
AmdtMenuStateMgr
  3
McadcomServices
 90
     1024
280
     0
281
     0
  0
CLASS
  1
AMDTMCOMMENUSTATE
  2
AmdtMcomMenuState
  3
McadcomServices
 90
     1024
280
     0
281
     0
  0
CLASS
  1
AMIMASTER
  2
AmiMaster
  3
AmiServices
 90
     1024
280
     0
281
     0
  0
CLASS
  1
ASAPP
  2
AcAsAppObject
  3
AutoSurfServices
 90
     1024
280
     0
281
     0
  0
CLASS
  1
IM_STATIC_MAN
  2
AcImStaticVarManager
  3
AcMeServices
 90
     1024
280
     0
281
     0
  0
CLASS
  1
ACIMSTRSYSVAR
  2
AcImStrSysVar
  3
AcMeServices
 90
     1024
280
     0
281
     0
  0
CLASS
  1
ACIMDBLSTATICVAR
  2
AcImDblStaticVar
  3
AcMeServices
 90
     1024
280
     0
281
     0
  0
CLASS
  1
ACIMSTRSTATICVAR
  2
AcImStrStaticVar
  3
AcMeServices
 90
     1024
280
     0
281
     0
  0
CLASS
  1
ACIMINTSTATICVAR
  2
AcImIntStaticVar
  3
AcMeServices
 90
     1024
280
     0
281
     0
  0
CLASS
  1
ACASGREFMASTER
  2
AcAsGrefMaster
  3
AutoSurfResolverServices
 90
     1024
280
     0
281
     0
  0
CLASS
  1
ACADGREFMODULE
  2
AcAdGrefModule
  3
AdGrefServices
 90
     1024
280
     0
281
     0
  0
CLASS
  1
AMDTMAPISURFMOUDULE
  2
AmdtMApiSurfModule
  3
MApiSurfServices
 90
     1024
280
     0
281
     0
  0
CLASS
  1
MAPIAMMOUDLE
  2
MApiAmModule
  3
MApiAmServices
 90
     1024
280
     0
281
     0
  0
CLASS
  1
AMDTADMENUSTATE
  2
AmdtAdMenuState
  3
DesignerServices
 90
     1024
280
     0
281
     0
  0
CLASS
  1
ADAPPL
  2
AcAdAppl
  3
DesignerServices
 90
     1024
280
     0
281
     0
  0
CLASS
  1
DEPMGR
  2
AcAdDepMgr
  3
DesignerServices
 90
     1024
280
     0
281
     0
  0
CLASS
  1
PARAMMGR
  2
AcAdParamMgr
  3
DesignerServices
 90
     1024
280
     0
281
     0
  0
CLASS
  1
PARAMSCOPE
  2
AcAdParamScope
  3
DesignerServices
 90
     1024
280
     0
281
     0
  0
CLASS
  1
NAMEDAPPL
  2
AcAdNamedAppl
  3
DesignerServices
 90
     1024
280
     0
281
     0
  0
CLASS
  1
AMDTDMMENUSTATE
  2
AmdtDmMenuState
  3
AcMechDwgViewMgmt
 90
     1024
280
     0
281
     0
  0
CLASS
  1
MAPIADMODULE
  2
MApiAdModule
  3
MApiAdServices
 90
     1024
280
     0
281
     0
  0
CLASS
  1
AMDTAMMENUSTATE
  2
AmdtAmMenuState
  3
DesignerAssemblies
 90
     1024
280
     0
281
     0
  0
CLASS
  1
ACAMPROJECT
  2
AcAmProject
  3
DesignerAssemblies
 90
     1024
280
     0
281
     0
  0
CLASS
  1
ACAMGRCOMPDEF
  2
AcAmGrCompDef
  3
DesignerAssemblies
 90
     1024
280
     0
281
     0
  0
CLASS
  1
ACCMCONTEXT
  2
AcCmContext
  3
DesignerAssemblies
 90
     1024
280
     0
281
     0
  0
CLASS
  1
ACAMCOMPDEF
  2
AcAmCompDef
  3
DesignerAssemblies
 90
     1024
280
     0
281
     0
  0
CLASS
  1
ACAMCOMPDEFMGR
  2
AcAmCompDefMgr
  3
DesignerAssemblies
 90
     1024
280
     0
281
     0
  0
CLASS
  1
AMCONTEXTMGR
  2
AcAmContextMgr
  3
DesignerAssemblies
 90
     1024
280
     0
281
     0
  0
CLASS
  1
ACAMCONTEXTMODELER
  2
AcAmContextModeler
  3
DesignerAssemblies
 90
     1024
280
     0
281
     0
  0
CLASS
  1
ACMDATADICTIONARY
  2
AcmDataDictionary
  3
"AcmSymBB|Product Description: AutoCAD Mechanical|Company: Autodesk, Inc."
 90
     1024
280
     0
281
     0
  0
CLASS
  1
ACMDATAENTRYBLOCK
  2
AcmDataEntryBlock
  3
AcmSymBB|Product Description: AutoCAD Mechanical|Company: Autodesk, Inc.
 90
     1024
280
     0
281
     0
  0
CLASS
  1
ACRFATTGENMGR
  2
AcRfAttGeneralMgr
  3
AcAttribServices
 90
     1024
280
     0
281
     0
  0
CLASS
  1
ACRFOBJATTMGR
  2
AcRfObjAttGroupMgr
  3
AcAttribServices
 90
     1024
280
     0
281
     0
  0
CLASS
  1
ACRFMCADAPIATTHOLDER
  2
AcRfMCADAPIAttHolder
  3
AcAttribServices
 90
     1024
280
     0
281
     0
  0
CLASS
  1
AMDTSYSATTR
  2
AmdtSystemAttribute
  3
AcAttribServices
 90
     1024
280
     0
281
     0
  0
CLASS
  1
CATALOGSTATE
  2
AcAmCatalogState
  3
DesignerAssemblies
 90
     1024
280
     0
281
     0
  0
CLASS
  1
ACAMGRCOMPDEFSET
  2
AcAmGrCompDefSet
  3
DesignerAssemblies
 90
     1024
280
     0
281
     0
  0
CLASS
  1
AMDTBROWSERDBTAB
  2
AmdtBrowserDbTab
  3
McadcomServices
 90
     1024
280
     0
281
     0
  0
CLASS
  1
CBROWSERAPPOBJECT
  2
CBrowserAppObject
  3
McadcomServices
 90
     1024
280
     0
281
     0
  0
CLASS
  1
DM_PLACEHOLDER
  2
AcDmSelsetPlaceholder
  3
AcMechDwgViewMgmt
 90
     1024
280
     0
281
     0
  0
CLASS
  1
ACMSTANDARDANSI
  2
AcmStandardANSI
  3
"Amdt_StdImp|Product Description: AutoCAD Mechanical|Company: Autodesk, Inc."
 90
     1024
280
     0
281
     0
  0
CLASS
  1
ACMSURFSTANDARDANSI
  2
AcmSurfTextStdANSI
  3
"Amdt_StdImp|Product Description: AutoCAD Mechanical|Company: Autodesk, Inc."
 90
     1024
280
     0
281
     0
  0
CLASS
  1
ACMFCFSTANDARDANSI
  2
AcmFCFStdANSI
  3
"Amdt_StdImp|Product Description: AutoCAD Mechanical|Company: Autodesk, Inc."
 90
     1024
280
     0
281
     0
  0
CLASS
  1
ACMWELDSTANDARDANSI
  2
AcmWeldingStdANSI
  3
"Amdt_StdImp|Product Description: AutoCAD Mechanical|Company: Autodesk, Inc."
 90
     1024
280
     0
281
     0
  0
CLASS
  1
ACMIDSTANDARDANSI
  2
AcmIdStdANSI
  3
"Amdt_StdImp|Product Description: AutoCAD Mechanical|Company: Autodesk, Inc."
 90
     1024
280
     0
281
     0
  0
CLASS
  1
ACMDATUMSTANDARDANSI
  2
AcmDatumStdANSI
  3
"Amdt_StdImp|Product Description: AutoCAD Mechanical|Company: Autodesk, Inc."
 90
     1024
280
     0
281
     0
  0
CLASS
  1
ACMBOMSTANDARDANSI
  2
AcmBOMStdANSI
  3
"Amdt_StdImp|Product Description: AutoCAD Mechanical|Company: Autodesk, Inc."
 90
     1024
280
     0
281
     0
  0
CLASS
  1
ACMDETAILSTANDARDANSI
  2
AmdtDetailSymStdANSI
  3
"Amdt_StdImp|Product Description: AutoCAD Mechanical|Company: Autodesk, Inc."
 90
     1024
280
     0
281
     0
  0
CLASS
  1
ACMSECTIONSTANDARDANSI
  2
AmdtSectionSymStdANSI
  3
"Amdt_StdImp|Product Description: AutoCAD Mechanical|Company: Autodesk, Inc."
 90
     1024
280
     0
281
     0
  0
CLASS
  1
ACMCENTERLINESTANDARDANSI
  2
AmdtCenterLineStdANSI
  3
"Amdt_StdImp|Product Description: AutoCAD Mechanical|Company: Autodesk, Inc."
 90
     1024
280
     0
281
     0
  0
CLASS
  1
ACMTHREADLINESTANDARDANSI
  2
AmdtThreadLineStdANSI
  3
"Amdt_StdImp|Product Description: AutoCAD Mechanical|Company: Autodesk, Inc."
 90
     1024
280
     0
281
     0
  0
CLASS
  1
ACMNOTESTANDARDANSI
  2
AmdtNoteStdANSI
  3
"Amdt_StdImp|Product Description: AutoCAD Mechanical|Company: Autodesk, Inc."
 90
     1024
280
     0
281
     0
  0
CLASS
  1
ACMTAPERSTANDARDANSI
  2
AcmTaperStdANSI
  3
"Amdt_StdImp|Product Description: AutoCAD Mechanical|Company: Autodesk, Inc."
 90
     1024
280
     0
281
     0
  0
CLASS
  1
ACMANOOTATIONVIEWSTANDARDANSI
  2
AmdtAnViewStdANSI
  3
"Amdt_StdImp|Product Description: AutoCAD Mechanical|Company: Autodesk, Inc."
 90
     1024
280
     0
281
     0
  0
CLASS
  1
ACAMGLAYSTD
  2
AcAmgLayStd
  3
"AmgLay|Product Description: AutoCAD Mechanical|Company: Autodesk, Inc."
 90
     1024
280
     0
281
     0
  0
CLASS
  1
ACAMGDIMSTD
  2
AcAmgDimStd
  3
"AmgDim|Product Description: AutoCAD Mechanical|Company: Autodesk, Inc."
 90
     1024
280
     0
281
     0
  0
CLASS
  1
ACAMGHOLECHARTSTDANSI
  2
AcAmgHoleChartStdANSI
  3
AmgDim|Product Description: AutoCAD Mechanical|Company: Autodesk, Inc.
 90
     1024
280
     0
281
     0
  0
CLASS
  1
AMGOBJPROPCFG
  2
AmgObjPropCfg
  3
"AmgLay|Product Description: AutoCAD Mechanical|Company: Autodesk, Inc."
 90
     1025
280
     0
281
     0
  0
CLASS
  1
ACAMGTITLESTD
  2
AcAmgTitleStd
  3
"AmgTitle|Product Description: AutoCAD Mechanical|Company: Autodesk, Inc."
 90
     4095
280
     0
281
     0
  0
CLASS
  1
AMDTNOTETEMPLATEDB
  2
AmdtNoteTemplateDB
  3
AcmSymBB|Product Description: AutoCAD Mechanical|Company: Autodesk, Inc.
 90
     1024
280
     0
281
     0
  0
CLASS
  1
LAYER_INDEX
  2
AcDbLayerIndex
  3
ObjectDBX Classes
 90
        0
280
     0
281
     0
  0
CLASS
  1
IDBUFFER
  2
AcDbIdBuffer
  3
ObjectDBX Classes
 90
        0
280
     0
281
     0
  0
CLASS
  1
DICTIONARYVAR
  2
AcDbDictionaryVar
  3
ObjectDBX Classes
 90
        0
280
     0
281
     0
  0
CLASS
  1
CELLSTYLEMAP
  2
AcDbCellStyleMap
  3
ObjectDBX Classes
 90
     1152
280
     0
281
     0
  0
CLASS
  1
ACDBPLACEHOLDER
  2
AcDbPlaceHolder
  3
ObjectDBX Classes
 90
        0
280
     0
281
     0
  0
CLASS
  1
LAYOUT
  2
AcDbLayout
  3
ObjectDBX Classes
 90
        0
280
     0
281
     0
  0
ENDSEC
  0
SECTION
  2
TABLES
  0
TABLE
  2
VPORT
  5
38F1
330
0
100
AcDbSymbolTable
 70
     1
  0
VPORT
  5
3961
330
38F1
100
AcDbSymbolTableRecord
100
AcDbViewportTableRecord
  2
*ACTIVE
 70
     0
 10
0.0
 20
0.0
 11
1.0
 21
1.0
 12
0.0
 22
0.0
 13
0.0
 23
0.0
 14
1.0
 24
1.0
 15
0.0
 25
0.0
 16
0.0
 26
0.0
 36
1.0
 17
100.3807207341073
 27
104.1412452516852
 37
0.0
 40
1119.696253428304
 41
1.712555066079295
 42
50.0
 43
0.0
 44
0.0
 50
0.0
 51
0.0
 71
     0
 72
   100
 73
     1
 74
     0
 75
     0
 76
     0
 77
     0
 78
     0
281
     0
 65
     0
110
0.0
120
0.0
130
0.0
111
1.0
121
0.0
131
0.0
112
0.0
122
1.0
132
0.0
 79
     0
146
0.0
  0
ENDTAB
  0
TABLE
  2
LTYPE
  5
38EE
330
0
100
AcDbSymbolTable
 70
    19
  0
LTYPE
  5
394B
330
38EE
100
AcDbSymbolTableRecord
100
AcDbLinetypeTableRecord
  2
ByBlock
 70
     0
  3

 72
    65
 73
     0
 40
0.0
  0
LTYPE
  5
394C
330
38EE
100
AcDbSymbolTableRecord
100
AcDbLinetypeTableRecord
  2
ByLayer
 70
     0
  3

 72
    65
 73
     0
 40
0.0
  0
LTYPE
  5
394D
330
38EE
100
AcDbSymbolTableRecord
100
AcDbLinetypeTableRecord
  2
CONTINUOUS
 70
     0
  3
実線
 72
    65
 73
     0
 40
0.0
  0
LTYPE
  5
3962
330
38EE
100
AcDbSymbolTableRecord
100
AcDbLinetypeTableRecord
  2
DASHDOT
 70
     0
  3
____ _ ____ _ ____ _ ____ _ ____ _ ____ _ ____
 72
    65
 73
     4
 40
5.5
 49
4.0
 74
     0
 49
-0.6
 74
     0
 49
0.3
 74
     0
 49
-0.6
 74
     0
  0
LTYPE
  5
3963
330
38EE
100
AcDbSymbolTableRecord
100
AcDbLinetypeTableRecord
  2
HIDDEN
 70
     0
  3
Hidden __ __ __ __ __ __ __ __ __ __ __ __ __ _
 72
    65
 73
     2
 40
0.375
 49
0.25
 74
     0
 49
-0.125
 74
     0
  0
LTYPE
  5
3964
330
38EE
100
AcDbSymbolTableRecord
100
AcDbLinetypeTableRecord
  2
PHANTOM2
 70
     0
  3
Phantom (.5x) ___ _ _ ___ _ _ ___ _ _ ___ _ _
 72
    65
 73
     6
 40
1.25
 49
0.625
 74
     0
 49
-0.125
 74
     0
 49
0.125
 74
     0
 49
-0.125
 74
     0
 49
0.125
 74
     0
 49
-0.125
 74
     0
  0
LTYPE
  5
3965
330
38EE
100
AcDbSymbolTableRecord
100
AcDbLinetypeTableRecord
  2
CENTER
 70
     0
  3
Center ____ _ ____ _ ____ _ ____ _ ____ _ ____
 72
    65
 73
     4
 40
2.0
 49
1.25
 74
     0
 49
-0.25
 74
     0
 49
0.25
 74
     0
 49
-0.25
 74
     0
  0
LTYPE
  5
3966
330
38EE
100
AcDbSymbolTableRecord
100
AcDbLinetypeTableRecord
  2
ASULTYPE
 70
     0
  3
実線
 72
    65
 73
     2
 40
3.0
 49
2.5
 74
     0
 49
0.5
 74
     0
  0
LTYPE
  5
3967
330
38EE
100
AcDbSymbolTableRecord
100
AcDbLinetypeTableRecord
  2
ASVLTYPE
 70
     0
  3
__ __ __ __ __ __ __ __ __ __ __ __ __ __ __ __ __ __ __ __ __
 72
    65
 73
     2
 40
0.75
 49
0.5
 74
     0
 49
-0.25
 74
     0
  0
LTYPE
  5
3968
330
38EE
100
AcDbSymbolTableRecord
100
AcDbLinetypeTableRecord
  2
AM_ISO02W050
 70
     0
  3
__ __ __ __ __ __ __ __ __ __ __ __ __ __ __
 72
    65
 73
     2
 40
7.5
 49
6.0
 74
     0
 49
-1.5
 74
     0
  0
LTYPE
  5
3969
330
38EE
100
AcDbSymbolTableRecord
100
AcDbLinetypeTableRecord
  2
AM_ISO08W050
 70
     0
  3
____ . ____ . ____ . ____ . ____ . ____ . ____
 72
    65
 73
     4
 40
18.0
 49
12.0
 74
     0
 49
-1.5
 74
     0
 49
3.0
 74
     0
 49
-1.5
 74
     0
  0
LTYPE
  5
396A
330
38EE
100
AcDbSymbolTableRecord
100
AcDbLinetypeTableRecord
  2
AM_ISO09W050
 70
     0
  3
_____ . . _____ . . _____ . . ____ .. ____
 72
    65
 73
     6
 40
22.5
 49
12.0
 74
     0
 49
-1.5
 74
     0
 49
3.0
 74
     0
 49
-1.5
 74
     0
 49
3.0
 74
     0
 49
-1.5
 74
     0
  0
LTYPE
  5
396B
330
38EE
100
AcDbSymbolTableRecord
100
AcDbLinetypeTableRecord
  2
AMCONSTR
 70
     0
  3
_______________________
 72
    65
 73
     2
 40
9999.0
 49
9999.0
 74
     0
 49
0.0
 74
     0
  0
LTYPE
  5
396C
330
38EE
100
AcDbSymbolTableRecord
100
AcDbLinetypeTableRecord
  2
AM_ISO08W050X2
 70
     0
  3
__ . __ . __ . __ . __ . __
 72
    65
 73
     4
 40
9.0
 49
6.0
 74
     0
 49
-0.75
 74
     0
 49
1.5
 74
     0
 49
-0.75
 74
     0
  0
LTYPE
  5
396D
330
38EE
100
AcDbSymbolTableRecord
100
AcDbLinetypeTableRecord
  2
AM_ISO02W050X2
 70
     0
  3
 _ _ _ _ _ _ _ _ _ _ _ _
 72
    65
 73
     2
 40
3.75
 49
3.0
 74
     0
 49
-0.75
 74
     0
  0
LTYPE
  5
396E
330
38EE
100
AcDbSymbolTableRecord
100
AcDbLinetypeTableRecord
  2
AMZIGZAG
 70
     0
  3
/\/-/\/-/\/-/\/-/\/-/\/
 72
    65
 73
     2
 40
11.0001
 49
0.0001
 74
     0
 49
-11.0
 74
     0
  0
LTYPE
  5
396F
330
38EE
100
AcDbSymbolTableRecord
100
AcDbLinetypeTableRecord
  2
CENTER2
 70
     0
  3
Center (.5x) ___ _ ___ _ ___ _ ___ _ ___ _ ___
 72
    65
 73
     4
 40
1.125
 49
0.75
 74
     0
 49
-0.125
 74
     0
 49
0.125
 74
     0
 49
-0.125
 74
     0
  0
LTYPE
  5
3970
330
38EE
100
AcDbSymbolTableRecord
100
AcDbLinetypeTableRecord
  2
HIDDEN2
 70
     0
  3
Hidden (.5x) _ _ _ _ _ _ _ _ _ _ _ _ _ _ _ _ _
 72
    65
 73
     2
 40
0.1875
 49
0.125
 74
     0
 49
-0.0625
 74
     0
  0
LTYPE
  5
3971
330
38EE
100
AcDbSymbolTableRecord
100
AcDbLinetypeTableRecord
  2
AMZIGZAG2
 70
     0
  3
/\/-/\/-/\/-/\/-/\/-/\/
 72
    65
 73
     2
 40
0.4401
 49
0.0001
 74
     0
 49
-0.4400000000000003
 74
     0
  0
LTYPE
  5
3972
330
38EE
100
AcDbSymbolTableRecord
100
AcDbLinetypeTableRecord
  2
ACANSTGB
 70
     0
  3
__ . . __ . .
 72
    65
 73
     6
 40
0.35433070866
 49
0.15748031496
 74
     0
 49
-0.03937007874
 74
     0
 49
0.03937007874
 74
     0
 49
-0.03937007874
 74
     0
 49
0.03937007874
 74
     0
 49
-0.03937007874
 74
     0
  0
LTYPE
  5
3973
330
38EE
100
AcDbSymbolTableRecord
100
AcDbLinetypeTableRecord
  2
ACANSTGL
 70
     0
  3
_ _ _ _ _
 72
    65
 73
     2
 40
0.11811023622
 49
0.07874015748
 74
     0
 49
-0.03937007874
 74
     0
  0
ENDTAB
  0
TABLE
  2
LAYER
  5
38EB
330
0
100
AcDbSymbolTable
 70
    12
  0
LAYER
  5
3945
102
{ACAD_XDICTIONARY
360
3B1F
102
}
330
38EB
100
AcDbSymbolTableRecord
100
AcDbLayerTableRecord
  2
0
 70
     0
 62
     7
  6
CONTINUOUS
370
    -3
390
38F8
  0
LAYER
  5
3974
102
{ACAD_XDICTIONARY
360
3B21
102
}
330
38EB
100
AcDbSymbolTableRecord
100
AcDbLayerTableRecord
  2
OUTLINE
 70
     0
 62
     3
  6
CONTINUOUS
370
    -3
390
38F8
  0
LAYER
  5
3975
102
{ACAD_XDICTIONARY
360
3B23
102
}
330
38EB
100
AcDbSymbolTableRecord
100
AcDbLayerTableRecord
  2
SIZE
 70
     0
 62
    30
  6
CONTINUOUS
370
    -3
390
38F8
  0
LAYER
  5
3976
102
{ACAD_XDICTIONARY
360
3B25
102
}
330
38EB
100
AcDbSymbolTableRecord
100
AcDbLayerTableRecord
  2
BASIS
 70
     0
 62
     6
  6
DASHDOT
370
    -3
390
38F8
  0
LAYER
  5
3977
102
{ACAD_XDICTIONARY
360
3B27
102
}
330
38EB
100
AcDbSymbolTableRecord
100
AcDbLayerTableRecord
  2
DETAIL
 70
     0
 62
     5
  6
CONTINUOUS
370
    -3
390
38F8
  0
LAYER
  5
3978
102
{ACAD_XDICTIONARY
360
3B29
102
}
330
38EB
100
AcDbSymbolTableRecord
100
AcDbLayerTableRecord
  2
ARRANGE
 70
     0
 62
     1
  6
CONTINUOUS
370
    -3
390
38F8
  0
LAYER
  5
3979
330
38EB
100
AcDbSymbolTableRecord
100
AcDbLayerTableRecord
  2
DEFPOINTS
 70
     0
 62
     7
  6
CONTINUOUS
290
     0
370
    -3
390
38F8
  0
LAYER
  5
397A
102
{ACAD_XDICTIONARY
360
3B2B
102
}
330
38EB
100
AcDbSymbolTableRecord
100
AcDbLayerTableRecord
  2
ETC
 70
     0
 62
    61
  6
CONTINUOUS
370
    -3
390
38F8
  0
LAYER
  5
397B
102
{ACAD_XDICTIONARY
360
3B2D
102
}
330
38EB
100
AcDbSymbolTableRecord
100
AcDbLayerTableRecord
  2
FIX
 70
     0
 62
    11
  6
CONTINUOUS
370
    -3
390
38F8
  0
LAYER
  5
397C
102
{ACAD_XDICTIONARY
360
3B2F
102
}
330
38EB
100
AcDbSymbolTableRecord
100
AcDbLayerTableRecord
  2
NOTE
 70
     0
 62
     4
  6
CONTINUOUS
370
    -3
390
38F8
  0
LAYER
  5
397D
102
{ACAD_XDICTIONARY
360
3B31
102
}
330
38EB
100
AcDbSymbolTableRecord
100
AcDbLayerTableRecord
  2
SERVICESPACE
 70
     0
 62
     2
  6
DASHDOT
370
    -3
390
38F8
  0
LAYER
  5
397E
102
{ACAD_XDICTIONARY
360
3B33
102
}
330
38EB
100
AcDbSymbolTableRecord
100
AcDbLayerTableRecord
  2
SYMBOLLINE
 70
     0
 62
    15
  6
CONTINUOUS
370
    -3
390
38F8
  0
ENDTAB
  0
TABLE
  2
STYLE
  5
38EC
330
0
100
AcDbSymbolTable
 70
     5
  0
STYLE
  5
3946
330
38EC
100
AcDbSymbolTableRecord
100
AcDbTextStyleTableRecord
  2
STANDARD
 70
     0
 40
64.0
 41
0.9
 50
0.0
 71
     0
 42
64.0
  3
SIMPLEX.shx
  4
BIGFONT.shx
  0
STYLE
  5
394A
330
38EC
100
AcDbSymbolTableRecord
100
AcDbTextStyleTableRecord
  2
ANNOTATIVE
 70
     0
 40
0.0
 41
1.0
 50
0.0
 71
     0
 42
0.2
  3
txt
  4

1001
ACADANNOTATIVE
1000
AnnotativeData
1002
{
1070
     1
1070
     1
1002
}
  0
STYLE
  5
397F
330
38EC
100
AcDbSymbolTableRecord
100
AcDbTextStyleTableRecord
  2

 70
     1
 40
0.0
 41
1.0
 50
0.0
 71
     0
 42
64.0
  3
genltshp.shx
  4

  0
STYLE
  5
3980
330
38EC
100
AcDbSymbolTableRecord
100
AcDbTextStyleTableRecord
  2
ACANSTS
 70
     0
 40
1.0
 41
1.0
 50
0.0
 71
     0
 42
64.0
  3
romans.shx
  4
extfont.shx
  0
STYLE
  5
3981
330
38EC
100
AcDbSymbolTableRecord
100
AcDbTextStyleTableRecord
  2
ACANSGDT
 70
     0
 40
0.0
 41
1.0
 50
0.0
 71
     0
 42
64.0
  3
amgdt.shx
  4

  0
ENDTAB
  0
TABLE
  2
VIEW
  5
38EF
330
0
100
AcDbSymbolTable
 70
     1
  0
VIEW
  5
3982
330
38EF
100
AcDbSymbolTableRecord
100
AcDbViewTableRecord
  2
ALL
 70
     0
 40
4282.619807999997
 10
0.0
 20
41.30990399999999
 41
5940.0
 11
0.0
 21
0.0
 31
1.0
 12
0.0
 22
0.0
 32
0.0
 42
50.0
 43
0.0
 44
0.0
 50
0.0
 71
     0
281
     0
 72
     1
110
0.0
120
0.0
130
0.0
111
1.0
121
0.0
131
0.0
112
0.0
122
1.0
132
0.0
 79
     0
146
0.0
  0
ENDTAB
  0
TABLE
  2
UCS
  5
38F0
330
0
100
AcDbSymbolTable
 70
     0
  0
ENDTAB
  0
TABLE
  2
APPID
  5
38F2
330
0
100
AcDbSymbolTable
 70
    34
  0
APPID
  5
3947
330
38F2
100
AcDbSymbolTableRecord
100
AcDbRegAppTableRecord
  2
ACAD
 70
     0
  0
APPID
  5
394E
330
38F2
100
AcDbSymbolTableRecord
100
AcDbRegAppTableRecord
  2
ACADANNOTATIVE
 70
     0
  0
APPID
  5
3958
330
38F2
100
AcDbSymbolTableRecord
100
AcDbRegAppTableRecord
  2
ACAD_MLEADERVER
 70
     0
  0
APPID
  5
3983
330
38F2
100
AcDbSymbolTableRecord
100
AcDbRegAppTableRecord
  2
GENIUS_GENDIM_13
 70
     0
  0
APPID
  5
3984
330
38F2
100
AcDbSymbolTableRecord
100
AcDbRegAppTableRecord
  2
GENIUS_GENDTOL_13
 70
     0
  0
APPID
  5
3985
330
38F2
100
AcDbSymbolTableRecord
100
AcDbRegAppTableRecord
  2
GENIUS_GE3DTOL_13
 70
     0
  0
APPID
  5
3986
330
38F2
100
AcDbSymbolTableRecord
100
AcDbRegAppTableRecord
  2
MCAD_NO_VIS
 70
     0
  0
APPID
  5
3987
330
38F2
100
AcDbSymbolTableRecord
100
AcDbRegAppTableRecord
  2
ACAD_TEMP_GRAPHIC
 70
     0
  0
APPID
  5
3988
330
38F2
100
AcDbSymbolTableRecord
100
AcDbRegAppTableRecord
  2
AD_DRAW
 70
     0
  0
APPID
  5
3989
330
38F2
100
AcDbSymbolTableRecord
100
AcDbRegAppTableRecord
  2
ACATTRIBSERVICES
 70
     0
  0
APPID
  5
398A
330
38F2
100
AcDbSymbolTableRecord
100
AcDbRegAppTableRecord
  2
ASURF_PCURVE_APPNAME
 70
     0
  0
APPID
  5
398B
330
38F2
100
AcDbSymbolTableRecord
100
AcDbRegAppTableRecord
  2
AMG_3D2D_5_0
 70
     0
  0
APPID
  5
398C
330
38F2
100
AcDbSymbolTableRecord
100
AcDbRegAppTableRecord
  2
DESIGNERASSEMBLIES
 70
     0
  0
APPID
  5
398D
330
38F2
100
AcDbSymbolTableRecord
100
AcDbRegAppTableRecord
  2
ACADM_DIM_EDIT
 70
     0
  0
APPID
  5
398E
330
38F2
100
AcDbSymbolTableRecord
100
AcDbRegAppTableRecord
  2
AMDT_DM_ADJ
 70
     0
  0
APPID
  5
398F
330
38F2
100
AcDbSymbolTableRecord
100
AcDbRegAppTableRecord
  2
ACAD_DSTYLE_DIMARC_LENGTH_
 70
     0
  0
APPID
  5
3990
330
38F2
100
AcDbSymbolTableRecord
100
AcDbRegAppTableRecord
  2
ACAD_DSTYLE_DIMJOGGED_JOGA
 70
     0
  0
APPID
  5
3991
330
38F2
100
AcDbSymbolTableRecord
100
AcDbRegAppTableRecord
  2
ACAD_PSEXT
 70
     0
  0
APPID
  5
3992
330
38F2
100
AcDbSymbolTableRecord
100
AcDbRegAppTableRecord
  2
ACAD_EXEMPT_FROM_CAD_STANDARDS
 70
     0
  0
APPID
  5
3993
330
38F2
100
AcDbSymbolTableRecord
100
AcDbRegAppTableRecord
  2
ACAD_DSTYLE_DIMJAG
 70
     0
  0
APPID
  5
3994
330
38F2
100
AcDbSymbolTableRecord
100
AcDbRegAppTableRecord
  2
ACAD_DSTYLE_DIMTALN
 70
     0
  0
APPID
  5
3995
330
38F2
100
AcDbSymbolTableRecord
100
AcDbRegAppTableRecord
  2
AMG_3D2D_5_00
 70
     0
  0
APPID
  5
3996
330
38F2
100
AcDbSymbolTableRecord
100
AcDbRegAppTableRecord
  2
AMG_3D2D_5_01
 70
     0
  0
APPID
  5
3997
330
38F2
100
AcDbSymbolTableRecord
100
AcDbRegAppTableRecord
  2
AMG_3D2D_5_02
 70
     0
  0
APPID
  5
3998
330
38F2
100
AcDbSymbolTableRecord
100
AcDbRegAppTableRecord
  2
AMG_3D2D_5_03
 70
     0
  0
APPID
  5
3999
330
38F2
100
AcDbSymbolTableRecord
100
AcDbRegAppTableRecord
  2
AMG_3D2D_5_04
 70
     0
  0
APPID
  5
399A
330
38F2
100
AcDbSymbolTableRecord
100
AcDbRegAppTableRecord
  2
AMG_3D2D_5_05
 70
     0
  0
APPID
  5
399B
330
38F2
100
AcDbSymbolTableRecord
100
AcDbRegAppTableRecord
  2
AMG_3D2D_5_06
 70
     0
  0
APPID
  5
399C
330
38F2
100
AcDbSymbolTableRecord
100
AcDbRegAppTableRecord
  2
AMG_3D2D_5_07
 70
     0
  0
APPID
  5
3AC6
330
38F2
100
AcDbSymbolTableRecord
100
AcDbRegAppTableRecord
  2
AMG_3D2D_5.0
 70
     0
  0
APPID
  5
3B5C
330
38F2
100
AcDbSymbolTableRecord
100
AcDbRegAppTableRecord
  2
ACAD_DSTYLE_DIMARC_LENGTH_SYMBOL
 70
     0
  0
APPID
  5
3B5D
330
38F2
100
AcDbSymbolTableRecord
100
AcDbRegAppTableRecord
  2
ACAD_DSTYLE_DIM_LINETYPE
 70
     0
  0
APPID
  5
3B5E
330
38F2
100
AcDbSymbolTableRecord
100
AcDbRegAppTableRecord
  2
ACAD_DSTYLE_DIM_EXT1_LINETYPE
 70
     0
  0
APPID
  5
3B5F
330
38F2
100
AcDbSymbolTableRecord
100
AcDbRegAppTableRecord
  2
ACAD_DSTYLE_DIM_EXT2_LINETYPE
 70
     0
  0
ENDTAB
  0
TABLE
  2
DIMSTYLE
  5
38F3
330
0
100
AcDbSymbolTable
 70
    10
100
AcDbDimStyleTable
 71
     1
340
399D
  0
DIMSTYLE
105
3948
330
38F3
100
AcDbSymbolTableRecord
100
AcDbDimStyleTableRecord
  2
STANDARD
 70
     0
 41
12.0
 42
20.0
 44
20.0
 77
     1
 78
     8
140
64.0
141
0.0
147
10.0
275
     1
279
     2
284
     7
285
     7
286
     7
340
3946
  0
DIMSTYLE
105
3949
330
38F3
100
AcDbSymbolTableRecord
100
AcDbDimStyleTableRecord
  2
ANNOTATIVE
 70
     0
275
     1
279
     2
284
     7
285
     7
286
     7
340
3946
1001
ACADANNOTATIVE
1000
AnnotativeData
1002
{
1070
     1
1070
     1
1002
}
  0
DIMSTYLE
105
399D
330
38F3
100
AcDbSymbolTableRecord
100
AcDbDimStyleTableRecord
  2
AM_ANSI
 70
     0
  4
mm
 41
0.12
 42
0.05
 43
0.5
 44
0.1
 47
0.1
 48
0.1
 78
     7
 79
     2
140
0.12
141
0.0
146
0.71
147
0.06
176
   256
177
   256
178
     2
274
     4
284
     7
340
3946
371
    -1
372
    -1
1001
ACAD_DSTYLE_DIMARC_LENGTH_SYMBOL
1070
   379
1070
     1
1001
ACAD_DSTYLE_DIM_LINETYPE
1070
   380
1005
394B
1001
ACAD_DSTYLE_DIM_EXT1_LINETYPE
1070
   381
1005
394B
1001
ACAD_DSTYLE_DIM_EXT2_LINETYPE
1070
   382
1005
394B
  0
DIMSTYLE
105
399E
330
38F3
100
AcDbSymbolTableRecord
100
AcDbDimStyleTableRecord
  2
AM_ANSI$3
 70
     0
  4
mm
 41
0.12
 42
0.05
 43
0.5
 44
0.1
 47
0.1
 48
0.1
 78
     7
 79
     2
140
0.12
141
0.0
146
0.71
147
0.06
176
   256
177
   256
178
     2
274
     4
284
     7
288
     1
289
     0
340
3946
371
    -1
372
    -1
1001
ACAD_DSTYLE_DIMARC_LENGTH_SYMBOL
1070
   379
1070
     1
1001
ACAD_DSTYLE_DIM_LINETYPE
1070
   380
1005
394B
1001
ACAD_DSTYLE_DIM_EXT1_LINETYPE
1070
   381
1005
394B
1001
ACAD_DSTYLE_DIM_EXT2_LINETYPE
1070
   382
1005
394B
  0
DIMSTYLE
105
399F
330
38F3
100
AcDbSymbolTableRecord
100
AcDbDimStyleTableRecord
  2
AM_ANSI$4
 70
     0
  4
mm
 41
0.12
 42
0.05
 43
0.5
 44
0.1
 47
0.1
 48
0.1
 78
     7
 79
     2
140
0.12
141
0.0
146
0.71
147
0.06
176
   256
177
   256
178
     2
274
     4
284
     7
340
3946
371
    -1
372
    -1
1001
ACAD_DSTYLE_DIMARC_LENGTH_SYMBOL
1070
   379
1070
     1
1001
ACAD_DSTYLE_DIM_LINETYPE
1070
   380
1005
394B
1001
ACAD_DSTYLE_DIM_EXT1_LINETYPE
1070
   381
1005
394B
1001
ACAD_DSTYLE_DIM_EXT2_LINETYPE
1070
   382
1005
394B
  0
DIMSTYLE
105
39A0
330
38F3
100
AcDbSymbolTableRecord
100
AcDbDimStyleTableRecord
  2
AM_ANSI$7
 70
     0
  4
mm
 41
0.12
 42
0.05
 43
0.5
 44
0.1
 47
0.1
 48
0.1
 78
     7
 79
     2
140
0.12
141
0.0
146
0.71
147
0.06
176
   256
177
   256
178
     2
274
     4
284
     7
340
3946
371
    -1
372
    -1
1001
ACAD_DSTYLE_DIMARC_LENGTH_SYMBOL
1070
   379
1070
     1
1001
ACAD_DSTYLE_DIM_LINETYPE
1070
   380
1005
394B
1001
ACAD_DSTYLE_DIM_EXT1_LINETYPE
1070
   381
1005
394B
1001
ACAD_DSTYLE_DIM_EXT2_LINETYPE
1070
   382
1005
394B
  0
DIMSTYLE
105
39A1
330
38F3
100
AcDbSymbolTableRecord
100
AcDbDimStyleTableRecord
  2
AM_ANSI$SF
 70
     0
  4
mm
 41
0.12
 42
0.05
 43
0.5
 44
0.1
 47
0.1
 48
0.1
 75
     1
 76
     1
 78
     7
 79
     2
140
0.12
141
0.0
146
0.71
147
0.06
176
   256
177
   256
178
     2
274
     4
284
     7
340
3946
371
    -1
372
    -1
1001
ACAD_DSTYLE_DIMARC_LENGTH_SYMBOL
1070
   379
1070
     1
1001
ACAD_DSTYLE_DIM_LINETYPE
1070
   380
1005
394B
1001
ACAD_DSTYLE_DIM_EXT1_LINETYPE
1070
   381
1005
394B
1001
ACAD_DSTYLE_DIM_EXT2_LINETYPE
1070
   382
1005
394B
  0
DIMSTYLE
105
39A2
330
38F3
100
AcDbSymbolTableRecord
100
AcDbDimStyleTableRecord
  2
AM_ANSI$SH
 70
     0
  4
mm
 41
0.12
 42
0.05
 43
0.5
 44
0.1
 47
0.1
 48
0.1
 75
     1
 76
     1
 78
     7
 79
     2
140
0.12
141
0.0
146
0.71
147
0.06
173
     1
176
   256
177
   256
178
     2
274
     4
284
     7
340
3946
343
39C2
371
    -1
372
    -1
1001
ACAD_DSTYLE_DIMARC_LENGTH_SYMBOL
1070
   379
1070
     1
1001
ACAD_DSTYLE_DIM_LINETYPE
1070
   380
1005
394B
1001
ACAD_DSTYLE_DIM_EXT1_LINETYPE
1070
   381
1005
394B
1001
ACAD_DSTYLE_DIM_EXT2_LINETYPE
1070
   382
1005
394B
  0
DIMSTYLE
105
39A3
330
38F3
100
AcDbSymbolTableRecord
100
AcDbDimStyleTableRecord
  2
STANDARD1
 70
     0
 40
6.0
 41
2.5
 42
0.625
 43
6.0
 44
1.25
 47
1.0
 48
0.5
 77
     1
 78
     8
140
2.5
141
0.0
146
0.6
147
1.0
173
     1
275
     1
279
     2
284
     7
285
     7
286
     7
340
3946
  0
DIMSTYLE
105
39A4
330
38F3
100
AcDbSymbolTableRecord
100
AcDbDimStyleTableRecord
  2
STANDARD$0
 70
     0
 41
12.0
 42
20.0
 44
20.0
 73
     0
 74
     0
 77
     1
 78
     8
140
64.0
141
0.0
147
10.0
275
     1
279
     2
284
     7
285
     7
286
     7
340
3946
  0
ENDTAB
  0
TABLE
  2
BLOCK_RECORD
  5
38EA
330
0
100
AcDbSymbolTable
 70
    77
  0
BLOCK_RECORD
  5
395D
102
{ACAD_XDICTIONARY
360
3B35
102
}
330
38EA
100
AcDbSymbolTableRecord
100
AcDbBlockTableRecord
  2
*Model_Space
340
3960
  0
BLOCK_RECORD
  5
3959
330
38EA
100
AcDbSymbolTableRecord
100
AcDbBlockTableRecord
  2
*Paper_Space
340
395C
  0
BLOCK_RECORD
  5
39AC
330
38EA
100
AcDbSymbolTableRecord
100
AcDbBlockTableRecord
  2
$MODEL_SPACE
340
0
  0
BLOCK_RECORD
  5
39AE
330
38EA
100
AcDbSymbolTableRecord
100
AcDbBlockTableRecord
  2
$PAPER_SPACE
340
0
  0
BLOCK_RECORD
  5
39B0
330
38EA
100
AcDbSymbolTableRecord
100
AcDbBlockTableRecord
  2
_ORIGIN
340
0
  0
BLOCK_RECORD
  5
39B2
330
38EA
100
AcDbSymbolTableRecord
100
AcDbBlockTableRecord
  2
_DOTBLANK
340
0
102
{BLKREFS
331
1299
331
129A
331
11AA
331
11AB
331
E80
331
E81
331
1123
331
1124
331
11C2
331
11C3
331
11EC
331
11ED
331
11F9
331
11FA
331
1287
331
1288
331
1417
331
1418
331
1423
331
1424
331
142F
331
1430
331
143B
331
143C
331
166E
331
166F
331
1677
331
1678
331
1680
331
1681
331
1689
331
168A
331
1696
331
1697
331
16A3
331
16A4
331
16AF
331
16B0
331
16BB
331
16BC
331
16C7
331
16C8
331
16D3
331
16D4
331
1D86
331
1D87
331
1D8F
331
1D90
331
1D98
331
1D99
331
1DA1
331
1DA2
331
1DAB
331
1DAC
331
1DB5
331
1DB6
102
}
  0
BLOCK_RECORD
  5
39B4
330
38EA
100
AcDbSymbolTableRecord
100
AcDbBlockTableRecord
  2
_OPEN30
340
0
102
{BLKREFS
331
2088
331
25A0
331
25AD
331
25BA
331
3103
331
310A
331
3127
102
}
  0
BLOCK_RECORD
  5
39B6
330
38EA
100
AcDbSymbolTableRecord
100
AcDbBlockTableRecord
  2
*D5
340
0
  0
BLOCK_RECORD
  5
39B8
330
38EA
100
AcDbSymbolTableRecord
100
AcDbBlockTableRecord
  2
*U6
340
0
102
{BLKREFS
331
129B
102
}
  0
BLOCK_RECORD
  5
39BA
330
38EA
100
AcDbSymbolTableRecord
100
AcDbBlockTableRecord
  2
*D7
340
0
  0
BLOCK_RECORD
  5
39BC
330
38EA
100
AcDbSymbolTableRecord
100
AcDbBlockTableRecord
  2
*U8
340
0
102
{BLKREFS
331
11AC
102
}
  0
BLOCK_RECORD
  5
39BE
330
38EA
100
AcDbSymbolTableRecord
100
AcDbBlockTableRecord
  2
*D9
340
0
  0
BLOCK_RECORD
  5
39C0
330
38EA
100
AcDbSymbolTableRecord
100
AcDbBlockTableRecord
  2
*U10
340
0
102
{BLKREFS
331
E82
102
}
  0
BLOCK_RECORD
  5
39C2
330
38EA
100
AcDbSymbolTableRecord
100
AcDbBlockTableRecord
  2
GENAXEH
340
0
  0
BLOCK_RECORD
  5
39C4
330
38EA
100
AcDbSymbolTableRecord
100
AcDbBlockTableRecord
  2
*D12
340
0
  0
BLOCK_RECORD
  5
39C6
330
38EA
100
AcDbSymbolTableRecord
100
AcDbBlockTableRecord
  2
*U13
340
0
102
{BLKREFS
331
1125
102
}
  0
BLOCK_RECORD
  5
39C8
330
38EA
100
AcDbSymbolTableRecord
100
AcDbBlockTableRecord
  2
*D14
340
0
  0
BLOCK_RECORD
  5
39CA
330
38EA
100
AcDbSymbolTableRecord
100
AcDbBlockTableRecord
  2
*U15
340
0
102
{BLKREFS
331
11C4
102
}
  0
BLOCK_RECORD
  5
39CC
330
38EA
100
AcDbSymbolTableRecord
100
AcDbBlockTableRecord
  2
*D16
340
0
  0
BLOCK_RECORD
  5
39CE
330
38EA
100
AcDbSymbolTableRecord
100
AcDbBlockTableRecord
  2
*U17
340
0
102
{BLKREFS
331
11EE
102
}
  0
BLOCK_RECORD
  5
39D0
330
38EA
100
AcDbSymbolTableRecord
100
AcDbBlockTableRecord
  2
*D18
340
0
  0
BLOCK_RECORD
  5
39D2
330
38EA
100
AcDbSymbolTableRecord
100
AcDbBlockTableRecord
  2
*U19
340
0
102
{BLKREFS
331
11FB
102
}
  0
BLOCK_RECORD
  5
39D4
330
38EA
100
AcDbSymbolTableRecord
100
AcDbBlockTableRecord
  2
*D20
340
0
  0
BLOCK_RECORD
  5
39D6
330
38EA
100
AcDbSymbolTableRecord
100
AcDbBlockTableRecord
  2
*U21
340
0
102
{BLKREFS
331
1289
102
}
  0
BLOCK_RECORD
  5
39D8
330
38EA
100
AcDbSymbolTableRecord
100
AcDbBlockTableRecord
  2
*D22
340
0
  0
BLOCK_RECORD
  5
39DA
330
38EA
100
AcDbSymbolTableRecord
100
AcDbBlockTableRecord
  2
*U23
340
0
102
{BLKREFS
331
1419
102
}
  0
BLOCK_RECORD
  5
39DC
330
38EA
100
AcDbSymbolTableRecord
100
AcDbBlockTableRecord
  2
*D24
340
0
  0
BLOCK_RECORD
  5
39DE
330
38EA
100
AcDbSymbolTableRecord
100
AcDbBlockTableRecord
  2
*U25
340
0
102
{BLKREFS
331
1425
102
}
  0
BLOCK_RECORD
  5
39E0
330
38EA
100
AcDbSymbolTableRecord
100
AcDbBlockTableRecord
  2
*D26
340
0
  0
BLOCK_RECORD
  5
39E2
330
38EA
100
AcDbSymbolTableRecord
100
AcDbBlockTableRecord
  2
*U27
340
0
102
{BLKREFS
331
1431
102
}
  0
BLOCK_RECORD
  5
39E4
330
38EA
100
AcDbSymbolTableRecord
100
AcDbBlockTableRecord
  2
*D28
340
0
  0
BLOCK_RECORD
  5
39E6
330
38EA
100
AcDbSymbolTableRecord
100
AcDbBlockTableRecord
  2
*U29
340
0
102
{BLKREFS
331
143D
102
}
  0
BLOCK_RECORD
  5
39E8
330
38EA
100
AcDbSymbolTableRecord
100
AcDbBlockTableRecord
  2
*D30
340
0
  0
BLOCK_RECORD
  5
39EA
330
38EA
100
AcDbSymbolTableRecord
100
AcDbBlockTableRecord
  2
*U31
340
0
102
{BLKREFS
331
1670
102
}
  0
BLOCK_RECORD
  5
39EC
330
38EA
100
AcDbSymbolTableRecord
100
AcDbBlockTableRecord
  2
*D32
340
0
  0
BLOCK_RECORD
  5
39EE
330
38EA
100
AcDbSymbolTableRecord
100
AcDbBlockTableRecord
  2
*U33
340
0
102
{BLKREFS
331
1679
102
}
  0
BLOCK_RECORD
  5
39F0
330
38EA
100
AcDbSymbolTableRecord
100
AcDbBlockTableRecord
  2
*D34
340
0
  0
BLOCK_RECORD
  5
39F2
330
38EA
100
AcDbSymbolTableRecord
100
AcDbBlockTableRecord
  2
*U35
340
0
102
{BLKREFS
331
1682
102
}
  0
BLOCK_RECORD
  5
39F4
330
38EA
100
AcDbSymbolTableRecord
100
AcDbBlockTableRecord
  2
*D36
340
0
  0
BLOCK_RECORD
  5
39F6
330
38EA
100
AcDbSymbolTableRecord
100
AcDbBlockTableRecord
  2
*U37
340
0
102
{BLKREFS
331
168B
102
}
  0
BLOCK_RECORD
  5
39F8
330
38EA
100
AcDbSymbolTableRecord
100
AcDbBlockTableRecord
  2
*U38
340
0
  0
BLOCK_RECORD
  5
39FA
330
38EA
100
AcDbSymbolTableRecord
100
AcDbBlockTableRecord
  2
*D39
340
0
  0
BLOCK_RECORD
  5
39FC
330
38EA
100
AcDbSymbolTableRecord
100
AcDbBlockTableRecord
  2
*U40
340
0
102
{BLKREFS
331
1698
102
}
  0
BLOCK_RECORD
  5
39FE
330
38EA
100
AcDbSymbolTableRecord
100
AcDbBlockTableRecord
  2
*D41
340
0
  0
BLOCK_RECORD
  5
3A00
330
38EA
100
AcDbSymbolTableRecord
100
AcDbBlockTableRecord
  2
*U42
340
0
102
{BLKREFS
331
16A5
102
}
  0
BLOCK_RECORD
  5
3A02
330
38EA
100
AcDbSymbolTableRecord
100
AcDbBlockTableRecord
  2
*D43
340
0
  0
BLOCK_RECORD
  5
3A04
330
38EA
100
AcDbSymbolTableRecord
100
AcDbBlockTableRecord
  2
*U44
340
0
102
{BLKREFS
331
16B1
102
}
  0
BLOCK_RECORD
  5
3A06
330
38EA
100
AcDbSymbolTableRecord
100
AcDbBlockTableRecord
  2
*D45
340
0
  0
BLOCK_RECORD
  5
3A08
330
38EA
100
AcDbSymbolTableRecord
100
AcDbBlockTableRecord
  2
*U46
340
0
102
{BLKREFS
331
16BD
102
}
  0
BLOCK_RECORD
  5
3A0A
330
38EA
100
AcDbSymbolTableRecord
100
AcDbBlockTableRecord
  2
*D47
340
0
  0
BLOCK_RECORD
  5
3A0C
330
38EA
100
AcDbSymbolTableRecord
100
AcDbBlockTableRecord
  2
*U48
340
0
102
{BLKREFS
331
16C9
102
}
  0
BLOCK_RECORD
  5
3A0E
330
38EA
100
AcDbSymbolTableRecord
100
AcDbBlockTableRecord
  2
*D49
340
0
  0
BLOCK_RECORD
  5
3A10
330
38EA
100
AcDbSymbolTableRecord
100
AcDbBlockTableRecord
  2
*U50
340
0
102
{BLKREFS
331
16D5
102
}
  0
BLOCK_RECORD
  5
3A12
330
38EA
100
AcDbSymbolTableRecord
100
AcDbBlockTableRecord
  2
*D51
340
0
  0
BLOCK_RECORD
  5
3A14
330
38EA
100
AcDbSymbolTableRecord
100
AcDbBlockTableRecord
  2
*U52
340
0
102
{BLKREFS
331
1D88
102
}
  0
BLOCK_RECORD
  5
3A16
330
38EA
100
AcDbSymbolTableRecord
100
AcDbBlockTableRecord
  2
*D53
340
0
  0
BLOCK_RECORD
  5
3A18
330
38EA
100
AcDbSymbolTableRecord
100
AcDbBlockTableRecord
  2
*U54
340
0
102
{BLKREFS
331
1D91
102
}
  0
BLOCK_RECORD
  5
3A1A
330
38EA
100
AcDbSymbolTableRecord
100
AcDbBlockTableRecord
  2
*D55
340
0
  0
BLOCK_RECORD
  5
3A1C
330
38EA
100
AcDbSymbolTableRecord
100
AcDbBlockTableRecord
  2
*U56
340
0
102
{BLKREFS
331
1D9A
102
}
  0
BLOCK_RECORD
  5
3A1E
330
38EA
100
AcDbSymbolTableRecord
100
AcDbBlockTableRecord
  2
*D57
340
0
  0
BLOCK_RECORD
  5
3A20
330
38EA
100
AcDbSymbolTableRecord
100
AcDbBlockTableRecord
  2
*U58
340
0
102
{BLKREFS
331
1DA3
102
}
  0
BLOCK_RECORD
  5
3A22
330
38EA
100
AcDbSymbolTableRecord
100
AcDbBlockTableRecord
  2
*D59
340
0
  0
BLOCK_RECORD
  5
3A24
330
38EA
100
AcDbSymbolTableRecord
100
AcDbBlockTableRecord
  2
*U60
340
0
102
{BLKREFS
331
1DAD
102
}
  0
BLOCK_RECORD
  5
3A26
330
38EA
100
AcDbSymbolTableRecord
100
AcDbBlockTableRecord
  2
*D61
340
0
  0
BLOCK_RECORD
  5
3A28
330
38EA
100
AcDbSymbolTableRecord
100
AcDbBlockTableRecord
  2
*U62
340
0
102
{BLKREFS
331
1DB7
102
}
  0
BLOCK_RECORD
  5
3A2A
330
38EA
100
AcDbSymbolTableRecord
100
AcDbBlockTableRecord
  2
*U63
340
0
  0
BLOCK_RECORD
  5
3A2C
330
38EA
100
AcDbSymbolTableRecord
100
AcDbBlockTableRecord
  2
*U64
340
0
  0
BLOCK_RECORD
  5
3A2E
330
38EA
100
AcDbSymbolTableRecord
100
AcDbBlockTableRecord
  2
*U65
340
0
  0
BLOCK_RECORD
  5
3A30
330
38EA
100
AcDbSymbolTableRecord
100
AcDbBlockTableRecord
  2
*U66
340
0
  0
BLOCK_RECORD
  5
3A32
330
38EA
100
AcDbSymbolTableRecord
100
AcDbBlockTableRecord
  2
*U67
340
0
  0
BLOCK_RECORD
  5
3A34
330
38EA
100
AcDbSymbolTableRecord
100
AcDbBlockTableRecord
  2
*U68
340
0
  0
BLOCK_RECORD
  5
3A36
330
38EA
100
AcDbSymbolTableRecord
100
AcDbBlockTableRecord
  2
*U69
340
0
  0
BLOCK_RECORD
  5
3A38
330
38EA
100
AcDbSymbolTableRecord
100
AcDbBlockTableRecord
  2
*U70
340
0
  0
BLOCK_RECORD
  5
3A3A
330
38EA
100
AcDbSymbolTableRecord
100
AcDbBlockTableRecord
  2
*U71
340
0
  0
BLOCK_RECORD
  5
3A3C
330
38EA
100
AcDbSymbolTableRecord
100
AcDbBlockTableRecord
  2
*U72
340
0
  0
BLOCK_RECORD
  5
3A3E
330
38EA
100
AcDbSymbolTableRecord
100
AcDbBlockTableRecord
  2
*U73
340
0
  0
BLOCK_RECORD
  5
3A40
330
38EA
100
AcDbSymbolTableRecord
100
AcDbBlockTableRecord
  2
*U74
340
0
  0
BLOCK_RECORD
  5
3A42
330
38EA
100
AcDbSymbolTableRecord
100
AcDbBlockTableRecord
  2
*U75
340
0
  0
ENDTAB
  0
ENDSEC
  0
SECTION
  2
BLOCKS
  0
BLOCK
  5
395E
330
395D
100
AcDbEntity
  8
0
100
AcDbBlockBegin
  2
*Model_Space
 70
     0
 10
0.0
 20
0.0
 30
0.0
  3
*Model_Space
  1

  0
ENDBLK
  5
395F
330
395D
100
AcDbEntity
  8
0
100
AcDbBlockEnd
  0
BLOCK
  5
395A
330
3959
100
AcDbEntity
 67
     1
  8
0
100
AcDbBlockBegin
  2
*Paper_Space
 70
     0
 10
0.0
 20
0.0
 30
0.0
  3
*Paper_Space
  1

  0
ENDBLK
  5
395B
330
3959
100
AcDbEntity
 67
     1
  8
0
100
AcDbBlockEnd
  0
BLOCK
  5
39AD
330
39AC
100
AcDbEntity
  8
0
100
AcDbBlockBegin
  2
$MODEL_SPACE
 70
     0
 10
0.0
 20
0.0
 30
0.0
  3
$MODEL_SPACE
  1

  0
ENDBLK
  5
36E8
330
39AC
100
AcDbEntity
  8
0
100
AcDbBlockEnd
  0
BLOCK
  5
39AF
330
39AE
100
AcDbEntity
  8
0
100
AcDbBlockBegin
  2
$PAPER_SPACE
 70
     0
 10
0.0
 20
0.0
 30
0.0
  3
$PAPER_SPACE
  1

  0
ENDBLK
  5
36E4
330
39AE
100
AcDbEntity
  8
0
100
AcDbBlockEnd
  0
BLOCK
  5
39B1
330
39B0
100
AcDbEntity
  8
0
100
AcDbBlockBegin
  2
_ORIGIN
 70
     0
 10
0.0
 20
0.0
 30
0.0
  3
_ORIGIN
  1

  0
CIRCLE
  5
880
330
39B0
100
AcDbEntity
  8
0
  6
Continuous
 62
     7
100
AcDbCircle
 10
0.0
 20
0.0
 30
0.0
 40
0.5
  0
LINE
  5
881
330
39B0
100
AcDbEntity
  8
0
  6
Continuous
 62
     7
100
AcDbLine
 10
0.0
 20
0.0
 30
0.0
 11
-1.0
 21
0.0
 31
0.0
  0
ENDBLK
  5
882
330
39B0
100
AcDbEntity
  8
0
100
AcDbBlockEnd
  0
BLOCK
  5
39B3
330
39B2
100
AcDbEntity
  8
0
 62
     1
100
AcDbBlockBegin
  2
_DOTBLANK
 70
     0
 10
0.0
 20
0.0
 30
0.0
  3
_DOTBLANK
  1

  0
CIRCLE
  5
AB3
330
39B2
100
AcDbEntity
  8
0
  6
ByBlock
 62
     0
100
AcDbCircle
 10
0.0
 20
0.0
 30
0.0
 40
0.5
  0
LINE
  5
AB4
330
39B2
100
AcDbEntity
  8
0
  6
ByBlock
 62
     0
100
AcDbLine
 10
-0.5
 20
0.0
 30
0.0
 11
-1.0
 21
0.0
 31
0.0
  0
ENDBLK
  5
AB6
330
39B2
100
AcDbEntity
  8
0
 62
     1
100
AcDbBlockEnd
  0
BLOCK
  5
39B5
330
39B4
100
AcDbEntity
  8
0
 62
     1
100
AcDbBlockBegin
  2
_OPEN30
 70
     0
 10
0.0
 20
0.0
 30
0.0
  3
_OPEN30
  1

  0
LINE
  5
AB8
330
39B4
100
AcDbEntity
  8
0
  6
ByBlock
 62
     0
100
AcDbLine
 10
-1.0
 20
0.26794919
 30
0.0
 11
0.0
 21
0.0
 31
0.0
  0
LINE
  5
AB9
330
39B4
100
AcDbEntity
  8
0
  6
ByBlock
 62
     0
100
AcDbLine
 10
0.0
 20
0.0
 30
0.0
 11
-1.0
 21
-0.26794919
 31
0.0
  0
LINE
  5
ABA
330
39B4
100
AcDbEntity
  8
0
  6
ByBlock
 62
     0
100
AcDbLine
 10
0.0
 20
0.0
 30
0.0
 11
-1.0
 21
0.0
 31
0.0
  0
ENDBLK
  5
ABC
330
39B4
100
AcDbEntity
  8
0
 62
     1
100
AcDbBlockEnd
  0
BLOCK
  5
39B7
330
39B6
100
AcDbEntity
  8
0
100
AcDbBlockBegin
  2
*D5
 70
     1
 10
0.0
 20
0.0
 30
0.0
  3
*D5
  1

  0
LINE
  5
1296
330
39B6
100
AcDbEntity
  8
SIZE
 62
     0
100
AcDbLine
 10
-134.5
 20
-320.0
 30
0.0
 11
-134.5
 21
-468.0173952306001
 31
0.0
  0
LINE
  5
1297
330
39B6
100
AcDbEntity
  8
SIZE
 62
     0
100
AcDbLine
 10
134.5
 20
-320.0
 30
0.0
 11
134.5
 21
-468.0173952306001
 31
0.0
  0
LINE
  5
1298
330
39B6
100
AcDbEntity
  8
SIZE
 62
     0
100
AcDbLine
 10
-122.5
 20
-448.0173952306
 30
0.0
 11
122.5
 21
-448.0173952306
 31
0.0
  0
INSERT
  5
1299
330
39B6
100
AcDbEntity
  8
SIZE
 62
     0
100
AcDbBlockReference
  2
_DOTBLANK
 10
-134.5
 20
-448.0173952306
 30
0.0
 41
12.0
 42
12.0
 43
12.0
 50
180.0
  0
INSERT
  5
129A
330
39B6
100
AcDbEntity
  8
SIZE
 62
     0
100
AcDbBlockReference
  2
_DOTBLANK
 10
134.5
 20
-448.0173952306
 30
0.0
 41
12.0
 42
12.0
 43
12.0
  0
INSERT
  5
129B
330
39B6
100
AcDbEntity
  8
0
100
AcDbBlockReference
  2
*U6
 10
0.0
 20
0.0
 30
0.0
  0
POINT
  5
129C
330
39B6
100
AcDbEntity
  8
DEFPOINTS
 62
     0
100
AcDbPoint
 10
-134.5
 20
-300.0
 30
0.0
  0
POINT
  5
129D
330
39B6
100
AcDbEntity
  8
DEFPOINTS
 62
     0
100
AcDbPoint
 10
134.5
 20
-300.0
 30
0.0
  0
POINT
  5
129E
330
39B6
100
AcDbEntity
  8
DEFPOINTS
 62
     0
100
AcDbPoint
 10
134.5
 20
-448.0173952306
 30
0.0
  0
ENDBLK
  5
D72
330
39B6
100
AcDbEntity
  8
0
100
AcDbBlockEnd
  0
BLOCK
  5
39B9
330
39B8
100
AcDbEntity
  8
0
100
AcDbBlockBegin
  2
*U6
 70
     1
 10
0.0
 20
0.0
 30
0.0
  3
*U6
  1

  0
TEXT
  5
1EF5
330
39B8
100
AcDbEntity
  8
SIZE
 62
     0
100
AcDbText
 10
-72.68571428571426
 20
-438.0173952305999
 30
0.0
 40
64.0
  1
269
 41
0.9
100
AcDbText
  0
ENDBLK
  5
1EF7
330
39B8
100
AcDbEntity
  8
0
100
AcDbBlockEnd
  0
BLOCK
  5
39BB
330
39BA
100
AcDbEntity
  8
0
100
AcDbBlockBegin
  2
*D7
 70
     1
 10
0.0
 20
0.0
 30
0.0
  3
*D7
  1

  0
LINE
  5
11A7
330
39BA
100
AcDbEntity
  8
SIZE
  6
Continuous
 62
     0
100
AcDbLine
 10
143.5
 20
-300.0
 30
0.0
 11
304.6432844803791
 21
-300.0
 31
0.0
  0
LINE
  5
11A8
330
39BA
100
AcDbEntity
  8
SIZE
  6
Continuous
 62
     0
100
AcDbLine
 10
177.5
 20
-0.0000000000000057
 30
0.0
 11
304.6432844803792
 21
-0.0000000000000417
 31
0.0
  0
LINE
  5
11A9
330
39BA
100
AcDbEntity
  8
SIZE
  6
Continuous
 62
     0
100
AcDbLine
 10
284.6432844803791
 20
-288.0000000000001
 30
0.0
 11
284.6432844803792
 21
-12.00000000000003
 31
0.0
  0
INSERT
  5
11AA
330
39BA
100
AcDbEntity
  8
SIZE
  6
Continuous
 62
     0
100
AcDbBlockReference
  2
_DOTBLANK
 10
284.6432844803791
 20
-300.0
 30
0.0
 41
12.0
 42
12.0
 43
12.0
 50
270.0
  0
INSERT
  5
11AB
330
39BA
100
AcDbEntity
  8
SIZE
  6
Continuous
 62
     0
100
AcDbBlockReference
  2
_DOTBLANK
 10
284.6432844803792
 20
-0.000000000000036
 30
0.0
 41
12.0
 42
12.0
 43
12.0
 50
90.0
  0
INSERT
  5
11AC
330
39BA
100
AcDbEntity
  8
0
100
AcDbBlockReference
  2
*U8
 10
0.0
 20
0.0
 30
0.0
  0
POINT
  5
11AD
330
39BA
100
AcDbEntity
  8
DEFPOINTS
  6
Continuous
 62
     0
100
AcDbPoint
 10
123.5
 20
-300.0
 30
0.0
  0
POINT
  5
11AE
330
39BA
100
AcDbEntity
  8
DEFPOINTS
  6
Continuous
 62
     0
100
AcDbPoint
 10
157.5
 20
0.0
 30
0.0
  0
POINT
  5
11AF
330
39BA
100
AcDbEntity
  8
DEFPOINTS
  6
Continuous
 62
     0
100
AcDbPoint
 10
284.6432844803792
 20
-0.000000000000036
 30
0.0
  0
ENDBLK
  5
E11
330
39BA
100
AcDbEntity
  8
0
100
AcDbBlockEnd
  0
BLOCK
  5
39BD
330
39BC
100
AcDbEntity
  8
0
100
AcDbBlockBegin
  2
*U8
 70
     1
 10
0.0
 20
0.0
 30
0.0
  3
*U8
  1

  0
TEXT
  5
1EE1
330
39BC
100
AcDbEntity
  8
SIZE
 62
     0
100
AcDbText
 10
274.6432844803792
 20
-224.0571428571429
 30
0.0
 40
64.0
  1
300
 50
90.0
 41
0.9
100
AcDbText
  0
ENDBLK
  5
1EE3
330
39BC
100
AcDbEntity
  8
0
100
AcDbBlockEnd
  0
BLOCK
  5
39BF
330
39BE
100
AcDbEntity
  8
0
100
AcDbBlockBegin
  2
*D9
 70
     1
 10
0.0
 20
0.0
 30
0.0
  3
*D9
  1

  0
LINE
  5
E7D
330
39BE
100
AcDbEntity
  8
SIZE
 62
     0
100
AcDbLine
 10
-139.9999999999998
 20
32.46448280219375
 30
0.0
 11
-139.9999999999998
 21
136.4516878685508
 31
0.0
  0
LINE
  5
E7E
330
39BE
100
AcDbEntity
  8
SIZE
 62
     0
100
AcDbLine
 10
140.0
 20
32.46448280219375
 30
0.0
 11
140.0
 21
136.4516878685508
 31
0.0
  0
LINE
  5
E7F
330
39BE
100
AcDbEntity
  8
SIZE
 62
     0
100
AcDbLine
 10
-128.0
 20
116.4516878685508
 30
0.0
 11
128.0
 21
116.4516878685508
 31
0.0
  0
INSERT
  5
E80
330
39BE
100
AcDbEntity
  8
SIZE
 62
     0
100
AcDbBlockReference
  2
_DOTBLANK
 10
-139.9999999999998
 20
116.4516878685508
 30
0.0
 41
12.0
 42
12.0
 43
12.0
 50
180.0
  0
INSERT
  5
E81
330
39BE
100
AcDbEntity
  8
SIZE
 62
     0
100
AcDbBlockReference
  2
_DOTBLANK
 10
140.0
 20
116.4516878685508
 30
0.0
 41
12.0
 42
12.0
 43
12.0
  0
INSERT
  5
E82
330
39BE
100
AcDbEntity
  8
0
100
AcDbBlockReference
  2
*U10
 10
0.0
 20
0.0
 30
0.0
  0
POINT
  5
E83
330
39BE
100
AcDbEntity
  8
DEFPOINTS
 62
     0
100
AcDbPoint
 10
-139.9999999999998
 20
12.46448280219374
 30
0.0
  0
POINT
  5
E84
330
39BE
100
AcDbEntity
  8
DEFPOINTS
 62
     0
100
AcDbPoint
 10
140.0
 20
12.46448280219374
 30
0.0
  0
POINT
  5
E85
330
39BE
100
AcDbEntity
  8
DEFPOINTS
 62
     0
100
AcDbPoint
 10
140.0
 20
116.4516878685508
 30
0.0
  0
ENDBLK
  5
E7C
330
39BE
100
AcDbEntity
  8
0
100
AcDbBlockEnd
  0
BLOCK
  5
39C1
330
39C0
100
AcDbEntity
  8
0
100
AcDbBlockBegin
  2
*U10
 70
     1
 10
0.0
 20
0.0
 30
0.0
  3
*U10
  1

  0
TEXT
  5
1ED8
330
39C0
100
AcDbEntity
  8
SIZE
 62
     0
100
AcDbText
 10
-74.05714285714281
 20
126.4516878685508
 30
0.0
 40
64.0
  1
280
 41
0.9
100
AcDbText
  0
ENDBLK
  5
1EDA
330
39C0
100
AcDbEntity
  8
0
100
AcDbBlockEnd
  0
BLOCK
  5
39C3
330
39C2
100
AcDbEntity
  8
0
100
AcDbBlockBegin
  2
GENAXEH
 70
     0
 10
0.0
 20
0.0
 30
0.0
  3
GENAXEH
  1

  0
LINE
  5
FDB
330
39C2
100
AcDbEntity
  8
0
100
AcDbLine
 10
-1.0
 20
0.0
 30
0.0
 11
1.0
 21
0.0
 31
0.0
  0
ENDBLK
  5
FDD
330
39C2
100
AcDbEntity
  8
0
100
AcDbBlockEnd
  0
BLOCK
  5
39C5
330
39C4
100
AcDbEntity
  8
0
100
AcDbBlockBegin
  2
*D12
 70
     1
 10
0.0
 20
0.0
 30
0.0
  3
*D12
  1

  0
LINE
  5
1120
330
39C4
100
AcDbEntity
  8
SIZE
 62
     0
100
AcDbLine
 10
-157.5
 20
20.0
 30
0.0
 11
-157.5
 21
245.5794621189598
 31
0.0
  0
LINE
  5
1121
330
39C4
100
AcDbEntity
  8
SIZE
 62
     0
100
AcDbLine
 10
157.5
 20
20.0
 30
0.0
 11
157.5
 21
245.5794621189598
 31
0.0
  0
LINE
  5
1122
330
39C4
100
AcDbEntity
  8
SIZE
 62
     0
100
AcDbLine
 10
-145.5
 20
225.5794621189598
 30
0.0
 11
145.5
 21
225.5794621189598
 31
0.0
  0
INSERT
  5
1123
330
39C4
100
AcDbEntity
  8
SIZE
 62
     0
100
AcDbBlockReference
  2
_DOTBLANK
 10
-157.5
 20
225.5794621189598
 30
0.0
 41
12.0
 42
12.0
 43
12.0
 50
180.0
  0
INSERT
  5
1124
330
39C4
100
AcDbEntity
  8
SIZE
 62
     0
100
AcDbBlockReference
  2
_DOTBLANK
 10
157.5
 20
225.5794621189598
 30
0.0
 41
12.0
 42
12.0
 43
12.0
  0
INSERT
  5
1125
330
39C4
100
AcDbEntity
  8
0
100
AcDbBlockReference
  2
*U13
 10
0.0
 20
0.0
 30
0.0
  0
POINT
  5
1126
330
39C4
100
AcDbEntity
  8
DEFPOINTS
 62
     0
100
AcDbPoint
 10
-157.5
 20
0.0
 30
0.0
  0
POINT
  5
1127
330
39C4
100
AcDbEntity
  8
DEFPOINTS
 62
     0
100
AcDbPoint
 10
157.5
 20
0.0
 30
0.0
  0
POINT
  5
1128
330
39C4
100
AcDbEntity
  8
DEFPOINTS
 62
     0
100
AcDbPoint
 10
157.5
 20
225.5794621189598
 30
0.0
  0
ENDBLK
  5
111F
330
39C4
100
AcDbEntity
  8
0
100
AcDbBlockEnd
  0
BLOCK
  5
39C7
330
39C6
100
AcDbEntity
  8
0
100
AcDbBlockBegin
  2
*U13
 70
     1
 10
0.0
 20
0.0
 30
0.0
  3
*U13
  1

  0
TEXT
  5
1EDD
330
39C6
100
AcDbEntity
  8
SIZE
 62
     0
100
AcDbText
 10
-68.57142857142857
 20
235.5794621189599
 30
0.0
 40
64.0
  1
315
 41
0.9
100
AcDbText
  0
ENDBLK
  5
1EDF
330
39C6
100
AcDbEntity
  8
0
100
AcDbBlockEnd
  0
BLOCK
  5
39C9
330
39C8
100
AcDbEntity
  8
0
100
AcDbBlockBegin
  2
*D14
 70
     1
 10
0.0
 20
0.0
 30
0.0
  3
*D14
  1

  0
LINE
  5
11BD
330
39C8
100
AcDbEntity
  8
NOTE
 62
     0
100
AcDbLine
 10
-123.4999999999999
 20
-320.0
 30
0.0
 11
-123.4999999999999
 21
-354.9529861856111
 31
0.0
  0
LINE
  5
11BE
330
39C8
100
AcDbEntity
  8
NOTE
 62
     0
100
AcDbLine
 10
-133.4999999999998
 20
-331.2126909923287
 30
0.0
 11
-133.4999999999998
 21
-354.9529861856111
 31
0.0
  0
LINE
  5
11BF
330
39C8
100
AcDbEntity
  8
NOTE
 62
     0
100
AcDbLine
 10
-111.4999999999999
 20
-334.9529861856112
 30
0.0
 11
-99.4999999999999
 21
-334.9529861856112
 31
0.0
  0
LINE
  5
11C0
330
39C8
100
AcDbEntity
  8
NOTE
 62
     0
100
AcDbLine
 10
-145.4999999999998
 20
-334.9529861856112
 30
0.0
 11
-157.4999999999998
 21
-334.9529861856112
 31
0.0
  0
LINE
  5
11C1
330
39C8
100
AcDbEntity
  8
NOTE
 62
     0
100
AcDbLine
 10
-123.4999999999999
 20
-334.9529861856112
 30
0.0
 11
-133.4999999999998
 21
-334.9529861856112
 31
0.0
  0
INSERT
  5
11C2
330
39C8
100
AcDbEntity
  8
NOTE
 62
     0
100
AcDbBlockReference
  2
_DOTBLANK
 10
-123.4999999999999
 20
-334.9529861856112
 30
0.0
 41
12.0
 42
12.0
 43
12.0
 50
180.0
  0
INSERT
  5
11C3
330
39C8
100
AcDbEntity
  8
NOTE
 62
     0
100
AcDbBlockReference
  2
_DOTBLANK
 10
-133.4999999999998
 20
-334.9529861856112
 30
0.0
 41
12.0
 42
12.0
 43
12.0
  0
INSERT
  5
11C4
330
39C8
100
AcDbEntity
  8
0
100
AcDbBlockReference
  2
*U15
 10
0.0
 20
0.0
 30
0.0
  0
POINT
  5
11C5
330
39C8
100
AcDbEntity
  8
DEFPOINTS
 62
     0
100
AcDbPoint
 10
-123.4999999999999
 20
-300.0
 30
0.0
  0
POINT
  5
11C6
330
39C8
100
AcDbEntity
  8
DEFPOINTS
 62
     0
100
AcDbPoint
 10
-133.4999999999998
 20
-311.2126909923287
 30
0.0
  0
POINT
  5
11C7
330
39C8
100
AcDbEntity
  8
DEFPOINTS
 62
     0
100
AcDbPoint
 10
-133.4999999999998
 20
-334.9529861856112
 30
0.0
  0
ENDBLK
  5
11BC
330
39C8
100
AcDbEntity
  8
0
100
AcDbBlockEnd
  0
BLOCK
  5
39CB
330
39CA
100
AcDbEntity
  8
0
100
AcDbBlockBegin
  2
*U15
 70
     1
 10
0.0
 20
0.0
 30
0.0
  3
*U15
  1

  0
TEXT
  5
1EE5
330
39CA
100
AcDbEntity
  8
NOTE
 62
     0
100
AcDbText
 10
-169.642857142857
 20
-324.9529861856112
 30
0.0
 40
64.0
  1
10
 41
0.9
100
AcDbText
  0
ENDBLK
  5
1EE7
330
39CA
100
AcDbEntity
  8
0
100
AcDbBlockEnd
  0
BLOCK
  5
39CD
330
39CC
100
AcDbEntity
  8
0
100
AcDbBlockBegin
  2
*D16
 70
     1
 10
0.0
 20
0.0
 30
0.0
  3
*D16
  1

  0
LINE
  5
11E7
330
39CC
100
AcDbEntity
  8
NOTE
 62
     0
100
AcDbLine
 10
-135.5
 20
-333.2126909923287
 30
0.0
 11
-135.5
 21
-386.2569421441843
 31
0.0
  0
LINE
  5
11E8
330
39CC
100
AcDbEntity
  8
NOTE
 62
     0
100
AcDbLine
 10
-123.4999999999999
 20
-320.0
 30
0.0
 11
-123.4999999999999
 21
-386.2569421441843
 31
0.0
  0
LINE
  5
11E9
330
39CC
100
AcDbEntity
  8
NOTE
 62
     0
100
AcDbLine
 10
-147.5
 20
-366.2569421441844
 30
0.0
 11
-159.5
 21
-366.2569421441844
 31
0.0
  0
LINE
  5
11EA
330
39CC
100
AcDbEntity
  8
NOTE
 62
     0
100
AcDbLine
 10
-111.4999999999999
 20
-366.2569421441844
 30
0.0
 11
-99.4999999999999
 21
-366.2569421441844
 31
0.0
  0
LINE
  5
11EB
330
39CC
100
AcDbEntity
  8
NOTE
 62
     0
100
AcDbLine
 10
-135.5
 20
-366.2569421441844
 30
0.0
 11
-123.4999999999999
 21
-366.2569421441844
 31
0.0
  0
INSERT
  5
11EC
330
39CC
100
AcDbEntity
  8
NOTE
 62
     0
100
AcDbBlockReference
  2
_DOTBLANK
 10
-135.5
 20
-366.2569421441844
 30
0.0
 41
12.0
 42
12.0
 43
12.0
  0
INSERT
  5
11ED
330
39CC
100
AcDbEntity
  8
NOTE
 62
     0
100
AcDbBlockReference
  2
_DOTBLANK
 10
-123.4999999999999
 20
-366.2569421441844
 30
0.0
 41
12.0
 42
12.0
 43
12.0
 50
180.0
  0
INSERT
  5
11EE
330
39CC
100
AcDbEntity
  8
0
100
AcDbBlockReference
  2
*U17
 10
0.0
 20
0.0
 30
0.0
  0
POINT
  5
11EF
330
39CC
100
AcDbEntity
  8
DEFPOINTS
 62
     0
100
AcDbPoint
 10
-135.5
 20
-313.2126909923287
 30
0.0
  0
POINT
  5
11F0
330
39CC
100
AcDbEntity
  8
DEFPOINTS
 62
     0
100
AcDbPoint
 10
-123.4999999999999
 20
-300.0
 30
0.0
  0
POINT
  5
11F1
330
39CC
100
AcDbEntity
  8
DEFPOINTS
 62
     0
100
AcDbPoint
 10
-123.4999999999999
 20
-366.2569421441844
 30
0.0
  0
ENDBLK
  5
11E6
330
39CC
100
AcDbEntity
  8
0
100
AcDbBlockEnd
  0
BLOCK
  5
39CF
330
39CE
100
AcDbEntity
  8
0
100
AcDbBlockBegin
  2
*U17
 70
     1
 10
0.0
 20
0.0
 30
0.0
  3
*U17
  1

  0
TEXT
  5
1EE9
330
39CE
100
AcDbEntity
  8
NOTE
 62
     0
100
AcDbText
 10
-170.642857142857
 20
-356.2569421441843
 30
0.0
 40
64.0
  1
12
 41
0.9
100
AcDbText
  0
ENDBLK
  5
1EEB
330
39CE
100
AcDbEntity
  8
0
100
AcDbBlockEnd
  0
BLOCK
  5
39D1
330
39D0
100
AcDbEntity
  8
0
100
AcDbBlockBegin
  2
*D18
 70
     1
 10
0.0
 20
0.0
 30
0.0
  3
*D18
  1

  0
LINE
  5
11F6
330
39D0
100
AcDbEntity
  8
NOTE
 62
     0
100
AcDbLine
 10
-123.4999999999999
 20
-320.0
 30
0.0
 11
-123.4999999999999
 21
-583.8286022818904
 31
0.0
  0
LINE
  5
11F7
330
39D0
100
AcDbEntity
  8
NOTE
 62
     0
100
AcDbLine
 10
123.5
 20
-320.0
 30
0.0
 11
123.5
 21
-583.8286022818904
 31
0.0
  0
LINE
  5
11F8
330
39D0
100
AcDbEntity
  8
NOTE
 62
     0
100
AcDbLine
 10
-111.4999999999999
 20
-563.8286022818904
 30
0.0
 11
111.5
 21
-563.8286022818904
 31
0.0
  0
INSERT
  5
11F9
330
39D0
100
AcDbEntity
  8
NOTE
 62
     0
100
AcDbBlockReference
  2
_DOTBLANK
 10
-123.4999999999999
 20
-563.8286022818904
 30
0.0
 41
12.0
 42
12.0
 43
12.0
 50
180.0
  0
INSERT
  5
11FA
330
39D0
100
AcDbEntity
  8
NOTE
 62
     0
100
AcDbBlockReference
  2
_DOTBLANK
 10
123.5
 20
-563.8286022818904
 30
0.0
 41
12.0
 42
12.0
 43
12.0
  0
INSERT
  5
11FB
330
39D0
100
AcDbEntity
  8
0
100
AcDbBlockReference
  2
*U19
 10
0.0
 20
0.0
 30
0.0
  0
POINT
  5
11FC
330
39D0
100
AcDbEntity
  8
DEFPOINTS
 62
     0
100
AcDbPoint
 10
-123.4999999999999
 20
-300.0
 30
0.0
  0
POINT
  5
11FD
330
39D0
100
AcDbEntity
  8
DEFPOINTS
 62
     0
100
AcDbPoint
 10
123.5
 20
-300.0
 30
0.0
  0
POINT
  5
11FE
330
39D0
100
AcDbEntity
  8
DEFPOINTS
 62
     0
100
AcDbPoint
 10
123.5
 20
-563.8286022818904
 30
0.0
  0
ENDBLK
  5
11F5
330
39D0
100
AcDbEntity
  8
0
100
AcDbBlockEnd
  0
BLOCK
  5
39D3
330
39D2
100
AcDbEntity
  8
0
100
AcDbBlockBegin
  2
*U19
 70
     1
 10
0.0
 20
0.0
 30
0.0
  3
*U19
  1

  0
TEXT
  5
1EED
330
39D2
100
AcDbEntity
  8
NOTE
 62
     0
100
AcDbText
 10
-74.05714285714281
 20
-553.8286022818904
 30
0.0
 40
64.0
  1
247
 41
0.9
100
AcDbText
  0
ENDBLK
  5
1EEF
330
39D2
100
AcDbEntity
  8
0
100
AcDbBlockEnd
  0
BLOCK
  5
39D5
330
39D4
100
AcDbEntity
  8
0
100
AcDbBlockBegin
  2
*D20
 70
     1
 10
0.0
 20
0.0
 30
0.0
  3
*D20
  1

  0
LINE
  5
1284
330
39D4
100
AcDbEntity
  8
NOTE
 62
     0
100
AcDbLine
 10
-123.5
 20
12.0
 30
0.0
 11
-123.5
 21
71.83630134534229
 31
0.0
  0
LINE
  5
1285
330
39D4
100
AcDbEntity
  8
NOTE
 62
     0
100
AcDbLine
 10
123.5
 20
12.0
 30
0.0
 11
123.5
 21
71.83630134534229
 31
0.0
  0
LINE
  5
1286
330
39D4
100
AcDbEntity
  8
NOTE
 62
     0
100
AcDbLine
 10
-111.5
 20
51.83630134534229
 30
0.0
 11
111.5
 21
51.83630134534229
 31
0.0
  0
INSERT
  5
1287
330
39D4
100
AcDbEntity
  8
NOTE
 62
     0
100
AcDbBlockReference
  2
_DOTBLANK
 10
-123.5
 20
51.83630134534229
 30
0.0
 41
12.0
 42
12.0
 43
12.0
 50
180.0
  0
INSERT
  5
1288
330
39D4
100
AcDbEntity
  8
NOTE
 62
     0
100
AcDbBlockReference
  2
_DOTBLANK
 10
123.5
 20
51.83630134534229
 30
0.0
 41
12.0
 42
12.0
 43
12.0
  0
INSERT
  5
1289
330
39D4
100
AcDbEntity
  8
0
100
AcDbBlockReference
  2
*U21
 10
0.0
 20
0.0
 30
0.0
  0
POINT
  5
128A
330
39D4
100
AcDbEntity
  8
DEFPOINTS
 62
     0
100
AcDbPoint
 10
-123.5
 20
-8.0
 30
0.0
  0
POINT
  5
128B
330
39D4
100
AcDbEntity
  8
DEFPOINTS
 62
     0
100
AcDbPoint
 10
123.5
 20
-8.0
 30
0.0
  0
POINT
  5
128C
330
39D4
100
AcDbEntity
  8
DEFPOINTS
 62
     0
100
AcDbPoint
 10
123.5
 20
51.83630134534229
 30
0.0
  0
ENDBLK
  5
1283
330
39D4
100
AcDbEntity
  8
0
100
AcDbBlockEnd
  0
BLOCK
  5
39D7
330
39D6
100
AcDbEntity
  8
0
100
AcDbBlockBegin
  2
*U21
 70
     1
 10
0.0
 20
0.0
 30
0.0
  3
*U21
  1

  0
TEXT
  5
1EF1
330
39D6
100
AcDbEntity
  8
NOTE
 62
     0
100
AcDbText
 10
-74.05714285714283
 20
61.83630134534229
 30
0.0
 40
64.0
  1
247
 41
0.9
100
AcDbText
  0
ENDBLK
  5
1EF3
330
39D6
100
AcDbEntity
  8
0
100
AcDbBlockEnd
  0
BLOCK
  5
39D9
330
39D8
100
AcDbEntity
  8
0
100
AcDbBlockBegin
  2
*D22
 70
     1
 10
0.0
 20
0.0
 30
0.0
  3
*D22
  1

  0
LINE
  5
1414
330
39D8
100
AcDbEntity
  8
SIZE
 62
     0
100
AcDbLine
 10
-22313.11521613997
 20
7365.702971374808
 30
0.0
 11
-22313.11521613997
 21
7217.685576144207
 31
0.0
  0
LINE
  5
1415
330
39D8
100
AcDbEntity
  8
SIZE
 62
     0
100
AcDbLine
 10
-22044.11521613997
 20
7365.702971374808
 30
0.0
 11
-22044.11521613997
 21
7217.685576144207
 31
0.0
  0
LINE
  5
1416
330
39D8
100
AcDbEntity
  8
SIZE
 62
     0
100
AcDbLine
 10
-22301.11521613997
 20
7237.685576144207
 30
0.0
 11
-22056.11521613997
 21
7237.685576144207
 31
0.0
  0
INSERT
  5
1417
330
39D8
100
AcDbEntity
  8
SIZE
 62
     0
100
AcDbBlockReference
  2
_DOTBLANK
 10
-22313.11521613997
 20
7237.685576144207
 30
0.0
 41
12.0
 42
12.0
 43
12.0
 50
180.0
  0
INSERT
  5
1418
330
39D8
100
AcDbEntity
  8
SIZE
 62
     0
100
AcDbBlockReference
  2
_DOTBLANK
 10
-22044.11521613997
 20
7237.685576144207
 30
0.0
 41
12.0
 42
12.0
 43
12.0
  0
INSERT
  5
1419
330
39D8
100
AcDbEntity
  8
0
100
AcDbBlockReference
  2
*U23
 10
0.0
 20
0.0
 30
0.0
  0
POINT
  5
141A
330
39D8
100
AcDbEntity
  8
DEFPOINTS
 62
     0
100
AcDbPoint
 10
-22313.11521613997
 20
7385.702971374808
 30
0.0
  0
POINT
  5
141B
330
39D8
100
AcDbEntity
  8
DEFPOINTS
 62
     0
100
AcDbPoint
 10
-22044.11521613997
 20
7385.702971374808
 30
0.0
  0
POINT
  5
141C
330
39D8
100
AcDbEntity
  8
DEFPOINTS
 62
     0
100
AcDbPoint
 10
-22044.11521613997
 20
7237.685576144207
 30
0.0
  0
ENDBLK
  5
141D
330
39D8
100
AcDbEntity
  8
0
100
AcDbBlockEnd
  0
BLOCK
  5
39DB
330
39DA
100
AcDbEntity
  8
0
100
AcDbBlockBegin
  2
*U23
 70
     1
 10
0.0
 20
0.0
 30
0.0
  3
*U23
  1

  0
TEXT
  5
1EF9
330
39DA
100
AcDbEntity
  8
SIZE
 62
     0
100
AcDbText
 10
-22251.30093042568
 20
7247.685576144205
 30
0.0
 40
64.0
  1
269
 41
0.9
100
AcDbText
  0
ENDBLK
  5
1EFB
330
39DA
100
AcDbEntity
  8
0
100
AcDbBlockEnd
  0
BLOCK
  5
39DD
330
39DC
100
AcDbEntity
  8
0
100
AcDbBlockBegin
  2
*D24
 70
     1
 10
0.0
 20
0.0
 30
0.0
  3
*D24
  1

  0
LINE
  5
1420
330
39DC
100
AcDbEntity
  8
SIZE
  6
Continuous
 62
     0
100
AcDbLine
 10
-22035.11521613997
 20
7385.702971374808
 30
0.0
 11
-21873.97193165959
 21
7385.702971374808
 31
0.0
  0
LINE
  5
1421
330
39DC
100
AcDbEntity
  8
SIZE
  6
Continuous
 62
     0
100
AcDbLine
 10
-22001.11521613997
 20
7685.702971374808
 30
0.0
 11
-21873.97193165959
 21
7685.702971374808
 31
0.0
  0
LINE
  5
1422
330
39DC
100
AcDbEntity
  8
SIZE
  6
Continuous
 62
     0
100
AcDbLine
 10
-21893.97193165959
 20
7397.702971374808
 30
0.0
 11
-21893.97193165959
 21
7673.702971374808
 31
0.0
  0
INSERT
  5
1423
330
39DC
100
AcDbEntity
  8
SIZE
  6
Continuous
 62
     0
100
AcDbBlockReference
  2
_DOTBLANK
 10
-21893.97193165959
 20
7385.702971374808
 30
0.0
 41
12.0
 42
12.0
 43
12.0
 50
270.0
  0
INSERT
  5
1424
330
39DC
100
AcDbEntity
  8
SIZE
  6
Continuous
 62
     0
100
AcDbBlockReference
  2
_DOTBLANK
 10
-21893.97193165959
 20
7685.702971374808
 30
0.0
 41
12.0
 42
12.0
 43
12.0
 50
90.0
  0
INSERT
  5
1425
330
39DC
100
AcDbEntity
  8
0
100
AcDbBlockReference
  2
*U25
 10
0.0
 20
0.0
 30
0.0
  0
POINT
  5
1426
330
39DC
100
AcDbEntity
  8
DEFPOINTS
  6
Continuous
 62
     0
100
AcDbPoint
 10
-22055.11521613997
 20
7385.702971374808
 30
0.0
  0
POINT
  5
1427
330
39DC
100
AcDbEntity
  8
DEFPOINTS
  6
Continuous
 62
     0
100
AcDbPoint
 10
-22021.11521613997
 20
7685.702971374808
 30
0.0
  0
POINT
  5
1428
330
39DC
100
AcDbEntity
  8
DEFPOINTS
  6
Continuous
 62
     0
100
AcDbPoint
 10
-21893.97193165959
 20
7685.702971374808
 30
0.0
  0
ENDBLK
  5
1429
330
39DC
100
AcDbEntity
  8
0
100
AcDbBlockEnd
  0
BLOCK
  5
39DF
330
39DE
100
AcDbEntity
  8
0
100
AcDbBlockBegin
  2
*U25
 70
     1
 10
0.0
 20
0.0
 30
0.0
  3
*U25
  1

  0
TEXT
  5
1EFD
330
39DE
100
AcDbEntity
  8
SIZE
 62
     0
100
AcDbText
 10
-21903.97193165959
 20
7461.645828517662
 30
0.0
 40
64.0
  1
300
 50
90.0
 41
0.9
100
AcDbText
  0
ENDBLK
  5
1EFF
330
39DE
100
AcDbEntity
  8
0
100
AcDbBlockEnd
  0
BLOCK
  5
39E1
330
39E0
100
AcDbEntity
  8
0
100
AcDbBlockBegin
  2
*D26
 70
     1
 10
0.0
 20
0.0
 30
0.0
  3
*D26
  1

  0
LINE
  5
142C
330
39E0
100
AcDbEntity
  8
SIZE
 62
     0
100
AcDbLine
 10
-22318.61521613997
 20
7718.167454177002
 30
0.0
 11
-22318.61521613997
 21
7822.154659243358
 31
0.0
  0
LINE
  5
142D
330
39E0
100
AcDbEntity
  8
SIZE
 62
     0
100
AcDbLine
 10
-22038.61521613997
 20
7718.167454177002
 30
0.0
 11
-22038.61521613997
 21
7822.154659243358
 31
0.0
  0
LINE
  5
142E
330
39E0
100
AcDbEntity
  8
SIZE
 62
     0
100
AcDbLine
 10
-22306.61521613997
 20
7802.154659243358
 30
0.0
 11
-22050.61521613997
 21
7802.154659243358
 31
0.0
  0
INSERT
  5
142F
330
39E0
100
AcDbEntity
  8
SIZE
 62
     0
100
AcDbBlockReference
  2
_DOTBLANK
 10
-22318.61521613997
 20
7802.154659243358
 30
0.0
 41
12.0
 42
12.0
 43
12.0
 50
180.0
  0
INSERT
  5
1430
330
39E0
100
AcDbEntity
  8
SIZE
 62
     0
100
AcDbBlockReference
  2
_DOTBLANK
 10
-22038.61521613997
 20
7802.154659243358
 30
0.0
 41
12.0
 42
12.0
 43
12.0
  0
INSERT
  5
1431
330
39E0
100
AcDbEntity
  8
0
100
AcDbBlockReference
  2
*U27
 10
0.0
 20
0.0
 30
0.0
  0
POINT
  5
1432
330
39E0
100
AcDbEntity
  8
DEFPOINTS
 62
     0
100
AcDbPoint
 10
-22318.61521613997
 20
7698.167454177002
 30
0.0
  0
POINT
  5
1433
330
39E0
100
AcDbEntity
  8
DEFPOINTS
 62
     0
100
AcDbPoint
 10
-22038.61521613997
 20
7698.167454177002
 30
0.0
  0
POINT
  5
1434
330
39E0
100
AcDbEntity
  8
DEFPOINTS
 62
     0
100
AcDbPoint
 10
-22038.61521613997
 20
7802.154659243358
 30
0.0
  0
ENDBLK
  5
1435
330
39E0
100
AcDbEntity
  8
0
100
AcDbBlockEnd
  0
BLOCK
  5
39E3
330
39E2
100
AcDbEntity
  8
0
100
AcDbBlockBegin
  2
*U27
 70
     1
 10
0.0
 20
0.0
 30
0.0
  3
*U27
  1

  0
TEXT
  5
1F01
330
39E2
100
AcDbEntity
  8
SIZE
 62
     0
100
AcDbText
 10
-22252.6723589971
 20
7812.154659243358
 30
0.0
 40
64.0
  1
280
 41
0.9
100
AcDbText
  0
ENDBLK
  5
1F03
330
39E2
100
AcDbEntity
  8
0
100
AcDbBlockEnd
  0
BLOCK
  5
39E5
330
39E4
100
AcDbEntity
  8
0
100
AcDbBlockBegin
  2
*D28
 70
     1
 10
0.0
 20
0.0
 30
0.0
  3
*D28
  1

  0
LINE
  5
1438
330
39E4
100
AcDbEntity
  8
SIZE
 62
     0
100
AcDbLine
 10
-22336.11521613997
 20
7705.702971374808
 30
0.0
 11
-22336.11521613997
 21
7931.282433493766
 31
0.0
  0
LINE
  5
1439
330
39E4
100
AcDbEntity
  8
SIZE
 62
     0
100
AcDbLine
 10
-22021.11521613997
 20
7705.702971374808
 30
0.0
 11
-22021.11521613997
 21
7931.282433493766
 31
0.0
  0
LINE
  5
143A
330
39E4
100
AcDbEntity
  8
SIZE
 62
     0
100
AcDbLine
 10
-22324.11521613997
 20
7911.282433493766
 30
0.0
 11
-22033.11521613997
 21
7911.282433493766
 31
0.0
  0
INSERT
  5
143B
330
39E4
100
AcDbEntity
  8
SIZE
 62
     0
100
AcDbBlockReference
  2
_DOTBLANK
 10
-22336.11521613997
 20
7911.282433493766
 30
0.0
 41
12.0
 42
12.0
 43
12.0
 50
180.0
  0
INSERT
  5
143C
330
39E4
100
AcDbEntity
  8
SIZE
 62
     0
100
AcDbBlockReference
  2
_DOTBLANK
 10
-22021.11521613997
 20
7911.282433493766
 30
0.0
 41
12.0
 42
12.0
 43
12.0
  0
INSERT
  5
143D
330
39E4
100
AcDbEntity
  8
0
100
AcDbBlockReference
  2
*U29
 10
0.0
 20
0.0
 30
0.0
  0
POINT
  5
143E
330
39E4
100
AcDbEntity
  8
DEFPOINTS
 62
     0
100
AcDbPoint
 10
-22336.11521613997
 20
7685.702971374808
 30
0.0
  0
POINT
  5
143F
330
39E4
100
AcDbEntity
  8
DEFPOINTS
 62
     0
100
AcDbPoint
 10
-22021.11521613997
 20
7685.702971374808
 30
0.0
  0
POINT
  5
1440
330
39E4
100
AcDbEntity
  8
DEFPOINTS
 62
     0
100
AcDbPoint
 10
-22021.11521613997
 20
7911.282433493766
 30
0.0
  0
ENDBLK
  5
1441
330
39E4
100
AcDbEntity
  8
0
100
AcDbBlockEnd
  0
BLOCK
  5
39E7
330
39E6
100
AcDbEntity
  8
0
100
AcDbBlockBegin
  2
*U29
 70
     1
 10
0.0
 20
0.0
 30
0.0
  3
*U29
  1

  0
TEXT
  5
1F05
330
39E6
100
AcDbEntity
  8
SIZE
 62
     0
100
AcDbText
 10
-22247.18664471139
 20
7921.282433493766
 30
0.0
 40
64.0
  1
315
 41
0.9
100
AcDbText
  0
ENDBLK
  5
1F07
330
39E6
100
AcDbEntity
  8
0
100
AcDbBlockEnd
  0
BLOCK
  5
39E9
330
39E8
100
AcDbEntity
  8
0
100
AcDbBlockBegin
  2
*D30
 70
     1
 10
0.0
 20
0.0
 30
0.0
  3
*D30
  1

  0
LINE
  5
166B
330
39E8
100
AcDbEntity
  8
SIZE
 62
     0
100
AcDbLine
 10
-134.5
 20
-320.0
 30
0.0
 11
-134.5
 21
-468.0173952306001
 31
0.0
  0
LINE
  5
166C
330
39E8
100
AcDbEntity
  8
SIZE
 62
     0
100
AcDbLine
 10
134.5
 20
-320.0
 30
0.0
 11
134.5
 21
-468.0173952306001
 31
0.0
  0
LINE
  5
166D
330
39E8
100
AcDbEntity
  8
SIZE
 62
     0
100
AcDbLine
 10
-122.5
 20
-448.0173952306
 30
0.0
 11
122.5
 21
-448.0173952306
 31
0.0
  0
INSERT
  5
166E
330
39E8
100
AcDbEntity
  8
SIZE
 62
     0
100
AcDbBlockReference
  2
_DOTBLANK
 10
-134.5
 20
-448.0173952306
 30
0.0
 41
12.0
 42
12.0
 43
12.0
 50
180.0
  0
INSERT
  5
166F
330
39E8
100
AcDbEntity
  8
SIZE
 62
     0
100
AcDbBlockReference
  2
_DOTBLANK
 10
134.5
 20
-448.0173952306
 30
0.0
 41
12.0
 42
12.0
 43
12.0
  0
INSERT
  5
1670
330
39E8
100
AcDbEntity
  8
0
100
AcDbBlockReference
  2
*U31
 10
0.0
 20
0.0
 30
0.0
  0
POINT
  5
1671
330
39E8
100
AcDbEntity
  8
DEFPOINTS
 62
     0
100
AcDbPoint
 10
-134.5
 20
-300.0
 30
0.0
  0
POINT
  5
1672
330
39E8
100
AcDbEntity
  8
DEFPOINTS
 62
     0
100
AcDbPoint
 10
134.5
 20
-300.0
 30
0.0
  0
POINT
  5
1673
330
39E8
100
AcDbEntity
  8
DEFPOINTS
 62
     0
100
AcDbPoint
 10
134.5
 20
-448.0173952306
 30
0.0
  0
ENDBLK
  5
14A7
330
39E8
100
AcDbEntity
  8
0
100
AcDbBlockEnd
  0
BLOCK
  5
39EB
330
39EA
100
AcDbEntity
  8
0
100
AcDbBlockBegin
  2
*U31
 70
     1
 10
0.0
 20
0.0
 30
0.0
  3
*U31
  1

  0
TEXT
  5
1F09
330
39EA
100
AcDbEntity
  8
SIZE
 62
     0
100
AcDbText
 10
-72.68571428571426
 20
-438.0173952306002
 30
0.0
 40
64.0
  1
269
 41
0.9
100
AcDbText
  0
ENDBLK
  5
1F0B
330
39EA
100
AcDbEntity
  8
0
100
AcDbBlockEnd
  0
BLOCK
  5
39ED
330
39EC
100
AcDbEntity
  8
0
100
AcDbBlockBegin
  2
*D32
 70
     1
 10
0.0
 20
0.0
 30
0.0
  3
*D32
  1

  0
LINE
  5
1674
330
39EC
100
AcDbEntity
  8
SIZE
  6
Continuous
 62
     0
100
AcDbLine
 10
143.5
 20
-300.0
 30
0.0
 11
304.6432844803784
 21
-300.0
 31
0.0
  0
LINE
  5
1675
330
39EC
100
AcDbEntity
  8
SIZE
  6
Continuous
 62
     0
100
AcDbLine
 10
177.5
 20
-0.0000000000000057
 30
0.0
 11
304.6432844803785
 21
-0.0000000000000417
 31
0.0
  0
LINE
  5
1676
330
39EC
100
AcDbEntity
  8
SIZE
  6
Continuous
 62
     0
100
AcDbLine
 10
284.6432844803784
 20
-288.0000000000001
 30
0.0
 11
284.6432844803785
 21
-12.00000000000003
 31
0.0
  0
INSERT
  5
1677
330
39EC
100
AcDbEntity
  8
SIZE
  6
Continuous
 62
     0
100
AcDbBlockReference
  2
_DOTBLANK
 10
284.6432844803784
 20
-300.0
 30
0.0
 41
12.0
 42
12.0
 43
12.0
 50
270.0
  0
INSERT
  5
1678
330
39EC
100
AcDbEntity
  8
SIZE
  6
Continuous
 62
     0
100
AcDbBlockReference
  2
_DOTBLANK
 10
284.6432844803785
 20
-0.000000000000036
 30
0.0
 41
12.0
 42
12.0
 43
12.0
 50
90.0
  0
INSERT
  5
1679
330
39EC
100
AcDbEntity
  8
0
100
AcDbBlockReference
  2
*U33
 10
0.0
 20
0.0
 30
0.0
  0
POINT
  5
167A
330
39EC
100
AcDbEntity
  8
DEFPOINTS
  6
Continuous
 62
     0
100
AcDbPoint
 10
123.5
 20
-300.0
 30
0.0
  0
POINT
  5
167B
330
39EC
100
AcDbEntity
  8
DEFPOINTS
  6
Continuous
 62
     0
100
AcDbPoint
 10
157.5
 20
0.0
 30
0.0
  0
POINT
  5
167C
330
39EC
100
AcDbEntity
  8
DEFPOINTS
  6
Continuous
 62
     0
100
AcDbPoint
 10
284.6432844803785
 20
-0.000000000000036
 30
0.0
  0
ENDBLK
  5
14B3
330
39EC
100
AcDbEntity
  8
0
100
AcDbBlockEnd
  0
BLOCK
  5
39EF
330
39EE
100
AcDbEntity
  8
0
100
AcDbBlockBegin
  2
*U33
 70
     1
 10
0.0
 20
0.0
 30
0.0
  3
*U33
  1

  0
TEXT
  5
1F0D
330
39EE
100
AcDbEntity
  8
SIZE
 62
     0
100
AcDbText
 10
274.6432844803785
 20
-224.0571428571429
 30
0.0
 40
64.0
  1
300
 50
90.0
 41
0.9
100
AcDbText
  0
ENDBLK
  5
1F0F
330
39EE
100
AcDbEntity
  8
0
100
AcDbBlockEnd
  0
BLOCK
  5
39F1
330
39F0
100
AcDbEntity
  8
0
100
AcDbBlockBegin
  2
*D34
 70
     1
 10
0.0
 20
0.0
 30
0.0
  3
*D34
  1

  0
LINE
  5
167D
330
39F0
100
AcDbEntity
  8
SIZE
 62
     0
100
AcDbLine
 10
-140.0
 20
32.46448280219375
 30
0.0
 11
-140.0
 21
136.4516878685507
 31
0.0
  0
LINE
  5
167E
330
39F0
100
AcDbEntity
  8
SIZE
 62
     0
100
AcDbLine
 10
140.0
 20
32.46448280219375
 30
0.0
 11
140.0
 21
136.4516878685507
 31
0.0
  0
LINE
  5
167F
330
39F0
100
AcDbEntity
  8
SIZE
 62
     0
100
AcDbLine
 10
-128.0
 20
116.4516878685508
 30
0.0
 11
128.0
 21
116.4516878685508
 31
0.0
  0
INSERT
  5
1680
330
39F0
100
AcDbEntity
  8
SIZE
 62
     0
100
AcDbBlockReference
  2
_DOTBLANK
 10
-140.0
 20
116.4516878685508
 30
0.0
 41
12.0
 42
12.0
 43
12.0
 50
180.0
  0
INSERT
  5
1681
330
39F0
100
AcDbEntity
  8
SIZE
 62
     0
100
AcDbBlockReference
  2
_DOTBLANK
 10
140.0
 20
116.4516878685508
 30
0.0
 41
12.0
 42
12.0
 43
12.0
  0
INSERT
  5
1682
330
39F0
100
AcDbEntity
  8
0
100
AcDbBlockReference
  2
*U35
 10
0.0
 20
0.0
 30
0.0
  0
POINT
  5
1683
330
39F0
100
AcDbEntity
  8
DEFPOINTS
 62
     0
100
AcDbPoint
 10
-140.0
 20
12.46448280219374
 30
0.0
  0
POINT
  5
1684
330
39F0
100
AcDbEntity
  8
DEFPOINTS
 62
     0
100
AcDbPoint
 10
140.0
 20
12.46448280219374
 30
0.0
  0
POINT
  5
1685
330
39F0
100
AcDbEntity
  8
DEFPOINTS
 62
     0
100
AcDbPoint
 10
140.0
 20
116.4516878685508
 30
0.0
  0
ENDBLK
  5
14BF
330
39F0
100
AcDbEntity
  8
0
100
AcDbBlockEnd
  0
BLOCK
  5
39F3
330
39F2
100
AcDbEntity
  8
0
100
AcDbBlockBegin
  2
*U35
 70
     1
 10
0.0
 20
0.0
 30
0.0
  3
*U35
  1

  0
TEXT
  5
1F11
330
39F2
100
AcDbEntity
  8
SIZE
 62
     0
100
AcDbText
 10
-74.05714285714283
 20
126.4516878685507
 30
0.0
 40
64.0
  1
280
 41
0.9
100
AcDbText
  0
ENDBLK
  5
1F13
330
39F2
100
AcDbEntity
  8
0
100
AcDbBlockEnd
  0
BLOCK
  5
39F5
330
39F4
100
AcDbEntity
  8
0
100
AcDbBlockBegin
  2
*D36
 70
     1
 10
0.0
 20
0.0
 30
0.0
  3
*D36
  1

  0
LINE
  5
1686
330
39F4
100
AcDbEntity
  8
SIZE
 62
     0
100
AcDbLine
 10
-157.5
 20
20.0
 30
0.0
 11
-157.5
 21
245.5794621189598
 31
0.0
  0
LINE
  5
1687
330
39F4
100
AcDbEntity
  8
SIZE
 62
     0
100
AcDbLine
 10
157.5
 20
20.0
 30
0.0
 11
157.5
 21
245.5794621189598
 31
0.0
  0
LINE
  5
1688
330
39F4
100
AcDbEntity
  8
SIZE
 62
     0
100
AcDbLine
 10
-145.5
 20
225.5794621189598
 30
0.0
 11
145.5
 21
225.5794621189598
 31
0.0
  0
INSERT
  5
1689
330
39F4
100
AcDbEntity
  8
SIZE
 62
     0
100
AcDbBlockReference
  2
_DOTBLANK
 10
-157.5
 20
225.5794621189598
 30
0.0
 41
12.0
 42
12.0
 43
12.0
 50
180.0
  0
INSERT
  5
168A
330
39F4
100
AcDbEntity
  8
SIZE
 62
     0
100
AcDbBlockReference
  2
_DOTBLANK
 10
157.5
 20
225.5794621189598
 30
0.0
 41
12.0
 42
12.0
 43
12.0
  0
INSERT
  5
168B
330
39F4
100
AcDbEntity
  8
0
100
AcDbBlockReference
  2
*U37
 10
0.0
 20
0.0
 30
0.0
  0
POINT
  5
168C
330
39F4
100
AcDbEntity
  8
DEFPOINTS
 62
     0
100
AcDbPoint
 10
-157.5
 20
0.0
 30
0.0
  0
POINT
  5
168D
330
39F4
100
AcDbEntity
  8
DEFPOINTS
 62
     0
100
AcDbPoint
 10
157.5
 20
0.0
 30
0.0
  0
POINT
  5
168E
330
39F4
100
AcDbEntity
  8
DEFPOINTS
 62
     0
100
AcDbPoint
 10
157.5
 20
225.5794621189598
 30
0.0
  0
ENDBLK
  5
14CB
330
39F4
100
AcDbEntity
  8
0
100
AcDbBlockEnd
  0
BLOCK
  5
39F7
330
39F6
100
AcDbEntity
  8
0
100
AcDbBlockBegin
  2
*U37
 70
     1
 10
0.0
 20
0.0
 30
0.0
  3
*U37
  1

  0
TEXT
  5
1F15
330
39F6
100
AcDbEntity
  8
SIZE
 62
     0
100
AcDbText
 10
-68.57142857142857
 20
235.5794621189598
 30
0.0
 40
64.0
  1
315
 41
0.9
100
AcDbText
  0
ENDBLK
  5
1F17
330
39F6
100
AcDbEntity
  8
0
100
AcDbBlockEnd
  0
BLOCK
  5
39F9
330
39F8
100
AcDbEntity
  8
0
100
AcDbBlockBegin
  2
*U38
 70
     1
 10
0.0
 20
0.0
 30
0.0
  3
*U38
  1

  0
ENDBLK
  5
15CF
330
39F8
100
AcDbEntity
  8
0
100
AcDbBlockEnd
  0
BLOCK
  5
39FB
330
39FA
100
AcDbEntity
  8
0
100
AcDbBlockBegin
  2
*D39
 70
     1
 10
0.0
 20
0.0
 30
0.0
  3
*D39
  1

  0
LINE
  5
1692
330
39FA
100
AcDbEntity
  8
SIZE
 62
     0
100
AcDbLine
 10
-25844.51823276502
 20
7685.702971374808
 30
0.0
 11
-25981.04465488371
 21
7685.702971374808
 31
0.0
  0
LINE
  5
1693
330
39FA
100
AcDbEntity
  8
SIZE
 62
     0
100
AcDbLine
 10
-25844.51823276502
 20
7677.702971374808
 30
0.0
 11
-25981.04465488371
 21
7677.702971374808
 31
0.0
  0
LINE
  5
1694
330
39FA
100
AcDbEntity
  8
SIZE
 62
     0
100
AcDbLine
 10
-25961.04465488371
 20
7697.702971374808
 30
0.0
 11
-25961.04465488371
 21
7709.702971374809
 31
0.0
  0
LINE
  5
1695
330
39FA
100
AcDbEntity
  8
SIZE
 62
     0
100
AcDbLine
 10
-25961.04465488371
 20
7665.70297137481
 30
0.0
 11
-25961.04465488371
 21
7595.302971374808
 31
0.0
  0
INSERT
  5
1696
330
39FA
100
AcDbEntity
  8
SIZE
 62
     0
100
AcDbBlockReference
  2
_DOTBLANK
 10
-25961.04465488371
 20
7685.702971374808
 30
0.0
 41
12.0
 42
12.0
 43
12.0
 50
270.0
  0
INSERT
  5
1697
330
39FA
100
AcDbEntity
  8
SIZE
 62
     0
100
AcDbBlockReference
  2
_DOTBLANK
 10
-25961.04465488371
 20
7677.702971374808
 30
0.0
 41
12.0
 42
12.0
 43
12.0
 50
90.0
  0
INSERT
  5
1698
330
39FA
100
AcDbEntity
  8
0
100
AcDbBlockReference
  2
*U40
 10
0.0
 20
0.0
 30
0.0
  0
POINT
  5
1699
330
39FA
100
AcDbEntity
  8
DEFPOINTS
 62
     0
100
AcDbPoint
 10
-25824.51823276501
 20
7685.702971374808
 30
0.0
  0
POINT
  5
169A
330
39FA
100
AcDbEntity
  8
DEFPOINTS
 62
     0
100
AcDbPoint
 10
-25824.51823276501
 20
7677.702971374808
 30
0.0
  0
POINT
  5
169B
330
39FA
100
AcDbEntity
  8
DEFPOINTS
 62
     0
100
AcDbPoint
 10
-25961.04465488371
 20
7677.702971374808
 30
0.0
  0
ENDBLK
  5
169C
330
39FA
100
AcDbEntity
  8
0
100
AcDbBlockEnd
  0
BLOCK
  5
39FD
330
39FC
100
AcDbEntity
  8
0
100
AcDbBlockBegin
  2
*U40
 70
     1
 10
0.0
 20
0.0
 30
0.0
  3
*U40
  1

  0
TEXT
  5
1F19
330
39FC
100
AcDbEntity
  8
SIZE
 62
     0
100
AcDbText
 10
-25971.04465488371
 20
7605.302971374804
 30
0.0
 40
64.0
  1
8
 50
90.0
 41
0.9
100
AcDbText
  0
ENDBLK
  5
1F1B
330
39FC
100
AcDbEntity
  8
0
100
AcDbBlockEnd
  0
BLOCK
  5
39FF
330
39FE
100
AcDbEntity
  8
0
100
AcDbBlockBegin
  2
*D41
 70
     1
 10
0.0
 20
0.0
 30
0.0
  3
*D41
  1

  0
LINE
  5
169F
330
39FE
100
AcDbEntity
  8
SIZE
 62
     0
100
AcDbLine
 10
-25512.51823276502
 20
7385.702971374808
 30
0.0
 11
-25362.37494828464
 21
7385.702971374808
 31
0.0
  0
LINE
  5
16A0
330
39FE
100
AcDbEntity
  8
SIZE
 62
     0
100
AcDbLine
 10
-25523.51823276501
 20
7373.702971374808
 30
0.0
 11
-25362.37494828464
 21
7373.702971374808
 31
0.0
  0
LINE
  5
16A1
330
39FE
100
AcDbEntity
  8
SIZE
 62
     0
100
AcDbLine
 10
-25382.37494828464
 20
7397.702971374808
 30
0.0
 11
-25382.37494828464
 21
7409.70297137481
 31
0.0
  0
LINE
  5
16A2
330
39FE
100
AcDbEntity
  8
SIZE
 62
     0
100
AcDbLine
 10
-25382.37494828464
 20
7361.702971374808
 30
0.0
 11
-25382.37494828464
 21
7244.674399946237
 31
0.0
  0
INSERT
  5
16A3
330
39FE
100
AcDbEntity
  8
SIZE
 62
     0
100
AcDbBlockReference
  2
_DOTBLANK
 10
-25382.37494828464
 20
7385.702971374808
 30
0.0
 41
12.0
 42
12.0
 43
12.0
 50
270.0
  0
INSERT
  5
16A4
330
39FE
100
AcDbEntity
  8
SIZE
 62
     0
100
AcDbBlockReference
  2
_DOTBLANK
 10
-25382.37494828464
 20
7373.702971374808
 30
0.0
 41
12.0
 42
12.0
 43
12.0
 50
90.0
  0
INSERT
  5
16A5
330
39FE
100
AcDbEntity
  8
0
100
AcDbBlockReference
  2
*U42
 10
0.0
 20
0.0
 30
0.0
  0
POINT
  5
16A6
330
39FE
100
AcDbEntity
  8
DEFPOINTS
 62
     0
100
AcDbPoint
 10
-25532.51823276502
 20
7385.702971374808
 30
0.0
  0
POINT
  5
16A7
330
39FE
100
AcDbEntity
  8
DEFPOINTS
 62
     0
100
AcDbPoint
 10
-25543.51823276502
 20
7373.702971374808
 30
0.0
  0
POINT
  5
16A8
330
39FE
100
AcDbEntity
  8
DEFPOINTS
 62
     0
100
AcDbPoint
 10
-25382.37494828464
 20
7373.702971374808
 30
0.0
  0
ENDBLK
  5
16A9
330
39FE
100
AcDbEntity
  8
0
100
AcDbBlockEnd
  0
BLOCK
  5
3A01
330
3A00
100
AcDbEntity
  8
0
100
AcDbBlockBegin
  2
*U42
 70
     1
 10
0.0
 20
0.0
 30
0.0
  3
*U42
  1

  0
TEXT
  5
1F1D
330
3A00
100
AcDbEntity
  8
SIZE
 62
     0
100
AcDbText
 10
-25392.37494828464
 20
7256.045828517662
 30
0.0
 40
64.0
  1
12
 50
90.0
 41
0.9
100
AcDbText
  0
ENDBLK
  5
1F1F
330
3A00
100
AcDbEntity
  8
0
100
AcDbBlockEnd
  0
BLOCK
  5
3A03
330
3A02
100
AcDbEntity
  8
0
100
AcDbBlockBegin
  2
*D43
 70
     1
 10
0.0
 20
0.0
 30
0.0
  3
*D43
  1

  0
LINE
  5
16AC
330
3A02
100
AcDbEntity
  8
SIZE
 62
     0
100
AcDbLine
 10
-25801.51823276501
 20
7365.702971374808
 30
0.0
 11
-25801.51823276501
 21
7217.685576144207
 31
0.0
  0
LINE
  5
16AD
330
3A02
100
AcDbEntity
  8
SIZE
 62
     0
100
AcDbLine
 10
-25532.51823276502
 20
7365.702971374808
 30
0.0
 11
-25532.51823276502
 21
7217.685576144207
 31
0.0
  0
LINE
  5
16AE
330
3A02
100
AcDbEntity
  8
SIZE
 62
     0
100
AcDbLine
 10
-25789.51823276502
 20
7237.685576144207
 30
0.0
 11
-25544.51823276501
 21
7237.685576144207
 31
0.0
  0
INSERT
  5
16AF
330
3A02
100
AcDbEntity
  8
SIZE
 62
     0
100
AcDbBlockReference
  2
_DOTBLANK
 10
-25801.51823276501
 20
7237.685576144207
 30
0.0
 41
12.0
 42
12.0
 43
12.0
 50
180.0
  0
INSERT
  5
16B0
330
3A02
100
AcDbEntity
  8
SIZE
 62
     0
100
AcDbBlockReference
  2
_DOTBLANK
 10
-25532.51823276502
 20
7237.685576144207
 30
0.0
 41
12.0
 42
12.0
 43
12.0
  0
INSERT
  5
16B1
330
3A02
100
AcDbEntity
  8
0
100
AcDbBlockReference
  2
*U44
 10
0.0
 20
0.0
 30
0.0
  0
POINT
  5
16B2
330
3A02
100
AcDbEntity
  8
DEFPOINTS
 62
     0
100
AcDbPoint
 10
-25801.51823276501
 20
7385.702971374808
 30
0.0
  0
POINT
  5
16B3
330
3A02
100
AcDbEntity
  8
DEFPOINTS
 62
     0
100
AcDbPoint
 10
-25532.51823276502
 20
7385.702971374808
 30
0.0
  0
POINT
  5
16B4
330
3A02
100
AcDbEntity
  8
DEFPOINTS
 62
     0
100
AcDbPoint
 10
-25532.51823276502
 20
7237.685576144207
 30
0.0
  0
ENDBLK
  5
16B5
330
3A02
100
AcDbEntity
  8
0
100
AcDbBlockEnd
  0
BLOCK
  5
3A05
330
3A04
100
AcDbEntity
  8
0
100
AcDbBlockBegin
  2
*U44
 70
     1
 10
0.0
 20
0.0
 30
0.0
  3
*U44
  1

  0
TEXT
  5
1F21
330
3A04
100
AcDbEntity
  8
SIZE
 62
     0
100
AcDbText
 10
-25739.70394705074
 20
7247.685576144205
 30
0.0
 40
64.0
  1
269
 41
0.9
100
AcDbText
  0
ENDBLK
  5
1F23
330
3A04
100
AcDbEntity
  8
0
100
AcDbBlockEnd
  0
BLOCK
  5
3A07
330
3A06
100
AcDbEntity
  8
0
100
AcDbBlockBegin
  2
*D45
 70
     1
 10
0.0
 20
0.0
 30
0.0
  3
*D45
  1

  0
LINE
  5
16B8
330
3A06
100
AcDbEntity
  8
SIZE
 62
     0
100
AcDbLine
 10
-25512.51823276502
 20
7385.702971374808
 30
0.0
 11
-25362.37494828464
 21
7385.702971374808
 31
0.0
  0
LINE
  5
16B9
330
3A06
100
AcDbEntity
  8
SIZE
 62
     0
100
AcDbLine
 10
-25489.51823276501
 20
7685.702971374808
 30
0.0
 11
-25362.37494828464
 21
7685.702971374808
 31
0.0
  0
LINE
  5
16BA
330
3A06
100
AcDbEntity
  8
SIZE
 62
     0
100
AcDbLine
 10
-25382.37494828464
 20
7397.702971374808
 30
0.0
 11
-25382.37494828464
 21
7673.702971374808
 31
0.0
  0
INSERT
  5
16BB
330
3A06
100
AcDbEntity
  8
SIZE
 62
     0
100
AcDbBlockReference
  2
_DOTBLANK
 10
-25382.37494828464
 20
7385.702971374808
 30
0.0
 41
12.0
 42
12.0
 43
12.0
 50
270.0
  0
INSERT
  5
16BC
330
3A06
100
AcDbEntity
  8
SIZE
 62
     0
100
AcDbBlockReference
  2
_DOTBLANK
 10
-25382.37494828464
 20
7685.702971374808
 30
0.0
 41
12.0
 42
12.0
 43
12.0
 50
90.0
  0
INSERT
  5
16BD
330
3A06
100
AcDbEntity
  8
0
100
AcDbBlockReference
  2
*U46
 10
0.0
 20
0.0
 30
0.0
  0
POINT
  5
16BE
330
3A06
100
AcDbEntity
  8
DEFPOINTS
 62
     0
100
AcDbPoint
 10
-25532.51823276502
 20
7385.702971374808
 30
0.0
  0
POINT
  5
16BF
330
3A06
100
AcDbEntity
  8
DEFPOINTS
 62
     0
100
AcDbPoint
 10
-25509.51823276502
 20
7685.702971374808
 30
0.0
  0
POINT
  5
16C0
330
3A06
100
AcDbEntity
  8
DEFPOINTS
 62
     0
100
AcDbPoint
 10
-25382.37494828464
 20
7685.702971374808
 30
0.0
  0
ENDBLK
  5
16C1
330
3A06
100
AcDbEntity
  8
0
100
AcDbBlockEnd
  0
BLOCK
  5
3A09
330
3A08
100
AcDbEntity
  8
0
100
AcDbBlockBegin
  2
*U46
 70
     1
 10
0.0
 20
0.0
 30
0.0
  3
*U46
  1

  0
TEXT
  5
1F25
330
3A08
100
AcDbEntity
  8
SIZE
 62
     0
100
AcDbText
 10
-25392.37494828464
 20
7461.645828517662
 30
0.0
 40
64.0
  1
300
 50
90.0
 41
0.9
100
AcDbText
  0
ENDBLK
  5
1F27
330
3A08
100
AcDbEntity
  8
0
100
AcDbBlockEnd
  0
BLOCK
  5
3A0B
330
3A0A
100
AcDbEntity
  8
0
100
AcDbBlockBegin
  2
*D47
 70
     1
 10
0.0
 20
0.0
 30
0.0
  3
*D47
  1

  0
LINE
  5
16C4
330
3A0A
100
AcDbEntity
  8
SIZE
 62
     0
100
AcDbLine
 10
-25807.01823276501
 20
7718.167454177002
 30
0.0
 11
-25807.01823276501
 21
7822.154659243358
 31
0.0
  0
LINE
  5
16C5
330
3A0A
100
AcDbEntity
  8
SIZE
 62
     0
100
AcDbLine
 10
-25527.01823276501
 20
7718.167454177002
 30
0.0
 11
-25527.01823276501
 21
7822.154659243358
 31
0.0
  0
LINE
  5
16C6
330
3A0A
100
AcDbEntity
  8
SIZE
 62
     0
100
AcDbLine
 10
-25795.01823276502
 20
7802.154659243358
 30
0.0
 11
-25539.01823276501
 21
7802.154659243358
 31
0.0
  0
INSERT
  5
16C7
330
3A0A
100
AcDbEntity
  8
SIZE
 62
     0
100
AcDbBlockReference
  2
_DOTBLANK
 10
-25807.01823276501
 20
7802.154659243358
 30
0.0
 41
12.0
 42
12.0
 43
12.0
 50
180.0
  0
INSERT
  5
16C8
330
3A0A
100
AcDbEntity
  8
SIZE
 62
     0
100
AcDbBlockReference
  2
_DOTBLANK
 10
-25527.01823276501
 20
7802.154659243358
 30
0.0
 41
12.0
 42
12.0
 43
12.0
  0
INSERT
  5
16C9
330
3A0A
100
AcDbEntity
  8
0
100
AcDbBlockReference
  2
*U48
 10
0.0
 20
0.0
 30
0.0
  0
POINT
  5
16CA
330
3A0A
100
AcDbEntity
  8
DEFPOINTS
 62
     0
100
AcDbPoint
 10
-25807.01823276501
 20
7698.167454177002
 30
0.0
  0
POINT
  5
16CB
330
3A0A
100
AcDbEntity
  8
DEFPOINTS
 62
     0
100
AcDbPoint
 10
-25527.01823276501
 20
7698.167454177002
 30
0.0
  0
POINT
  5
16CC
330
3A0A
100
AcDbEntity
  8
DEFPOINTS
 62
     0
100
AcDbPoint
 10
-25527.01823276501
 20
7802.154659243358
 30
0.0
  0
ENDBLK
  5
16CD
330
3A0A
100
AcDbEntity
  8
0
100
AcDbBlockEnd
  0
BLOCK
  5
3A0D
330
3A0C
100
AcDbEntity
  8
0
100
AcDbBlockBegin
  2
*U48
 70
     1
 10
0.0
 20
0.0
 30
0.0
  3
*U48
  1

  0
TEXT
  5
1F29
330
3A0C
100
AcDbEntity
  8
SIZE
 62
     0
100
AcDbText
 10
-25741.07537562216
 20
7812.154659243358
 30
0.0
 40
64.0
  1
280
 41
0.9
100
AcDbText
  0
ENDBLK
  5
1F2B
330
3A0C
100
AcDbEntity
  8
0
100
AcDbBlockEnd
  0
BLOCK
  5
3A0F
330
3A0E
100
AcDbEntity
  8
0
100
AcDbBlockBegin
  2
*D49
 70
     1
 10
0.0
 20
0.0
 30
0.0
  3
*D49
  1

  0
LINE
  5
16D0
330
3A0E
100
AcDbEntity
  8
SIZE
 62
     0
100
AcDbLine
 10
-25824.51823276501
 20
7705.702971374808
 30
0.0
 11
-25824.51823276501
 21
7931.282433493766
 31
0.0
  0
LINE
  5
16D1
330
3A0E
100
AcDbEntity
  8
SIZE
 62
     0
100
AcDbLine
 10
-25509.51823276502
 20
7705.702971374808
 30
0.0
 11
-25509.51823276502
 21
7931.282433493766
 31
0.0
  0
LINE
  5
16D2
330
3A0E
100
AcDbEntity
  8
SIZE
 62
     0
100
AcDbLine
 10
-25812.51823276502
 20
7911.282433493766
 30
0.0
 11
-25521.51823276501
 21
7911.282433493766
 31
0.0
  0
INSERT
  5
16D3
330
3A0E
100
AcDbEntity
  8
SIZE
 62
     0
100
AcDbBlockReference
  2
_DOTBLANK
 10
-25824.51823276501
 20
7911.282433493766
 30
0.0
 41
12.0
 42
12.0
 43
12.0
 50
180.0
  0
INSERT
  5
16D4
330
3A0E
100
AcDbEntity
  8
SIZE
 62
     0
100
AcDbBlockReference
  2
_DOTBLANK
 10
-25509.51823276502
 20
7911.282433493766
 30
0.0
 41
12.0
 42
12.0
 43
12.0
  0
INSERT
  5
16D5
330
3A0E
100
AcDbEntity
  8
0
100
AcDbBlockReference
  2
*U50
 10
0.0
 20
0.0
 30
0.0
  0
POINT
  5
16D6
330
3A0E
100
AcDbEntity
  8
DEFPOINTS
 62
     0
100
AcDbPoint
 10
-25824.51823276501
 20
7685.702971374808
 30
0.0
  0
POINT
  5
16D7
330
3A0E
100
AcDbEntity
  8
DEFPOINTS
 62
     0
100
AcDbPoint
 10
-25509.51823276502
 20
7685.702971374808
 30
0.0
  0
POINT
  5
16D8
330
3A0E
100
AcDbEntity
  8
DEFPOINTS
 62
     0
100
AcDbPoint
 10
-25509.51823276502
 20
7911.282433493766
 30
0.0
  0
ENDBLK
  5
16D9
330
3A0E
100
AcDbEntity
  8
0
100
AcDbBlockEnd
  0
BLOCK
  5
3A11
330
3A10
100
AcDbEntity
  8
0
100
AcDbBlockBegin
  2
*U50
 70
     1
 10
0.0
 20
0.0
 30
0.0
  3
*U50
  1

  0
TEXT
  5
1F2D
330
3A10
100
AcDbEntity
  8
SIZE
 62
     0
100
AcDbText
 10
-25735.58966133645
 20
7921.282433493766
 30
0.0
 40
64.0
  1
315
 41
0.9
100
AcDbText
  0
ENDBLK
  5
1F2F
330
3A10
100
AcDbEntity
  8
0
100
AcDbBlockEnd
  0
BLOCK
  5
3A13
330
3A12
100
AcDbEntity
  8
0
100
AcDbBlockBegin
  2
*D51
 70
     1
 10
0.0
 20
0.0
 30
0.0
  3
*D51
  1

  0
LINE
  5
1D83
330
3A12
100
AcDbEntity
  8
SIZE
 62
     0
100
AcDbLine
 10
-134.5
 20
-320.0
 30
0.0
 11
-134.5
 21
-468.0173952306001
 31
0.0
  0
LINE
  5
1D84
330
3A12
100
AcDbEntity
  8
SIZE
 62
     0
100
AcDbLine
 10
134.5
 20
-320.0
 30
0.0
 11
134.5
 21
-468.0173952306001
 31
0.0
  0
LINE
  5
1D85
330
3A12
100
AcDbEntity
  8
SIZE
 62
     0
100
AcDbLine
 10
-122.5
 20
-448.0173952306
 30
0.0
 11
122.5
 21
-448.0173952306
 31
0.0
  0
INSERT
  5
1D86
330
3A12
100
AcDbEntity
  8
SIZE
 62
     0
100
AcDbBlockReference
  2
_DOTBLANK
 10
-134.5
 20
-448.0173952306
 30
0.0
 41
12.0
 42
12.0
 43
12.0
 50
180.0
  0
INSERT
  5
1D87
330
3A12
100
AcDbEntity
  8
SIZE
 62
     0
100
AcDbBlockReference
  2
_DOTBLANK
 10
134.5
 20
-448.0173952306
 30
0.0
 41
12.0
 42
12.0
 43
12.0
  0
INSERT
  5
1D88
330
3A12
100
AcDbEntity
  8
0
100
AcDbBlockReference
  2
*U52
 10
0.0
 20
0.0
 30
0.0
  0
POINT
  5
1D89
330
3A12
100
AcDbEntity
  8
DEFPOINTS
 62
     0
100
AcDbPoint
 10
-134.5
 20
-300.0
 30
0.0
  0
POINT
  5
1D8A
330
3A12
100
AcDbEntity
  8
DEFPOINTS
 62
     0
100
AcDbPoint
 10
134.5
 20
-300.0
 30
0.0
  0
POINT
  5
1D8B
330
3A12
100
AcDbEntity
  8
DEFPOINTS
 62
     0
100
AcDbPoint
 10
134.5
 20
-448.0173952306
 30
0.0
  0
ENDBLK
  5
173D
330
3A12
100
AcDbEntity
  8
0
100
AcDbBlockEnd
  0
BLOCK
  5
3A15
330
3A14
100
AcDbEntity
  8
0
100
AcDbBlockBegin
  2
*U52
 70
     1
 10
0.0
 20
0.0
 30
0.0
  3
*U52
  1

  0
TEXT
  5
1F31
330
3A14
100
AcDbEntity
  8
SIZE
 62
     0
100
AcDbText
 10
-72.68571428571426
 20
-438.0173952306003
 30
0.0
 40
64.0
  1
269
 41
0.9
100
AcDbText
  0
ENDBLK
  5
1F33
330
3A14
100
AcDbEntity
  8
0
100
AcDbBlockEnd
  0
BLOCK
  5
3A17
330
3A16
100
AcDbEntity
  8
0
100
AcDbBlockBegin
  2
*D53
 70
     1
 10
0.0
 20
0.0
 30
0.0
  3
*D53
  1

  0
LINE
  5
1D8C
330
3A16
100
AcDbEntity
  8
SIZE
 62
     0
100
AcDbLine
 10
154.5
 20
-300.0
 30
0.0
 11
304.6432844803784
 21
-300.0
 31
0.0
  0
LINE
  5
1D8D
330
3A16
100
AcDbEntity
  8
SIZE
 62
     0
100
AcDbLine
 10
177.5
 20
-0.0000000000000057
 30
0.0
 11
304.6432844803785
 21
-0.0000000000000417
 31
0.0
  0
LINE
  5
1D8E
330
3A16
100
AcDbEntity
  8
SIZE
 62
     0
100
AcDbLine
 10
284.6432844803784
 20
-288.0
 30
0.0
 11
284.6432844803785
 21
-12.00000000000003
 31
0.0
  0
INSERT
  5
1D8F
330
3A16
100
AcDbEntity
  8
SIZE
 62
     0
100
AcDbBlockReference
  2
_DOTBLANK
 10
284.6432844803784
 20
-300.0
 30
0.0
 41
12.0
 42
12.0
 43
12.0
 50
270.0
  0
INSERT
  5
1D90
330
3A16
100
AcDbEntity
  8
SIZE
 62
     0
100
AcDbBlockReference
  2
_DOTBLANK
 10
284.6432844803785
 20
-0.000000000000036
 30
0.0
 41
12.0
 42
12.0
 43
12.0
 50
90.0
  0
INSERT
  5
1D91
330
3A16
100
AcDbEntity
  8
0
100
AcDbBlockReference
  2
*U54
 10
0.0
 20
0.0
 30
0.0
  0
POINT
  5
1D92
330
3A16
100
AcDbEntity
  8
DEFPOINTS
 62
     0
100
AcDbPoint
 10
134.5
 20
-300.0
 30
0.0
  0
POINT
  5
1D93
330
3A16
100
AcDbEntity
  8
DEFPOINTS
 62
     0
100
AcDbPoint
 10
157.5
 20
0.0
 30
0.0
  0
POINT
  5
1D94
330
3A16
100
AcDbEntity
  8
DEFPOINTS
 62
     0
100
AcDbPoint
 10
284.6432844803785
 20
-0.000000000000036
 30
0.0
  0
ENDBLK
  5
1749
330
3A16
100
AcDbEntity
  8
0
100
AcDbBlockEnd
  0
BLOCK
  5
3A19
330
3A18
100
AcDbEntity
  8
0
100
AcDbBlockBegin
  2
*U54
 70
     1
 10
0.0
 20
0.0
 30
0.0
  3
*U54
  1

  0
TEXT
  5
1F35
330
3A18
100
AcDbEntity
  8
SIZE
 62
     0
100
AcDbText
 10
274.6432844803785
 20
-224.0571428571429
 30
0.0
 40
64.0
  1
300
 50
90.0
 41
0.9
100
AcDbText
  0
ENDBLK
  5
1F37
330
3A18
100
AcDbEntity
  8
0
100
AcDbBlockEnd
  0
BLOCK
  5
3A1B
330
3A1A
100
AcDbEntity
  8
0
100
AcDbBlockBegin
  2
*D55
 70
     1
 10
0.0
 20
0.0
 30
0.0
  3
*D55
  1

  0
LINE
  5
1D95
330
3A1A
100
AcDbEntity
  8
SIZE
 62
     0
100
AcDbLine
 10
-140.0
 20
32.46448280219375
 30
0.0
 11
-140.0
 21
136.4516878685508
 31
0.0
  0
LINE
  5
1D96
330
3A1A
100
AcDbEntity
  8
SIZE
 62
     0
100
AcDbLine
 10
140.0
 20
32.46448280219375
 30
0.0
 11
140.0
 21
136.4516878685508
 31
0.0
  0
LINE
  5
1D97
330
3A1A
100
AcDbEntity
  8
SIZE
 62
     0
100
AcDbLine
 10
-128.0
 20
116.4516878685508
 30
0.0
 11
128.0
 21
116.4516878685508
 31
0.0
  0
INSERT
  5
1D98
330
3A1A
100
AcDbEntity
  8
SIZE
 62
     0
100
AcDbBlockReference
  2
_DOTBLANK
 10
-140.0
 20
116.4516878685508
 30
0.0
 41
12.0
 42
12.0
 43
12.0
 50
180.0
  0
INSERT
  5
1D99
330
3A1A
100
AcDbEntity
  8
SIZE
 62
     0
100
AcDbBlockReference
  2
_DOTBLANK
 10
140.0
 20
116.4516878685508
 30
0.0
 41
12.0
 42
12.0
 43
12.0
  0
INSERT
  5
1D9A
330
3A1A
100
AcDbEntity
  8
0
100
AcDbBlockReference
  2
*U56
 10
0.0
 20
0.0
 30
0.0
  0
POINT
  5
1D9B
330
3A1A
100
AcDbEntity
  8
DEFPOINTS
 62
     0
100
AcDbPoint
 10
-140.0
 20
12.46448280219374
 30
0.0
  0
POINT
  5
1D9C
330
3A1A
100
AcDbEntity
  8
DEFPOINTS
 62
     0
100
AcDbPoint
 10
140.0
 20
12.46448280219374
 30
0.0
  0
POINT
  5
1D9D
330
3A1A
100
AcDbEntity
  8
DEFPOINTS
 62
     0
100
AcDbPoint
 10
140.0
 20
116.4516878685508
 30
0.0
  0
ENDBLK
  5
1755
330
3A1A
100
AcDbEntity
  8
0
100
AcDbBlockEnd
  0
BLOCK
  5
3A1D
330
3A1C
100
AcDbEntity
  8
0
100
AcDbBlockBegin
  2
*U56
 70
     1
 10
0.0
 20
0.0
 30
0.0
  3
*U56
  1

  0
TEXT
  5
1F39
330
3A1C
100
AcDbEntity
  8
SIZE
 62
     0
100
AcDbText
 10
-74.05714285714283
 20
126.4516878685508
 30
0.0
 40
64.0
  1
280
 41
0.9
100
AcDbText
  0
ENDBLK
  5
1F3B
330
3A1C
100
AcDbEntity
  8
0
100
AcDbBlockEnd
  0
BLOCK
  5
3A1F
330
3A1E
100
AcDbEntity
  8
0
100
AcDbBlockBegin
  2
*D57
 70
     1
 10
0.0
 20
0.0
 30
0.0
  3
*D57
  1

  0
LINE
  5
1D9E
330
3A1E
100
AcDbEntity
  8
SIZE
 62
     0
100
AcDbLine
 10
-157.5
 20
20.0
 30
0.0
 11
-157.5
 21
245.5794621189598
 31
0.0
  0
LINE
  5
1D9F
330
3A1E
100
AcDbEntity
  8
SIZE
 62
     0
100
AcDbLine
 10
157.5
 20
20.0
 30
0.0
 11
157.5
 21
245.5794621189598
 31
0.0
  0
LINE
  5
1DA0
330
3A1E
100
AcDbEntity
  8
SIZE
 62
     0
100
AcDbLine
 10
-145.5
 20
225.5794621189598
 30
0.0
 11
145.5
 21
225.5794621189598
 31
0.0
  0
INSERT
  5
1DA1
330
3A1E
100
AcDbEntity
  8
SIZE
 62
     0
100
AcDbBlockReference
  2
_DOTBLANK
 10
-157.5
 20
225.5794621189598
 30
0.0
 41
12.0
 42
12.0
 43
12.0
 50
180.0
  0
INSERT
  5
1DA2
330
3A1E
100
AcDbEntity
  8
SIZE
 62
     0
100
AcDbBlockReference
  2
_DOTBLANK
 10
157.5
 20
225.5794621189598
 30
0.0
 41
12.0
 42
12.0
 43
12.0
  0
INSERT
  5
1DA3
330
3A1E
100
AcDbEntity
  8
0
100
AcDbBlockReference
  2
*U58
 10
0.0
 20
0.0
 30
0.0
  0
POINT
  5
1DA4
330
3A1E
100
AcDbEntity
  8
DEFPOINTS
 62
     0
100
AcDbPoint
 10
-157.5
 20
0.0
 30
0.0
  0
POINT
  5
1DA5
330
3A1E
100
AcDbEntity
  8
DEFPOINTS
 62
     0
100
AcDbPoint
 10
157.5
 20
0.0
 30
0.0
  0
POINT
  5
1DA6
330
3A1E
100
AcDbEntity
  8
DEFPOINTS
 62
     0
100
AcDbPoint
 10
157.5
 20
225.5794621189598
 30
0.0
  0
ENDBLK
  5
1761
330
3A1E
100
AcDbEntity
  8
0
100
AcDbBlockEnd
  0
BLOCK
  5
3A21
330
3A20
100
AcDbEntity
  8
0
100
AcDbBlockBegin
  2
*U58
 70
     1
 10
0.0
 20
0.0
 30
0.0
  3
*U58
  1

  0
TEXT
  5
1F3D
330
3A20
100
AcDbEntity
  8
SIZE
 62
     0
100
AcDbText
 10
-68.57142857142857
 20
235.5794621189599
 30
0.0
 40
64.0
  1
315
 41
0.9
100
AcDbText
  0
ENDBLK
  5
1F3F
330
3A20
100
AcDbEntity
  8
0
100
AcDbBlockEnd
  0
BLOCK
  5
3A23
330
3A22
100
AcDbEntity
  8
0
100
AcDbBlockBegin
  2
*D59
 70
     1
 10
0.0
 20
0.0
 30
0.0
  3
*D59
  1

  0
LINE
  5
1DA7
330
3A22
100
AcDbEntity
  8
SIZE
 62
     0
100
AcDbLine
 10
-177.5
 20
0.0000000000000057
 30
0.0
 11
-314.0264221186908
 21
0.0000000000000443
 31
0.0
  0
LINE
  5
1DA8
330
3A22
100
AcDbEntity
  8
SIZE
 62
     0
100
AcDbLine
 10
-177.5
 20
-7.999999999999993
 30
0.0
 11
-314.0264221186908
 21
-7.999999999999958
 31
0.0
  0
LINE
  5
1DA9
330
3A22
100
AcDbEntity
  8
SIZE
 62
     0
100
AcDbLine
 10
-294.0264221186908
 20
12.00000000000003
 30
0.0
 11
-294.0264221186908
 21
24.00000000000004
 31
0.0
  0
LINE
  5
1DAA
330
3A22
100
AcDbEntity
  8
SIZE
 62
     0
100
AcDbLine
 10
-294.0264221186908
 20
-19.99999999999996
 30
0.0
 11
-294.0264221186908
 21
-90.39999999999997
 31
0.0
  0
INSERT
  5
1DAB
330
3A22
100
AcDbEntity
  8
SIZE
 62
     0
100
AcDbBlockReference
  2
_DOTBLANK
 10
-294.0264221186908
 20
0.0000000000000387
 30
0.0
 41
12.0
 42
12.0
 43
12.0
 50
270.0
  0
INSERT
  5
1DAC
330
3A22
100
AcDbEntity
  8
SIZE
 62
     0
100
AcDbBlockReference
  2
_DOTBLANK
 10
-294.0264221186908
 20
-7.999999999999961
 30
0.0
 41
12.0
 42
12.0
 43
12.0
 50
90.0
  0
INSERT
  5
1DAD
330
3A22
100
AcDbEntity
  8
0
100
AcDbBlockReference
  2
*U60
 10
0.0
 20
0.0
 30
0.0
  0
POINT
  5
1DAE
330
3A22
100
AcDbEntity
  8
DEFPOINTS
 62
     0
100
AcDbPoint
 10
-157.5
 20
0.0
 30
0.0
  0
POINT
  5
1DAF
330
3A22
100
AcDbEntity
  8
DEFPOINTS
 62
     0
100
AcDbPoint
 10
-157.5
 20
-8.000000000000003
 30
0.0
  0
POINT
  5
1DB0
330
3A22
100
AcDbEntity
  8
DEFPOINTS
 62
     0
100
AcDbPoint
 10
-294.0264221186908
 20
-7.999999999999961
 30
0.0
  0
ENDBLK
  5
176D
330
3A22
100
AcDbEntity
  8
0
100
AcDbBlockEnd
  0
BLOCK
  5
3A25
330
3A24
100
AcDbEntity
  8
0
100
AcDbBlockBegin
  2
*U60
 70
     1
 10
0.0
 20
0.0
 30
0.0
  3
*U60
  1

  0
TEXT
  5
1F41
330
3A24
100
AcDbEntity
  8
SIZE
 62
     0
100
AcDbText
 10
-304.0264221186908
 20
-80.4
 30
0.0
 40
64.0
  1
8
 50
90.0
 41
0.9
100
AcDbText
  0
ENDBLK
  5
1F43
330
3A24
100
AcDbEntity
  8
0
100
AcDbBlockEnd
  0
BLOCK
  5
3A27
330
3A26
100
AcDbEntity
  8
0
100
AcDbBlockBegin
  2
*D61
 70
     1
 10
0.0
 20
0.0
 30
0.0
  3
*D61
  1

  0
LINE
  5
1DB1
330
3A26
100
AcDbEntity
  8
SIZE
 62
     0
100
AcDbLine
 10
154.5
 20
-300.0
 30
0.0
 11
304.6432844803785
 21
-300.0
 31
0.0
  0
LINE
  5
1DB2
330
3A26
100
AcDbEntity
  8
SIZE
 62
     0
100
AcDbLine
 10
143.5
 20
-312.0
 30
0.0
 11
304.6432844803785
 21
-312.0
 31
0.0
  0
LINE
  5
1DB3
330
3A26
100
AcDbEntity
  8
SIZE
 62
     0
100
AcDbLine
 10
284.6432844803785
 20
-288.0
 30
0.0
 11
284.6432844803785
 21
-276.0
 31
0.0
  0
LINE
  5
1DB4
330
3A26
100
AcDbEntity
  8
SIZE
 62
     0
100
AcDbLine
 10
284.6432844803785
 20
-324.0000000000001
 30
0.0
 11
284.6432844803784
 21
-438.2857142857143
 31
0.0
  0
INSERT
  5
1DB5
330
3A26
100
AcDbEntity
  8
SIZE
 62
     0
100
AcDbBlockReference
  2
_DOTBLANK
 10
284.6432844803785
 20
-300.0
 30
0.0
 41
12.0
 42
12.0
 43
12.0
 50
270.0
  0
INSERT
  5
1DB6
330
3A26
100
AcDbEntity
  8
SIZE
 62
     0
100
AcDbBlockReference
  2
_DOTBLANK
 10
284.6432844803785
 20
-312.0
 30
0.0
 41
12.0
 42
12.0
 43
12.0
 50
90.0
  0
INSERT
  5
1DB7
330
3A26
100
AcDbEntity
  8
0
100
AcDbBlockReference
  2
*U62
 10
0.0
 20
0.0
 30
0.0
  0
POINT
  5
1DB8
330
3A26
100
AcDbEntity
  8
DEFPOINTS
 62
     0
100
AcDbPoint
 10
134.5
 20
-300.0
 30
0.0
  0
POINT
  5
1DB9
330
3A26
100
AcDbEntity
  8
DEFPOINTS
 62
     0
100
AcDbPoint
 10
123.5
 20
-312.0
 30
0.0
  0
POINT
  5
1DBA
330
3A26
100
AcDbEntity
  8
DEFPOINTS
 62
     0
100
AcDbPoint
 10
284.6432844803785
 20
-312.0
 30
0.0
  0
ENDBLK
  5
177B
330
3A26
100
AcDbEntity
  8
0
100
AcDbBlockEnd
  0
BLOCK
  5
3A29
330
3A28
100
AcDbEntity
  8
0
100
AcDbBlockBegin
  2
*U62
 70
     1
 10
0.0
 20
0.0
 30
0.0
  3
*U62
  1

  0
TEXT
  5
1F45
330
3A28
100
AcDbEntity
  8
SIZE
 62
     0
100
AcDbText
 10
274.6432844803785
 20
-428.2857142857142
 30
0.0
 40
64.0
  1
12
 50
90.0
 41
0.9
100
AcDbText
  0
ENDBLK
  5
1F47
330
3A28
100
AcDbEntity
  8
0
100
AcDbBlockEnd
  0
BLOCK
  5
3A2B
330
3A2A
100
AcDbEntity
  8
0
100
AcDbBlockBegin
  2
*U63
 70
     1
 10
0.0
 20
0.0
 30
0.0
  3
*U63
  1

  0
ENDBLK
  5
1D57
330
3A2A
100
AcDbEntity
  8
0
100
AcDbBlockEnd
  0
BLOCK
  5
3A2D
330
3A2C
100
AcDbEntity
  8
0
100
AcDbBlockBegin
  2
*U64
 70
     1
 10
0.0
 20
0.0
 30
0.0
  3
*U64
  1

  0
INSERT
  5
2088
330
3A2C
100
AcDbEntity
  8
NOTE
100
AcDbBlockReference
  2
_OPEN30
 10
-140.0
 20
0.0
 30
0.0
 41
12.0
 42
12.0
 43
12.0
 50
312.6090116116894
  0
POLYLINE
  5
2089
330
3A2C
100
AcDbEntity
  8
NOTE
100
AcDb2dPolyline
 66
     1
 10
0.0
 20
0.0
 30
0.0
  0
VERTEX
  5
2124
330
2089
100
AcDbEntity
  8
NOTE
100
AcDbVertex
100
AcDb2dVertex
 10
-148.1239008361894
 20
8.831887408915472
 30
0.0
  0
VERTEX
  5
2125
330
2089
100
AcDbEntity
  8
NOTE
100
AcDbVertex
100
AcDb2dVertex
 10
-227.8693999922543
 20
95.52709505801338
 30
0.0
  0
VERTEX
  5
2126
330
2089
100
AcDbEntity
  8
NOTE
100
AcDbVertex
100
AcDb2dVertex
 10
-773.7093999922541
 20
95.52709505801338
 30
0.0
  0
SEQEND
  5
2127
330
2089
100
AcDbEntity
  8
NOTE
  0
ENDBLK
  5
208A
330
3A2C
100
AcDbEntity
  8
0
100
AcDbBlockEnd
  0
BLOCK
  5
3A2F
330
3A2E
100
AcDbEntity
  8
0
100
AcDbBlockBegin
  2
*U65
 70
     1
 10
0.0
 20
0.0
 30
0.0
  3
*U65
  1

  0
TEXT
  5
208D
330
3A2E
100
AcDbEntity
  8
NOTE
100
AcDbText
 10
-773.7093999922541
 20
113.5270950580134
 30
0.0
 40
64.0
  1
4×φ10取付穴
 41
0.9
100
AcDbText
  0
ENDBLK
  5
208E
330
3A2E
100
AcDbEntity
  8
0
100
AcDbBlockEnd
  0
BLOCK
  5
3A31
330
3A30
100
AcDbEntity
  8
0
100
AcDbBlockBegin
  2
*U66
 70
     1
 10
0.0
 20
0.0
 30
0.0
  3
*U66
  1

  0
INSERT
  5
25A0
330
3A30
100
AcDbEntity
  8
NOTE
100
AcDbBlockReference
  2
_OPEN30
 10
140.0
 20
-163.0
 30
0.0
 41
12.0
 42
12.0
 43
12.0
 50
121.1254729019862
  0
POLYLINE
  5
25A1
330
3A30
100
AcDbEntity
  8
NOTE
100
AcDb2dPolyline
 66
     1
 10
0.0
 20
0.0
 30
0.0
  0
VERTEX
  5
25A2
330
25A1
100
AcDbEntity
  8
NOTE
100
AcDbVertex
100
AcDb2dVertex
 10
146.202967546068
 20
-173.2724482779144
 30
0.0
  0
VERTEX
  5
25A3
330
25A1
100
AcDbEntity
  8
NOTE
100
AcDbVertex
100
AcDb2dVertex
 10
239.6330394814046
 20
-327.9976784890477
 30
0.0
  0
VERTEX
  5
25A4
330
25A1
100
AcDbEntity
  8
NOTE
100
AcDbVertex
100
AcDb2dVertex
 10
726.7758966242618
 20
-327.9976784890477
 30
0.0
  0
SEQEND
  5
25A5
330
25A1
100
AcDbEntity
  8
NOTE
  0
ENDBLK
  5
25A6
330
3A30
100
AcDbEntity
  8
0
100
AcDbBlockEnd
  0
BLOCK
  5
3A33
330
3A32
100
AcDbEntity
  8
0
100
AcDbBlockBegin
  2
*U67
 70
     1
 10
0.0
 20
0.0
 30
0.0
  3
*U67
  1

  0
TEXT
  5
25A9
330
3A32
100
AcDbEntity
  8
NOTE
100
AcDbText
 10
301.6330394814046
 20
-309.9976784890478
 30
0.0
 40
64.0
  1
4×M8ボルト
 41
0.9
100
AcDbText
  0
ENDBLK
  5
25AA
330
3A32
100
AcDbEntity
  8
0
100
AcDbBlockEnd
  0
BLOCK
  5
3A35
330
3A34
100
AcDbEntity
  8
0
100
AcDbBlockBegin
  2
*U68
 70
     1
 10
0.0
 20
0.0
 30
0.0
  3
*U68
  1

  0
INSERT
  5
25AD
330
3A34
100
AcDbEntity
  8
NOTE
100
AcDbBlockReference
  2
_OPEN30
 10
-180.0
 20
0.0
 30
0.0
 41
12.0
 42
12.0
 43
12.0
 50
317.30704807954
  0
POLYLINE
  5
25AE
330
3A34
100
AcDbEntity
  8
NOTE
100
AcDb2dPolyline
 66
     1
 10
0.0
 20
0.0
 30
0.0
  0
VERTEX
  5
25AF
330
25AE
100
AcDbEntity
  8
NOTE
100
AcDbVertex
100
AcDb2dVertex
 10
-188.8199761379784
 20
8.136831135367829
 30
0.0
  0
VERTEX
  5
25B0
330
25AE
100
AcDbEntity
  8
NOTE
100
AcDbVertex
100
AcDb2dVertex
 10
-283.5472759511795
 20
95.52709505801429
 30
0.0
  0
VERTEX
  5
25B1
330
25AE
100
AcDbEntity
  8
NOTE
100
AcDbVertex
100
AcDb2dVertex
 10
-829.3872759511796
 20
95.52709505801429
 30
0.0
  0
SEQEND
  5
25B2
330
25AE
100
AcDbEntity
  8
NOTE
  0
ENDBLK
  5
25B3
330
3A34
100
AcDbEntity
  8
0
100
AcDbBlockEnd
  0
BLOCK
  5
3A37
330
3A36
100
AcDbEntity
  8
0
100
AcDbBlockBegin
  2
*U69
 70
     1
 10
0.0
 20
0.0
 30
0.0
  3
*U69
  1

  0
TEXT
  5
25B6
330
3A36
100
AcDbEntity
  8
NOTE
100
AcDbText
 10
-829.3872759511796
 20
113.5270950580143
 30
0.0
 40
64.0
  1
4×φ12取付穴
 41
0.9
100
AcDbText
  0
ENDBLK
  5
25B7
330
3A36
100
AcDbEntity
  8
0
100
AcDbBlockEnd
  0
BLOCK
  5
3A39
330
3A38
100
AcDbEntity
  8
0
100
AcDbBlockBegin
  2
*U70
 70
     1
 10
0.0
 20
0.0
 30
0.0
  3
*U70
  1

  0
INSERT
  5
25BA
330
3A38
100
AcDbEntity
  8
NOTE
100
AcDbBlockReference
  2
_OPEN30
 10
-140.0
 20
0.0
 30
0.0
 41
12.0
 42
12.0
 43
12.0
 50
301.8524288114912
  0
POLYLINE
  5
25BB
330
3A38
100
AcDbEntity
  8
NOTE
100
AcDb2dPolyline
 66
     1
 10
0.0
 20
0.0
 30
0.0
  0
VERTEX
  5
25BC
330
25BB
100
AcDbEntity
  8
NOTE
100
AcDbVertex
100
AcDb2dVertex
 10
-146.3327992838627
 20
10.19292172197488
 30
0.0
  0
VERTEX
  5
25BD
330
25BB
100
AcDbEntity
  8
NOTE
100
AcDbVertex
100
AcDb2dVertex
 10
-283.5472759511795
 20
231.0457163708852
 30
0.0
  0
VERTEX
  5
25BE
330
25BB
100
AcDbEntity
  8
NOTE
100
AcDbVertex
100
AcDb2dVertex
 10
-829.3872759511796
 20
231.0457163708852
 30
0.0
  0
SEQEND
  5
25BF
330
25BB
100
AcDbEntity
  8
NOTE
  0
ENDBLK
  5
25C0
330
3A38
100
AcDbEntity
  8
0
100
AcDbBlockEnd
  0
BLOCK
  5
3A3B
330
3A3A
100
AcDbEntity
  8
0
100
AcDbBlockBegin
  2
*U71
 70
     1
 10
0.0
 20
0.0
 30
0.0
  3
*U71
  1

  0
TEXT
  5
25C3
330
3A3A
100
AcDbEntity
  8
NOTE
100
AcDbText
 10
-829.3872759511796
 20
249.0457163708852
 30
0.0
 40
64.0
  1
4×φ10取付穴
 41
0.9
100
AcDbText
  0
ENDBLK
  5
25C4
330
3A3A
100
AcDbEntity
  8
0
100
AcDbBlockEnd
  0
BLOCK
  5
3A3D
330
3A3C
100
AcDbEntity
  8
0
100
AcDbBlockBegin
  2
*U72
 70
     1
 10
0.0
 20
0.0
 30
0.0
  3
*U72
  1

  0
TEXT
  5
25C7
330
3A3C
100
AcDbEntity
  8
SIZE
100
AcDbText
 10
-390.6089669212488
 20
-290.2571428571464
 30
0.0
 40
64.0
  1
23
 50
90.0
 41
0.9
100
AcDbText
  0
ENDBLK
  5
25C8
330
3A3C
100
AcDbEntity
  8
0
100
AcDbBlockEnd
  0
BLOCK
  5
3A3F
330
3A3E
100
AcDbEntity
  8
0
100
AcDbBlockBegin
  2
*U73
 70
     1
 10
0.0
 20
0.0
 30
0.0
  3
*U73
  1

  0
TEXT
  5
25CB
330
3A3E
100
AcDbEntity
  8
SIZE
100
AcDbText
 10
-390.6089669212488
 20
-138.5714285714285
 30
0.0
 40
64.0
  1
140
 50
90.0
 41
0.9
100
AcDbText
  0
ENDBLK
  5
25CC
330
3A3E
100
AcDbEntity
  8
0
100
AcDbBlockEnd
  0
BLOCK
  5
3A41
330
3A40
100
AcDbEntity
  8
0
100
AcDbBlockBegin
  2
*U74
 70
     1
 10
0.0
 20
0.0
 30
0.0
  3
*U74
  1

  0
TEXT
  5
294D
330
3A40
100
AcDbEntity
  8
SIZE
100
AcDbText
 10
-390.6089669212488
 20
-290.2571428571464
 30
0.0
 40
64.0
  1
23
 50
90.0
 41
0.9
100
AcDbText
  0
ENDBLK
  5
294E
330
3A40
100
AcDbEntity
  8
0
100
AcDbBlockEnd
  0
BLOCK
  5
3A43
330
3A42
100
AcDbEntity
  8
0
100
AcDbBlockBegin
  2
*U75
 70
     1
 10
0.0
 20
0.0
 30
0.0
  3
*U75
  1

  0
TEXT
  5
2951
330
3A42
100
AcDbEntity
  8
SIZE
100
AcDbText
 10
-390.6089669212488
 20
-138.5714285714285
 30
0.0
 40
64.0
  1
140
 50
90.0
 41
0.9
100
AcDbText
  0
ENDBLK
  5
2952
330
3A42
100
AcDbEntity
  8
0
100
AcDbBlockEnd
  0
ENDSEC
  0
SECTION
  2
ENTITIES
  0
TEXT
  5
953
330
395D
100
AcDbEntity
  8
OUTLINE
  6
Continuous
 62
     3
100
AcDbText
 10
-418.231467
 20
13.715189
 30
0.0
 40
64.0
  1
 
 41
0.9
100
AcDbText
  0
TEXT
  5
954
330
395D
100
AcDbEntity
  8
OUTLINE
  6
Continuous
 62
     3
100
AcDbText
 10
-418.231467
 20
13.715189
 30
0.0
 40
64.0
  1
 
 41
0.9
100
AcDbText
  0
TEXT
  5
955
330
395D
100
AcDbEntity
  8
OUTLINE
  6
Continuous
 62
     3
100
AcDbText
 10
1341.41903
 20
-706.0588199999997
 30
0.0
 40
64.0
  1
 
 41
0.9
100
AcDbText
  0
TEXT
  5
956
330
395D
100
AcDbEntity
  8
OUTLINE
  6
Continuous
 62
     3
100
AcDbText
 10
1341.41903
 20
-706.0588199999997
 30
0.0
 40
64.0
  1
 
 41
0.9
100
AcDbText
  0
TEXT
  5
957
330
395D
100
AcDbEntity
  8
OUTLINE
  6
Continuous
 62
     3
100
AcDbText
 10
1341.41903
 20
-706.0588199999997
 30
0.0
 40
64.0
  1
 
 41
0.9
100
AcDbText
  0
TEXT
  5
958
330
395D
100
AcDbEntity
  8
OUTLINE
  6
Continuous
 62
     3
100
AcDbText
 10
1341.41903
 20
-706.0588199999997
 30
0.0
 40
64.0
  1
 
 41
0.9
100
AcDbText
  0
TEXT
  5
30D9
330
395D
100
AcDbEntity
  8
ETC
100
AcDbText
 10
310.989989880254
 20
475.1730382873208
 30
0.0
 40
64.0
  1
システム部材
 41
0.9
100
AcDbText
  0
TEXT
  5
30DA
330
395D
100
AcDbEntity
  8
ETC
100
AcDbText
 10
317.1979878802556
 20
576.0563642873212
 30
0.0
 40
64.0
  1
FU-25PSFS-B_6
 41
0.9
100
AcDbText
  0
POINT
  5
30DC
330
395D
100
AcDbEntity
  8
ARRANGE
100
AcDbPoint
 10
-0.0000000000002274
 20
0.0
 30
0.0
 39
50.0
  0
CIRCLE
  5
30DD
330
395D
100
AcDbEntity
  8
ARRANGE
100
AcDbCircle
 10
-0.0000000000002274
 20
0.0
 30
0.0
 40
40.0
  0
LINE
  5
30DE
330
395D
100
AcDbEntity
  8
BASIS
100
AcDbLine
 10
-0.0000000000002274
 20
25.0
 30
0.0
 11
-0.0000000000002274
 21
-165.0
 31
0.0
  0
LINE
  5
30DF
330
395D
100
AcDbEntity
  8
DETAIL
100
AcDbLine
 10
-189.9999999999994
 20
-140.0
 30
0.0
 11
-189.9999999999994
 21
-1.0
 31
0.0
  0
LINE
  5
30E0
330
395D
100
AcDbEntity
  8
OUTLINE
100
AcDbLine
 10
189.9999999999994
 20
-114.0
 30
0.0
 11
189.9999999999994
 21
-140.0
 31
0.0
  0
LINE
  5
30E1
330
395D
100
AcDbEntity
  8
DETAIL
100
AcDbLine
 10
189.9999999999994
 20
-140.0
 30
0.0
 11
189.9999999999994
 21
-1.0
 31
0.0
  0
LINE
  5
30E2
330
395D
100
AcDbEntity
  8
DETAIL
100
AcDbLine
 10
-189.9999999999994
 20
-140.0
 30
0.0
 11
189.9999999999994
 21
-140.0
 31
0.0
  0
LINE
  5
30E3
330
395D
100
AcDbEntity
  8
DETAIL
100
AcDbLine
 10
-168.9999999999997
 20
-163.0
 30
0.0
 11
-160.9999999999997
 21
-163.0
 31
0.0
  0
LINE
  5
30E4
330
395D
100
AcDbEntity
  8
DETAIL
100
AcDbLine
 10
-160.9999999999997
 20
-163.0
 30
0.0
 11
-160.9999999999997
 21
-140.0
 31
0.0
  0
LINE
  5
30E5
330
395D
100
AcDbEntity
  8
DETAIL
100
AcDbLine
 10
-168.9999999999997
 20
-163.0
 30
0.0
 11
-168.9999999999997
 21
-140.0
 31
0.0
  0
LINE
  5
30E6
330
395D
100
AcDbEntity
  8
DETAIL
100
AcDbLine
 10
160.9999999999997
 20
-163.0
 30
0.0
 11
168.9999999999997
 21
-163.0
 31
0.0
  0
LINE
  5
30E7
330
395D
100
AcDbEntity
  8
DETAIL
100
AcDbLine
 10
160.9999999999997
 20
-163.0
 30
0.0
 11
160.9999999999997
 21
-140.0
 31
0.0
  0
LINE
  5
30E8
330
395D
100
AcDbEntity
  8
DETAIL
100
AcDbLine
 10
168.9999999999997
 20
-163.0
 30
0.0
 11
168.9999999999997
 21
-140.0
 31
0.0
  0
LINE
  5
30E9
330
395D
100
AcDbEntity
  8
DETAIL
100
AcDbLine
 10
-219.9999999999998
 20
-1.0
 30
0.0
 11
219.9999999999998
 21
-1.0
 31
0.0
  0
LINE
  5
30EA
330
395D
100
AcDbEntity
  8
DETAIL
100
AcDbLine
 10
-219.9999999999998
 20
0.0
 30
0.0
 11
219.9999999999998
 21
0.0
 31
0.0
  0
LINE
  5
30EB
330
395D
100
AcDbEntity
  8
NOTE
100
AcDbLine
 10
-204.9999999999998
 20
-12.5
 30
0.0
 11
-204.9999999999998
 21
12.5
 31
0.0
  0
LINE
  5
30EC
330
395D
100
AcDbEntity
  8
DETAIL
100
AcDbLine
 10
-219.9999999999998
 20
0.0
 30
0.0
 11
-219.9999999999998
 21
-1.0
 31
0.0
  0
LINE
  5
30ED
330
395D
100
AcDbEntity
  8
NOTE
100
AcDbLine
 10
204.9999999999998
 20
12.5
 30
0.0
 11
204.9999999999998
 21
-12.5
 31
0.0
  0
LINE
  5
30EE
330
395D
100
AcDbEntity
  8
DETAIL
100
AcDbLine
 10
219.9999999999998
 20
-1.0
 30
0.0
 11
219.9999999999998
 21
0.0
 31
0.0
  0
LINE
  5
30EF
330
395D
100
AcDbEntity
  8
NOTE
100
AcDbLine
 39
50.0
 10
192.4999999999998
 20
0.0
 30
0.0
 11
217.4999999999998
 21
0.0
 31
0.0
  0
LINE
  5
30F0
330
395D
100
AcDbEntity
  8
NOTE
100
AcDbLine
 39
50.0
 10
-217.4999999999998
 20
0.0
 30
0.0
 11
-192.4999999999998
 21
0.0
 31
0.0
  0
LINE
  5
30F1
330
395D
100
AcDbEntity
  8
OUTLINE
100
AcDbLine
 10
-189.9999999999994
 20
-140.0
 30
0.0
 11
-189.9999999999994
 21
-1.0
 31
0.0
  0
LINE
  5
30F2
330
395D
100
AcDbEntity
  8
OUTLINE
100
AcDbLine
 10
189.9999999999994
 20
-140.0
 30
0.0
 11
189.9999999999994
 21
-1.0
 31
0.0
  0
LINE
  5
30F3
330
395D
100
AcDbEntity
  8
OUTLINE
100
AcDbLine
 10
-189.9999999999994
 20
-140.0
 30
0.0
 11
189.9999999999994
 21
-140.0
 31
0.0
  0
LINE
  5
30F4
330
395D
100
AcDbEntity
  8
OUTLINE
100
AcDbLine
 10
-168.9999999999997
 20
-163.0
 30
0.0
 11
-160.9999999999997
 21
-163.0
 31
0.0
  0
LINE
  5
30F5
330
395D
100
AcDbEntity
  8
OUTLINE
100
AcDbLine
 10
-160.9999999999997
 20
-163.0
 30
0.0
 11
-160.9999999999997
 21
-140.0
 31
0.0
  0
LINE
  5
30F6
330
395D
100
AcDbEntity
  8
OUTLINE
100
AcDbLine
 10
-168.9999999999997
 20
-163.0
 30
0.0
 11
-168.9999999999997
 21
-140.0
 31
0.0
  0
LINE
  5
30F7
330
395D
100
AcDbEntity
  8
OUTLINE
100
AcDbLine
 10
160.9999999999997
 20
-163.0
 30
0.0
 11
168.9999999999997
 21
-163.0
 31
0.0
  0
LINE
  5
30F8
330
395D
100
AcDbEntity
  8
OUTLINE
100
AcDbLine
 10
160.9999999999997
 20
-163.0
 30
0.0
 11
160.9999999999997
 21
-140.0
 31
0.0
  0
LINE
  5
30F9
330
395D
100
AcDbEntity
  8
OUTLINE
100
AcDbLine
 10
168.9999999999997
 20
-163.0
 30
0.0
 11
168.9999999999997
 21
-140.0
 31
0.0
  0
LINE
  5
30FA
330
395D
100
AcDbEntity
  8
OUTLINE
100
AcDbLine
 10
-219.9999999999998
 20
-1.0
 30
0.0
 11
219.9999999999998
 21
-1.0
 31
0.0
  0
LINE
  5
30FB
330
395D
100
AcDbEntity
  8
OUTLINE
100
AcDbLine
 10
-219.9999999999998
 20
0.0
 30
0.0
 11
-219.9999999999998
 21
-1.0
 31
0.0
  0
LINE
  5
30FC
330
395D
100
AcDbEntity
  8
OUTLINE
100
AcDbLine
 10
219.9999999999998
 20
-1.0
 30
0.0
 11
219.9999999999998
 21
0.0
 31
0.0
  0
LINE
  5
30FD
330
395D
100
AcDbEntity
  8
NOTE
100
AcDbLine
 10
164.9999999999996
 20
12.5
 30
0.0
 11
164.9999999999996
 21
-12.5
 31
0.0
  0
LINE
  5
30FE
330
395D
100
AcDbEntity
  8
NOTE
100
AcDbLine
 39
50.0
 10
152.4999999999996
 20
0.0
 30
0.0
 11
177.4999999999994
 21
0.0
 31
0.0
  0
LINE
  5
30FF
330
395D
100
AcDbEntity
  8
NOTE
100
AcDbLine
 10
-164.9999999999996
 20
12.5
 30
0.0
 11
-164.9999999999996
 21
-12.5
 31
0.0
  0
LINE
  5
3100
330
395D
100
AcDbEntity
  8
NOTE
100
AcDbLine
 39
50.0
 10
-177.4999999999994
 20
0.0
 30
0.0
 11
-152.4999999999996
 21
0.0
 31
0.0
  0
LINE
  5
3101
330
395D
100
AcDbEntity
  8
OUTLINE
100
AcDbLine
 39
50.0
 10
-219.9999999999998
 20
0.0
 30
0.0
 11
219.9999999999998
 21
0.0
 31
0.0
  0
TEXT
  5
3102
330
395D
100
AcDbEntity
  8
NOTE
100
AcDbText
 10
-854.3872759511796
 20
249.0457163708853
 30
0.0
 40
64.0
  1
4×φ10取付穴
 41
0.9
100
AcDbText
  0
INSERT
  5
3103
330
395D
100
AcDbEntity
  8
NOTE
100
AcDbBlockReference
  2
_OPEN30
 10
-164.9999999999996
 20
0.0
 30
0.0
 41
11.99999999999993
 42
12.0
 43
12.0
 50
301.8524288114908
1001
ACAD
1000
DSTYLE
1002
{
1070
    41
1040
12.0
1070
    42
1040
20.0
1070
    43
1040
200.0
1070
    44
1040
20.0
1070
    73
1070
     0
1070
    74
1070
     0
1070
    77
1070
     1
1070
    78
1070
     8
1070
   140
1040
64.0
1070
   147
1040
50.0
1070
   172
1070
     1
1070
   174
1070
     1
1070
   275
1070
     0
1070
   284
1070
     0
1070
   285
1070
     0
1070
   286
1070
     0
1070
   341
1005
0
1070
   342
1005
0
1002
}
  0
POLYLINE
  5
3104
330
395D
100
AcDbEntity
  8
NOTE
100
AcDb2dPolyline
 66
     1
 10
0.0
 20
0.0
 30
0.0
1001
ACAD
1000
DSTYLE
1002
{
1070
    41
1040
12.0
1070
    42
1040
20.0
1070
    43
1040
200.0
1070
    44
1040
20.0
1070
    73
1070
     0
1070
    74
1070
     0
1070
    77
1070
     1
1070
    78
1070
     8
1070
   140
1040
64.0
1070
   147
1040
50.0
1070
   172
1070
     1
1070
   174
1070
     1
1070
   275
1070
     0
1070
   284
1070
     0
1070
   285
1070
     0
1070
   286
1070
     0
1070
   341
1005
0
1070
   342
1005
0
1002
}
  0
VERTEX
  5
3105
330
3104
100
AcDbEntity
  8
NOTE
100
AcDbVertex
100
AcDb2dVertex
 10
-171.3327992838624
 20
10.19292172197487
 30
0.0
  0
VERTEX
  5
3106
330
3104
100
AcDbEntity
  8
NOTE
100
AcDbVertex
100
AcDb2dVertex
 10
-308.5472759511792
 20
231.0457163708853
 30
0.0
  0
VERTEX
  5
3107
330
3104
100
AcDbEntity
  8
NOTE
100
AcDbVertex
100
AcDb2dVertex
 10
-854.3872759511796
 20
231.0457163708853
 30
0.0
  0
SEQEND
  5
3108
330
3104
100
AcDbEntity
  8
NOTE
  0
TEXT
  5
3109
330
395D
100
AcDbEntity
  8
NOTE
100
AcDbText
 10
-854.387275951179
 20
113.5270950580142
 30
0.0
 40
64.0
  1
4×φ12取付穴
 41
0.9
100
AcDbText
  0
INSERT
  5
310A
330
395D
100
AcDbEntity
  8
NOTE
100
AcDbBlockReference
  2
_OPEN30
 10
-204.9999999999998
 20
0.0
 30
0.0
 41
11.99999999999993
 42
12.0
 43
12.0
 50
317.3070480795396
1001
ACAD
1000
DSTYLE
1002
{
1070
    41
1040
12.0
1070
    42
1040
20.0
1070
    43
1040
200.0
1070
    44
1040
20.0
1070
    73
1070
     0
1070
    74
1070
     0
1070
    77
1070
     1
1070
    78
1070
     8
1070
   140
1040
64.0
1070
   147
1040
50.0
1070
   172
1070
     1
1070
   174
1070
     1
1070
   275
1070
     0
1070
   284
1070
     0
1070
   285
1070
     0
1070
   286
1070
     0
1070
   341
1005
0
1070
   342
1005
0
1002
}
  0
POLYLINE
  5
310B
330
395D
100
AcDbEntity
  8
NOTE
100
AcDb2dPolyline
 66
     1
 10
0.0
 20
0.0
 30
0.0
1001
ACAD
1000
DSTYLE
1002
{
1070
    41
1040
12.0
1070
    42
1040
20.0
1070
    43
1040
200.0
1070
    44
1040
20.0
1070
    73
1070
     0
1070
    74
1070
     0
1070
    77
1070
     1
1070
    78
1070
     8
1070
   140
1040
64.0
1070
   147
1040
50.0
1070
   172
1070
     1
1070
   174
1070
     1
1070
   275
1070
     0
1070
   284
1070
     0
1070
   285
1070
     0
1070
   286
1070
     0
1070
   341
1005
0
1070
   342
1005
0
1002
}
  0
VERTEX
  5
310C
330
310B
100
AcDbEntity
  8
NOTE
100
AcDbVertex
100
AcDb2dVertex
 10
-213.8199761379783
 20
8.136831135367856
 30
0.0
  0
VERTEX
  5
310D
330
310B
100
AcDbEntity
  8
NOTE
100
AcDbVertex
100
AcDb2dVertex
 10
-308.5472759511792
 20
95.52709505801422
 30
0.0
  0
VERTEX
  5
310E
330
310B
100
AcDbEntity
  8
NOTE
100
AcDbVertex
100
AcDb2dVertex
 10
-854.387275951179
 20
95.52709505801422
 30
0.0
  0
SEQEND
  5
310F
330
310B
100
AcDbEntity
  8
NOTE
  0
LINE
  5
3110
330
395D
100
AcDbEntity
  8
SIZE
100
AcDbLine
 10
-239.9999999999998
 20
-140.0
 30
0.0
 11
-436.1350734299556
 21
-139.9999999999998
 31
0.0
  0
LINE
  5
3111
330
395D
100
AcDbEntity
  8
SIZE
100
AcDbLine
 10
-239.9999999999998
 20
0.0
 30
0.0
 11
-436.1350734299556
 21
0.0000000000000568
 31
0.0
  0
LINE
  5
3112
330
395D
100
AcDbEntity
  8
SIZE
100
AcDbLine
 10
-416.1350734299555
 20
-152.0
 30
0.0
 11
-416.1350734299555
 21
-163.9999999999998
 31
0.0
  0
LINE
  5
3113
330
395D
100
AcDbEntity
  8
SIZE
100
AcDbLine
 10
-416.1350734299555
 20
12.00000000000005
 30
0.0
 11
-416.1350734299555
 21
24.00000000000006
 31
0.0
  0
LINE
  5
3114
330
395D
100
AcDbEntity
  8
SIZE
100
AcDbLine
 10
-416.1350734299555
 20
-139.9999999999998
 30
0.0
 11
-416.1350734299555
 21
0.0000000000000568
 31
0.0
  0
LINE
  5
3115
330
395D
100
AcDbEntity
  8
SIZE
100
AcDbLine
 10
-209.9999999999998
 20
-139.9999999999998
 30
0.0
 11
-436.1350734299556
 21
-139.9999999999998
 31
0.0
  0
LINE
  5
3116
330
395D
100
AcDbEntity
  8
SIZE
100
AcDbLine
 10
-188.9999999999997
 20
-163.0
 30
0.0
 11
-436.1350734299556
 21
-162.9999999999998
 31
0.0
  0
LINE
  5
3117
330
395D
100
AcDbEntity
  8
SIZE
100
AcDbLine
 10
-416.1350734299555
 20
-127.9999999999999
 30
0.0
 11
-416.1350734299555
 21
-115.9999999999999
 31
0.0
  0
LINE
  5
3118
330
395D
100
AcDbEntity
  8
SIZE
100
AcDbLine
 10
-416.1350734299555
 20
-174.9999999999999
 30
0.0
 11
-416.1350734299555
 21
-300.2571428571445
 31
0.0
  0
LINE
  5
3119
330
395D
100
AcDbEntity
  8
SIZE
100
AcDbLine
 10
-416.1350734299555
 20
-139.9999999999998
 30
0.0
 11
-416.1350734299555
 21
-162.9999999999998
 31
0.0
  0
LINE
  5
311A
330
395D
100
AcDbEntity
  8
SIZE
100
AcDbLine
 10
-164.9999999999996
 20
32.5
 30
0.0
 11
-164.9999999999996
 21
133.0310627154977
 31
0.0
  0
LINE
  5
311B
330
395D
100
AcDbEntity
  8
SIZE
100
AcDbLine
 10
164.9999999999996
 20
32.5
 30
0.0
 11
164.9999999999996
 21
133.0310627154977
 31
0.0
  0
LINE
  5
311C
330
395D
100
AcDbEntity
  8
SIZE
100
AcDbLine
 10
-152.9999999999998
 20
113.0310627154976
 30
0.0
 11
152.9999999999998
 21
113.0310627154976
 31
0.0
  0
LINE
  5
311D
330
395D
100
AcDbEntity
  8
SIZE
100
AcDbLine
 10
-204.9999999999998
 20
32.5
 30
0.0
 11
-204.9999999999998
 21
237.2674867456954
 31
0.0
  0
LINE
  5
311E
330
395D
100
AcDbEntity
  8
SIZE
100
AcDbLine
 10
204.9999999999998
 20
32.5
 30
0.0
 11
204.9999999999998
 21
237.2674867456954
 31
0.0
  0
LINE
  5
311F
330
395D
100
AcDbEntity
  8
SIZE
100
AcDbLine
 10
-192.9999999999997
 20
217.2674867456954
 30
0.0
 11
192.9999999999997
 21
217.2674867456954
 31
0.0
  0
LINE
  5
3120
330
395D
100
AcDbEntity
  8
SIZE
100
AcDbLine
 10
-219.9999999999998
 20
20.0
 30
0.0
 11
-219.9999999999998
 21
332.5524228810319
 31
0.0
  0
LINE
  5
3121
330
395D
100
AcDbEntity
  8
SIZE
100
AcDbLine
 10
219.9999999999998
 20
20.0
 30
0.0
 11
219.9999999999998
 21
332.5524228810319
 31
0.0
  0
LINE
  5
3122
330
395D
100
AcDbEntity
  8
SIZE
100
AcDbLine
 10
-207.9999999999998
 20
312.5524228810319
 30
0.0
 11
207.9999999999998
 21
312.5524228810319
 31
0.0
  0
LINE
  5
3123
330
395D
100
AcDbEntity
  8
SIZE
100
AcDbLine
 10
-164.9999999999996
 20
-183.0
 30
0.0
 11
-164.9999999999996
 21
-317.5327814878365
 31
0.0
  0
LINE
  5
3124
330
395D
100
AcDbEntity
  8
SIZE
100
AcDbLine
 10
164.9999999999996
 20
-183.0
 30
0.0
 11
164.9999999999996
 21
-317.5327814878365
 31
0.0
  0
LINE
  5
3125
330
395D
100
AcDbEntity
  8
SIZE
100
AcDbLine
 10
-152.9999999999998
 20
-297.5327814878365
 30
0.0
 11
152.9999999999998
 21
-297.5327814878365
 31
0.0
  0
TEXT
  5
3126
330
395D
100
AcDbEntity
  8
NOTE
100
AcDbText
 10
326.6330394814047
 20
-309.9976784890478
 30
0.0
 40
64.0
  1
4×M8ボルト
 41
0.9
100
AcDbText
  0
INSERT
  5
3127
330
395D
100
AcDbEntity
  8
NOTE
100
AcDbBlockReference
  2
_OPEN30
 10
164.9999999999996
 20
-163.0
 30
0.0
 41
12.00000000000001
 42
12.0
 43
12.0
 50
121.1254729019862
1001
ACAD
1000
DSTYLE
1002
{
1070
    41
1040
12.0
1070
    42
1040
20.0
1070
    43
1040
200.0
1070
    44
1040
20.0
1070
    73
1070
     0
1070
    74
1070
     0
1070
    77
1070
     1
1070
    78
1070
     8
1070
   140
1040
64.0
1070
   147
1040
50.0
1070
   172
1070
     1
1070
   174
1070
     1
1070
   275
1070
     0
1070
   284
1070
     0
1070
   285
1070
     0
1070
   286
1070
     0
1070
   341
1005
0
1070
   342
1005
0
1002
}
  0
POLYLINE
  5
3128
330
395D
100
AcDbEntity
  8
NOTE
100
AcDb2dPolyline
 66
     1
 10
0.0
 20
0.0
 30
0.0
1001
ACAD
1000
DSTYLE
1002
{
1070
    41
1040
12.0
1070
    42
1040
20.0
1070
    43
1040
200.0
1070
    44
1040
20.0
1070
    73
1070
     0
1070
    74
1070
     0
1070
    77
1070
     1
1070
    78
1070
     8
1070
   140
1040
64.0
1070
   147
1040
50.0
1070
   172
1070
     1
1070
   174
1070
     1
1070
   275
1070
     0
1070
   284
1070
     0
1070
   285
1070
     0
1070
   286
1070
     0
1070
   341
1005
0
1070
   342
1005
0
1002
}
  0
VERTEX
  5
3129
330
3128
100
AcDbEntity
  8
NOTE
100
AcDbVertex
100
AcDb2dVertex
 10
171.2029675460678
 20
-173.2724482779144
 30
0.0
  0
VERTEX
  5
312A
330
3128
100
AcDbEntity
  8
NOTE
100
AcDbVertex
100
AcDb2dVertex
 10
264.6330394814047
 20
-327.9976784890477
 30
0.0
  0
VERTEX
  5
312B
330
3128
100
AcDbEntity
  8
NOTE
100
AcDbVertex
100
AcDb2dVertex
 10
751.7758966242613
 20
-327.9976784890477
 30
0.0
  0
SEQEND
  5
312C
330
3128
100
AcDbEntity
  8
NOTE
  0
LINE
  5
312D
330
395D
100
AcDbEntity
  8
SIZE
100
AcDbLine
 10
-189.9999999999994
 20
-160.0
 30
0.0
 11
-189.9999999999994
 21
-431.8615745741298
 31
0.0
  0
LINE
  5
312E
330
395D
100
AcDbEntity
  8
SIZE
100
AcDbLine
 10
189.9999999999994
 20
-160.0
 30
0.0
 11
189.9999999999994
 21
-431.8615745741298
 31
0.0
  0
LINE
  5
312F
330
395D
100
AcDbEntity
  8
SIZE
100
AcDbLine
 10
-177.9999999999998
 20
-411.8615745741299
 30
0.0
 11
177.9999999999998
 21
-411.8615745741299
 31
0.0
  0
TEXT
  5
3130
330
395D
100
AcDbEntity
  8
SIZE
100
AcDbText
 10
-74.05714285714293
 20
322.5524228810319
 30
0.0
 40
64.0
  1
440
 41
0.9
100
AcDbText
  0
TEXT
  5
3131
330
395D
100
AcDbEntity
  8
SIZE
100
AcDbText
 10
-68.57142857142865
 20
227.2674867456954
 30
0.0
 40
64.0
  1
410
 41
0.9
100
AcDbText
  0
TEXT
  5
3132
330
395D
100
AcDbEntity
  8
SIZE
100
AcDbText
 10
-74.05714285714272
 20
123.0310627154977
 30
0.0
 40
64.0
  1
330
 41
0.9
100
AcDbText
  0
TEXT
  5
3133
330
395D
100
AcDbEntity
  8
SIZE
100
AcDbText
 10
-426.1350734299555
 20
-138.5714285714286
 30
0.0
 40
64.0
  1
140
 50
90.0
 41
0.9
100
AcDbText
  0
TEXT
  5
3134
330
395D
100
AcDbEntity
  8
SIZE
100
AcDbText
 10
-426.1350734299555
 20
-290.2571428571446
 30
0.0
 40
64.0
  1
23
 50
90.0
 41
0.9
100
AcDbText
  0
TEXT
  5
3135
330
395D
100
AcDbEntity
  8
SIZE
100
AcDbText
 10
-74.05714285714293
 20
-401.8615745741298
 30
0.0
 40
64.0
  1
380
 41
0.9
100
AcDbText
  0
TEXT
  5
3136
330
395D
100
AcDbEntity
  8
SIZE
100
AcDbText
 10
-74.05714285714272
 20
-287.5327814878365
 30
0.0
 40
64.0
  1
330
 41
0.9
100
AcDbText
  0
CIRCLE
  5
3137
330
395D
100
AcDbEntity
  8
SIZE
100
AcDbCircle
 10
-164.9999999999996
 20
113.0310627154976
 30
0.0
 40
6.0
  0
LINE
  5
3138
330
395D
100
AcDbEntity
  8
SIZE
100
AcDbLine
 10
-158.9999999999998
 20
113.0310627154976
 30
0.0
 11
-152.9999999999998
 21
113.0310627154976
 31
0.0
  0
CIRCLE
  5
3139
330
395D
100
AcDbEntity
  8
SIZE
100
AcDbCircle
 10
-204.9999999999998
 20
217.2674867456954
 30
0.0
 40
6.0
  0
LINE
  5
313A
330
395D
100
AcDbEntity
  8
SIZE
100
AcDbLine
 10
-198.9999999999998
 20
217.2674867456954
 30
0.0
 11
-192.9999999999997
 21
217.2674867456954
 31
0.0
  0
CIRCLE
  5
313B
330
395D
100
AcDbEntity
  8
SIZE
100
AcDbCircle
 10
-219.9999999999998
 20
312.5524228810319
 30
0.0
 40
6.0
  0
LINE
  5
313C
330
395D
100
AcDbEntity
  8
SIZE
100
AcDbLine
 10
-213.9999999999998
 20
312.5524228810319
 30
0.0
 11
-207.9999999999998
 21
312.5524228810319
 31
0.0
  0
CIRCLE
  5
313D
330
395D
100
AcDbEntity
  8
SIZE
100
AcDbCircle
 10
164.9999999999996
 20
113.0310627154976
 30
0.0
 40
6.0
  0
LINE
  5
313E
330
395D
100
AcDbEntity
  8
SIZE
100
AcDbLine
 10
158.9999999999998
 20
113.0310627154976
 30
0.0
 11
152.9999999999998
 21
113.0310627154976
 31
0.0
  0
CIRCLE
  5
313F
330
395D
100
AcDbEntity
  8
SIZE
100
AcDbCircle
 10
204.9999999999998
 20
217.2674867456954
 30
0.0
 40
6.0
  0
LINE
  5
3140
330
395D
100
AcDbEntity
  8
SIZE
100
AcDbLine
 10
198.9999999999998
 20
217.2674867456954
 30
0.0
 11
192.9999999999997
 21
217.2674867456954
 31
0.0
  0
CIRCLE
  5
3141
330
395D
100
AcDbEntity
  8
SIZE
100
AcDbCircle
 10
219.9999999999998
 20
312.5524228810319
 30
0.0
 40
6.0
  0
LINE
  5
3142
330
395D
100
AcDbEntity
  8
SIZE
100
AcDbLine
 10
213.9999999999998
 20
312.5524228810319
 30
0.0
 11
207.9999999999998
 21
312.5524228810319
 31
0.0
  0
CIRCLE
  5
3143
330
395D
100
AcDbEntity
  8
SIZE
100
AcDbCircle
 10
-416.1350734299555
 20
0.0000000000000568
 30
0.0
 40
6.0
  0
LINE
  5
3144
330
395D
100
AcDbEntity
  8
SIZE
100
AcDbLine
 10
-416.1350734299555
 20
6.000000000000056
 30
0.0
 11
-416.1350734299555
 21
12.00000000000005
 31
0.0
  0
CIRCLE
  5
3145
330
395D
100
AcDbEntity
  8
SIZE
100
AcDbCircle
 10
-416.1350734299555
 20
-139.9999999999998
 30
0.0
 40
6.0
  0
LINE
  5
3146
330
395D
100
AcDbEntity
  8
SIZE
100
AcDbLine
 10
-416.1350734299555
 20
-145.9999999999998
 30
0.0
 11
-416.1350734299555
 21
-151.9999999999998
 31
0.0
  0
CIRCLE
  5
3147
330
395D
100
AcDbEntity
  8
SIZE
100
AcDbCircle
 10
-416.1350734299555
 20
-162.9999999999998
 30
0.0
 40
6.0
  0
LINE
  5
3148
330
395D
100
AcDbEntity
  8
SIZE
100
AcDbLine
 10
-416.1350734299555
 20
-168.9999999999998
 30
0.0
 11
-416.1350734299555
 21
-174.9999999999999
 31
0.0
  0
CIRCLE
  5
3149
330
395D
100
AcDbEntity
  8
SIZE
100
AcDbCircle
 10
-416.1350734299555
 20
-139.9999999999998
 30
0.0
 40
6.0
  0
LINE
  5
314A
330
395D
100
AcDbEntity
  8
SIZE
100
AcDbLine
 10
-416.1350734299555
 20
-133.9999999999998
 30
0.0
 11
-416.1350734299555
 21
-127.9999999999999
 31
0.0
  0
CIRCLE
  5
314B
330
395D
100
AcDbEntity
  8
SIZE
100
AcDbCircle
 10
-164.9999999999996
 20
-297.5327814878365
 30
0.0
 40
6.0
  0
LINE
  5
314C
330
395D
100
AcDbEntity
  8
SIZE
100
AcDbLine
 10
-158.9999999999998
 20
-297.5327814878365
 30
0.0
 11
-152.9999999999998
 21
-297.5327814878365
 31
0.0
  0
CIRCLE
  5
314D
330
395D
100
AcDbEntity
  8
SIZE
100
AcDbCircle
 10
-189.9999999999994
 20
-411.8615745741299
 30
0.0
 40
6.0
  0
LINE
  5
314E
330
395D
100
AcDbEntity
  8
SIZE
100
AcDbLine
 10
-183.9999999999998
 20
-411.8615745741299
 30
0.0
 11
-177.9999999999998
 21
-411.8615745741299
 31
0.0
  0
CIRCLE
  5
314F
330
395D
100
AcDbEntity
  8
SIZE
100
AcDbCircle
 10
164.9999999999996
 20
-297.5327814878365
 30
0.0
 40
6.0
  0
LINE
  5
3150
330
395D
100
AcDbEntity
  8
SIZE
100
AcDbLine
 10
158.9999999999998
 20
-297.5327814878365
 30
0.0
 11
152.9999999999998
 21
-297.5327814878365
 31
0.0
  0
CIRCLE
  5
3151
330
395D
100
AcDbEntity
  8
SIZE
100
AcDbCircle
 10
189.9999999999994
 20
-411.8615745741299
 30
0.0
 40
6.0
  0
LINE
  5
3152
330
395D
100
AcDbEntity
  8
SIZE
100
AcDbLine
 10
183.9999999999998
 20
-411.8615745741299
 30
0.0
 11
177.9999999999998
 21
-411.8615745741299
 31
0.0
  0
TEXT
  5
3637
330
395D
100
AcDbEntity
  8
ETC
100
AcDbText
 10
317.1979878802556
 20
376.0563642873212
 30
0.0
 40
64.0
  1
FU-25PSFS-B
 41
0.9
100
AcDbText
  0
ENDSEC
  0
SECTION
  2
OBJECTS
  0
DICTIONARY
  5
38F5
330
0
100
AcDbDictionary
281
     1
  3
ACAD_2007HEADERVARS_RT
350
3B4F
  3
ACAD_COLOR
350
3953
  3
ACAD_GROUP
350
38F6
  3
ACAD_LAYOUT
350
3952
  3
ACAD_MATERIAL
350
38F9
  3
ACAD_MLEADERSTYLE
350
3956
  3
ACAD_MLINESTYLE
350
394F
  3
ACAD_PLOTSETTINGS
350
3951
  3
ACAD_PLOTSTYLENAME
350
38F7
  3
ACAD_SCALELIST
350
3923
  3
ACAD_TABLESTYLE
350
3954
  3
ACAD_VISUALSTYLE
350
3912
  3
ACDB_RECOMPOSE_DATA
350
3B4D
  3
AcDbVariableDictionary
350
3B44
  3
AcmDictionary
350
3AF7
  3
AMG
350
3A44
  3
DWGPROPS
350
3B4E
  3
MAPISURF_MODULE
350
3AC4
  0
DICTIONARY
  5
3B1F
330
3945
100
AcDbDictionary
280
     1
281
     1
  3
ADSK_XREC_LAYER_RECONCILED
360
3B20
  0
DICTIONARY
  5
3B21
330
3974
100
AcDbDictionary
280
     1
281
     1
  3
ADSK_XREC_LAYER_RECONCILED
360
3B22
  0
DICTIONARY
  5
3B23
330
3975
100
AcDbDictionary
280
     1
281
     1
  3
ADSK_XREC_LAYER_RECONCILED
360
3B24
  0
DICTIONARY
  5
3B25
330
3976
100
AcDbDictionary
280
     1
281
     1
  3
ADSK_XREC_LAYER_RECONCILED
360
3B26
  0
DICTIONARY
  5
3B27
330
3977
100
AcDbDictionary
280
     1
281
     1
  3
ADSK_XREC_LAYER_RECONCILED
360
3B28
  0
DICTIONARY
  5
3B29
330
3978
100
AcDbDictionary
280
     1
281
     1
  3
ADSK_XREC_LAYER_RECONCILED
360
3B2A
  0
DICTIONARY
  5
3B2B
330
397A
100
AcDbDictionary
280
     1
281
     1
  3
ADSK_XREC_LAYER_RECONCILED
360
3B2C
  0
DICTIONARY
  5
3B2D
330
397B
100
AcDbDictionary
280
     1
281
     1
  3
ADSK_XREC_LAYER_RECONCILED
360
3B2E
  0
DICTIONARY
  5
3B2F
330
397C
100
AcDbDictionary
280
     1
281
     1
  3
ADSK_XREC_LAYER_RECONCILED
360
3B30
  0
DICTIONARY
  5
3B31
330
397D
100
AcDbDictionary
280
     1
281
     1
  3
ADSK_XREC_LAYER_RECONCILED
360
3B32
  0
DICTIONARY
  5
3B33
330
397E
100
AcDbDictionary
280
     1
281
     1
  3
ADSK_XREC_LAYER_RECONCILED
360
3B34
  0
DICTIONARY
  5
3B35
330
395D
100
AcDbDictionary
280
     1
281
     1
  3
ACAD_INDEX
360
3B36
  0
DICTIONARY
  5
3B4F
102
{ACAD_REACTORS
330
38F5
102
}
330
38F5
100
AcDbDictionary
281
     1
  3
DIMARCSYM
350
3B50
  3
DIMLTEX1
350
3B52
  3
DIMLTEX2
350
3B53
  3
DIMLTYPE
350
3B51
  0
DICTIONARY
  5
3953
102
{ACAD_REACTORS
330
38F5
102
}
330
38F5
100
AcDbDictionary
281
     1
  0
DICTIONARY
  5
38F6
102
{ACAD_REACTORS
330
38F5
102
}
330
38F5
100
AcDbDictionary
281
     1
  0
DICTIONARY
  5
3952
102
{ACAD_REACTORS
330
38F5
102
}
330
38F5
100
AcDbDictionary
281
     1
  3
Model
350
3960
  3
レイアウト1
350
395C
  0
DICTIONARY
  5
38F9
102
{ACAD_REACTORS
330
38F5
102
}
330
38F5
100
AcDbDictionary
281
     1
  3
ByBlock
350
3902
  3
ByLayer
350
38FA
  3
Global
350
390A
  0
DICTIONARY
  5
3956
102
{ACAD_REACTORS
330
38F5
102
}
330
38F5
100
AcDbDictionary
281
     1
  3
Standard
350
3957
  0
DICTIONARY
  5
394F
102
{ACAD_REACTORS
330
38F5
102
}
330
38F5
100
AcDbDictionary
281
     1
  3
Standard
350
3950
  0
DICTIONARY
  5
3951
102
{ACAD_REACTORS
330
38F5
102
}
330
38F5
100
AcDbDictionary
281
     1
  0
ACDBDICTIONARYWDFLT
  5
38F7
102
{ACAD_REACTORS
330
38F5
102
}
330
38F5
100
AcDbDictionary
281
     1
  3
Normal
350
38F8
100
AcDbDictionaryWithDefault
340
38F8
  0
DICTIONARY
  5
3923
102
{ACAD_REACTORS
330
38F5
102
}
330
38F5
100
AcDbDictionary
281
     1
  3
A0
350
3924
  3
A1
350
3925
  3
A2
350
3926
  3
A3
350
3927
  3
A4
350
3928
  3
A5
350
3929
  3
A6
350
392A
  3
A7
350
392B
  3
A8
350
392C
  3
A9
350
392D
  3
B0
350
392E
  3
B1
350
392F
  3
B2
350
3930
  3
B3
350
3931
  3
B4
350
3932
  3
B5
350
3933
  3
B6
350
3934
  3
B7
350
3935
  3
B8
350
3936
  3
B9
350
3937
  3
C0
350
3938
  3
C1
350
3939
  3
C2
350
393A
  3
C3
350
393B
  3
C4
350
393C
  3
C5
350
393D
  3
C6
350
393E
  3
C7
350
393F
  3
C8
350
3940
  3
C9
350
3941
  3
D0
350
3942
  3
D1
350
3943
  3
D2
350
3944
  0
DICTIONARY
  5
3954
102
{ACAD_REACTORS
330
38F5
102
}
330
38F5
100
AcDbDictionary
281
     1
  3
Standard
350
3955
  0
DICTIONARY
  5
3912
102
{ACAD_REACTORS
330
38F5
102
}
330
38F5
100
AcDbDictionary
281
     1
  3
2dWireframe
350
3918
  3
3D Hidden
350
391A
  3
3dWireframe
350
3919
  3
Basic
350
3917
  3
Brighten
350
391E
  3
ColorChange
350
3922
  3
Conceptual
350
391B
  3
Dim
350
391D
  3
Facepattern
350
3921
  3
Flat
350
3913
  3
FlatWithEdges
350
3914
  3
Gouraud
350
3915
  3
GouraudWithEdges
350
3916
  3
Linepattern
350
3920
  3
Realistic
350
391C
  3
Thicken
350
391F
  0
XRECORD
  5
3B4D
102
{ACAD_REACTORS
330
38F5
102
}
330
38F5
100
AcDbXrecord
280
     1
 90
        1
330
3955
  0
DICTIONARY
  5
3B44
102
{ACAD_REACTORS
330
38F5
102
}
330
38F5
100
AcDbDictionary
281
     1
  3
CANNOSCALE
350
3B47
  3
CMLEADERSTYLE
350
3B46
  3
CTABLESTYLE
350
3B45
  3
DIMASSOC
350
3B4A
  3
INDEXCTL
350
3B49
  3
SORTENTS
350
3B48
  0
DICTIONARY
  5
3AF7
102
{ACAD_REACTORS
330
38F5
102
}
330
38F5
100
AcDbDictionary
281
     1
  3
AcmStdDictionary
350
3B05
  0
DICTIONARY
  5
3A44
102
{ACAD_REACTORS
330
38F5
102
}
330
38F5
100
AcDbDictionary
281
     1
  3
AcMgSettings
350
3A45
  0
XRECORD
  5
3B4E
102
{ACAD_REACTORS
330
38F5
102
}
330
38F5
100
AcDbXrecord
280
     1
  1
DWGPROPS COOKIE
  2

  3

  4

  6

  7

  8
A090053
  9

300
AmdtFileType=84
301
=
302
=
303
=
304
=
305
=
306
=
307
=
308
=
309
=
 40
1.050100335648148
 41
2452321.396199653
 42
2456213.47156544
  1

 90
        1
  0
XRECORD
  5
3B20
102
{ACAD_REACTORS
330
3B1F
102
}
330
3B1F
100
AcDbXrecord
280
     1
290
     1
  0
XRECORD
  5
3B22
102
{ACAD_REACTORS
330
3B21
102
}
330
3B21
100
AcDbXrecord
280
     1
290
     1
  0
XRECORD
  5
3B24
102
{ACAD_REACTORS
330
3B23
102
}
330
3B23
100
AcDbXrecord
280
     1
290
     1
  0
XRECORD
  5
3B26
102
{ACAD_REACTORS
330
3B25
102
}
330
3B25
100
AcDbXrecord
280
     1
290
     1
  0
XRECORD
  5
3B28
102
{ACAD_REACTORS
330
3B27
102
}
330
3B27
100
AcDbXrecord
280
     1
290
     1
  0
XRECORD
  5
3B2A
102
{ACAD_REACTORS
330
3B29
102
}
330
3B29
100
AcDbXrecord
280
     1
290
     1
  0
XRECORD
  5
3B2C
102
{ACAD_REACTORS
330
3B2B
102
}
330
3B2B
100
AcDbXrecord
280
     1
290
     1
  0
XRECORD
  5
3B2E
102
{ACAD_REACTORS
330
3B2D
102
}
330
3B2D
100
AcDbXrecord
280
     1
290
     1
  0
XRECORD
  5
3B30
102
{ACAD_REACTORS
330
3B2F
102
}
330
3B2F
100
AcDbXrecord
280
     1
290
     1
  0
XRECORD
  5
3B32
102
{ACAD_REACTORS
330
3B31
102
}
330
3B31
100
AcDbXrecord
280
     1
290
     1
  0
XRECORD
  5
3B34
102
{ACAD_REACTORS
330
3B33
102
}
330
3B33
100
AcDbXrecord
280
     1
290
     1
  0
DICTIONARY
  5
3B36
102
{ACAD_REACTORS
330
3B35
102
}
330
3B35
100
AcDbDictionary
281
     1
  3
*A1
350
3B37
  0
XRECORD
  5
3B50
102
{ACAD_REACTORS
330
3B4F
102
}
330
3B4F
100
AcDbXrecord
280
     1
 70
     1
  0
XRECORD
  5
3B52
102
{ACAD_REACTORS
330
3B4F
102
}
330
3B4F
100
AcDbXrecord
280
     1
340
394B
  0
XRECORD
  5
3B53
102
{ACAD_REACTORS
330
3B4F
102
}
330
3B4F
100
AcDbXrecord
280
     1
340
394B
  0
XRECORD
  5
3B51
102
{ACAD_REACTORS
330
3B4F
102
}
330
3B4F
100
AcDbXrecord
280
     1
340
394B
  0
LAYOUT
  5
3960
102
{ACAD_XDICTIONARY
360
3B5A
102
}
102
{ACAD_REACTORS
330
3952
102
}
330
3952
100
AcDbPlotSettings
  1

  2
自動 EPSON LP-9600S (W2450527 上)
  4

  6

 40
0.0
 41
0.0
 42
0.0
 43
0.0
 44
0.0
 45
0.0
 46
0.0
 47
0.0
 48
0.0
 49
0.0
140
0.0
141
0.0
142
1.0
143
1.0
 70
  1712
 72
     0
 73
     0
 74
     0
  7

 75
     0
147
1.0
148
0.0
149
0.0
100
AcDbLayout
  1
Model
 70
     1
 71
     0
 10
0.0
 20
0.0
 11
12.0
 21
9.0
 12
0.0
 22
0.0
 32
0.0
 14
0.0
 24
0.0
 34
0.0
 15
0.0
 25
0.0
 35
0.0
146
0.0
 13
0.0
 23
0.0
 33
0.0
 16
1.0
 26
0.0
 36
0.0
 17
0.0
 27
1.0
 37
0.0
 76
     0
330
395D
331
3961
  0
LAYOUT
  5
395C
102
{ACAD_XDICTIONARY
360
3B58
102
}
102
{ACAD_REACTORS
330
3952
102
}
330
3952
100
AcDbPlotSettings
  1

  2
自動 EPSON LP-9600S (W2450527 上)
  4

  6

 40
0.0
 41
0.0
 42
0.0
 43
0.0
 44
0.0
 45
0.0
 46
0.0
 47
0.0
 48
0.0
 49
0.0
140
0.0
141
0.0
142
1.0
143
1.0
 70
   688
 72
     0
 73
     0
 74
     5
  7

 75
    16
147
1.0
148
0.0
149
0.0
100
AcDbLayout
  1
レイアウト1
 70
     1
 71
     1
 10
0.0
 20
0.0
 11
12.0
 21
9.0
 12
0.0
 22
0.0
 32
0.0
 14
1.000000000000000E+20
 24
1.000000000000000E+20
 34
1.000000000000000E+20
 15
-1.000000000000000E+20
 25
-1.000000000000000E+20
 35
-1.000000000000000E+20
146
0.0
 13
0.0
 23
0.0
 33
0.0
 16
1.0
 26
0.0
 36
0.0
 17
0.0
 27
1.0
 37
0.0
 76
     0
330
3959
  0
MATERIAL
  5
3902
102
{ACAD_XDICTIONARY
360
3903
102
}
102
{ACAD_REACTORS
330
38F9
102
}
330
38F9
100
AcDbMaterial
  1
ByBlock
 72
     0
 43
0.0208333333333333
 43
0.0
 43
0.0
 43
0.0
 43
0.0
 43
0.0208333333333333
 43
0.0
 43
0.0
 43
0.0
 43
0.0
 43
1.0
 43
0.0
 43
0.0
 43
0.0
 43
0.0
 43
1.0
 77
     0
 47
0.0208333333333333
 47
0.0
 47
0.0
 47
0.0
 47
0.0
 47
0.0208333333333333
 47
0.0
 47
0.0
 47
0.0
 47
0.0
 47
1.0
 47
0.0
 47
0.0
 47
0.0
 47
0.0
 47
1.0
171
     0
 49
0.0208333333333333
 49
0.0
 49
0.0
 49
0.0
 49
0.0
 49
0.0208333333333333
 49
0.0
 49
0.0
 49
0.0
 49
0.0
 49
1.0
 49
0.0
 49
0.0
 49
0.0
 49
0.0
 49
1.0
175
     0
142
0.0208333333333333
142
0.0
142
0.0
142
0.0
142
0.0
142
0.0208333333333333
142
0.0
142
0.0
142
0.0
142
0.0
142
1.0
142
0.0
142
0.0
142
0.0
142
0.0
142
1.0
179
     0
144
0.0208333333333333
144
0.0
144
0.0
144
0.0
144
0.0
144
0.0208333333333333
144
0.0
144
0.0
144
0.0
144
0.0
144
1.0
144
0.0
144
0.0
144
0.0
144
0.0
144
1.0
147
0.0208333333333333
147
0.0
147
0.0
147
0.0
147
0.0
147
0.0208333333333333
147
0.0
147
0.0
147
0.0
147
0.0
147
1.0
147
0.0
147
0.0
147
0.0
147
0.0
147
1.0
  0
MATERIAL
  5
38FA
102
{ACAD_XDICTIONARY
360
38FB
102
}
102
{ACAD_REACTORS
330
38F9
102
}
330
38F9
100
AcDbMaterial
  1
ByLayer
 72
     0
 43
0.0208333333333333
 43
0.0
 43
0.0
 43
0.0
 43
0.0
 43
0.0208333333333333
 43
0.0
 43
0.0
 43
0.0
 43
0.0
 43
1.0
 43
0.0
 43
0.0
 43
0.0
 43
0.0
 43
1.0
 77
     0
 47
0.0208333333333333
 47
0.0
 47
0.0
 47
0.0
 47
0.0
 47
0.0208333333333333
 47
0.0
 47
0.0
 47
0.0
 47
0.0
 47
1.0
 47
0.0
 47
0.0
 47
0.0
 47
0.0
 47
1.0
171
     0
 49
0.0208333333333333
 49
0.0
 49
0.0
 49
0.0
 49
0.0
 49
0.0208333333333333
 49
0.0
 49
0.0
 49
0.0
 49
0.0
 49
1.0
 49
0.0
 49
0.0
 49
0.0
 49
0.0
 49
1.0
175
     0
142
0.0208333333333333
142
0.0
142
0.0
142
0.0
142
0.0
142
0.0208333333333333
142
0.0
142
0.0
142
0.0
142
0.0
142
1.0
142
0.0
142
0.0
142
0.0
142
0.0
142
1.0
179
     0
144
0.0208333333333333
144
0.0
144
0.0
144
0.0
144
0.0
144
0.0208333333333333
144
0.0
144
0.0
144
0.0
144
0.0
144
1.0
144
0.0
144
0.0
144
0.0
144
0.0
144
1.0
147
0.0208333333333333
147
0.0
147
0.0
147
0.0
147
0.0
147
0.0208333333333333
147
0.0
147
0.0
147
0.0
147
0.0
147
1.0
147
0.0
147
0.0
147
0.0
147
0.0
147
1.0
  0
MATERIAL
  5
390A
102
{ACAD_XDICTIONARY
360
390B
102
}
102
{ACAD_REACTORS
330
38F9
102
}
330
38F9
100
AcDbMaterial
  1
Global
 72
     0
 43
0.0208333333333333
 43
0.0
 43
0.0
 43
0.0
 43
0.0
 43
0.0208333333333333
 43
0.0
 43
0.0
 43
0.0
 43
0.0
 43
1.0
 43
0.0
 43
0.0
 43
0.0
 43
0.0
 43
1.0
 77
     0
 47
0.0208333333333333
 47
0.0
 47
0.0
 47
0.0
 47
0.0
 47
0.0208333333333333
 47
0.0
 47
0.0
 47
0.0
 47
0.0
 47
1.0
 47
0.0
 47
0.0
 47
0.0
 47
0.0
 47
1.0
171
     0
 49
0.0208333333333333
 49
0.0
 49
0.0
 49
0.0
 49
0.0
 49
0.0208333333333333
 49
0.0
 49
0.0
 49
0.0
 49
0.0
 49
1.0
 49
0.0
 49
0.0
 49
0.0
 49
0.0
 49
1.0
175
     0
142
0.0208333333333333
142
0.0
142
0.0
142
0.0
142
0.0
142
0.0208333333333333
142
0.0
142
0.0
142
0.0
142
0.0
142
1.0
142
0.0
142
0.0
142
0.0
142
0.0
142
1.0
179
     0
144
0.0208333333333333
144
0.0
144
0.0
144
0.0
144
0.0
144
0.0208333333333333
144
0.0
144
0.0
144
0.0
144
0.0
144
1.0
144
0.0
144
0.0
144
0.0
144
0.0
144
1.0
147
0.0208333333333333
147
0.0
147
0.0
147
0.0
147
0.0
147
0.0208333333333333
147
0.0
147
0.0
147
0.0
147
0.0
147
1.0
147
0.0
147
0.0
147
0.0
147
0.0
147
1.0
  0
MLEADERSTYLE
  5
3957
102
{ACAD_REACTORS
330
3956
102
}
330
3956
100
AcDbMLeaderStyle
170
     2
171
     1
172
     0
 90
        2
 40
0.0
 41
0.0
173
     1
 91
-1056964608
340
394B
 92
       -2
290
     1
 42
0.09
291
     1
 43
0.36
  3
Standard
 44
0.18
300

342
3946
174
     1
178
     6
175
     1
176
     0
 93
-1056964608
 45
0.18
292
     0
297
     0
 46
0.18
 94
-1056964608
 47
1.0
 49
1.0
140
1.0
293
     1
141
0.0
294
     1
177
     0
142
1.0
295
     0
296
     0
143
0.125
1001
ACAD_MLEADERVER
1070
     2
  0
MLINESTYLE
  5
3950
102
{ACAD_REACTORS
330
394F
102
}
330
394F
100
AcDbMlineStyle
  2
STANDARD
 70
     0
  3

 62
   256
 51
90.0
 52
90.0
 71
     2
 49
0.5
 62
   256
  6
BYLAYER
 49
-0.5
 62
   256
  6
BYLAYER
  0
ACDBPLACEHOLDER
  5
38F8
102
{ACAD_REACTORS
330
38F7
102
}
330
38F7
  0
SCALE
  5
3924
102
{ACAD_REACTORS
330
3923
102
}
330
3923
100
AcDbScale
 70
     0
300
1:1
140
1.0
141
1.0
290
     1
  0
SCALE
  5
3925
102
{ACAD_REACTORS
330
3923
102
}
330
3923
100
AcDbScale
 70
     0
300
1:2
140
1.0
141
2.0
290
     0
  0
SCALE
  5
3926
102
{ACAD_REACTORS
330
3923
102
}
330
3923
100
AcDbScale
 70
     0
300
1:4
140
1.0
141
4.0
290
     0
  0
SCALE
  5
3927
102
{ACAD_REACTORS
330
3923
102
}
330
3923
100
AcDbScale
 70
     0
300
1:5
140
1.0
141
5.0
290
     0
  0
SCALE
  5
3928
102
{ACAD_REACTORS
330
3923
102
}
330
3923
100
AcDbScale
 70
     0
300
1:8
140
1.0
141
8.0
290
     0
  0
SCALE
  5
3929
102
{ACAD_REACTORS
330
3923
102
}
330
3923
100
AcDbScale
 70
     0
300
1:10
140
1.0
141
10.0
290
     0
  0
SCALE
  5
392A
102
{ACAD_REACTORS
330
3923
102
}
330
3923
100
AcDbScale
 70
     0
300
1:16
140
1.0
141
16.0
290
     0
  0
SCALE
  5
392B
102
{ACAD_REACTORS
330
3923
102
}
330
3923
100
AcDbScale
 70
     0
300
1:20
140
1.0
141
20.0
290
     0
  0
SCALE
  5
392C
102
{ACAD_REACTORS
330
3923
102
}
330
3923
100
AcDbScale
 70
     0
300
1:30
140
1.0
141
30.0
290
     0
  0
SCALE
  5
392D
102
{ACAD_REACTORS
330
3923
102
}
330
3923
100
AcDbScale
 70
     0
300
1:40
140
1.0
141
40.0
290
     0
  0
SCALE
  5
392E
102
{ACAD_REACTORS
330
3923
102
}
330
3923
100
AcDbScale
 70
     0
300
1:50
140
1.0
141
50.0
290
     0
  0
SCALE
  5
392F
102
{ACAD_REACTORS
330
3923
102
}
330
3923
100
AcDbScale
 70
     0
300
1:100
140
1.0
141
100.0
290
     0
  0
SCALE
  5
3930
102
{ACAD_REACTORS
330
3923
102
}
330
3923
100
AcDbScale
 70
     0
300
2:1
140
2.0
141
1.0
290
     0
  0
SCALE
  5
3931
102
{ACAD_REACTORS
330
3923
102
}
330
3923
100
AcDbScale
 70
     0
300
4:1
140
4.0
141
1.0
290
     0
  0
SCALE
  5
3932
102
{ACAD_REACTORS
330
3923
102
}
330
3923
100
AcDbScale
 70
     0
300
8:1
140
8.0
141
1.0
290
     0
  0
SCALE
  5
3933
102
{ACAD_REACTORS
330
3923
102
}
330
3923
100
AcDbScale
 70
     0
300
10:1
140
10.0
141
1.0
290
     0
  0
SCALE
  5
3934
102
{ACAD_REACTORS
330
3923
102
}
330
3923
100
AcDbScale
 70
     0
300
100:1
140
100.0
141
1.0
290
     0
  0
SCALE
  5
3935
102
{ACAD_REACTORS
330
3923
102
}
330
3923
100
AcDbScale
 70
     0
300
1/128" = 1'-0"
140
0.0078125
141
12.0
290
     0
  0
SCALE
  5
3936
102
{ACAD_REACTORS
330
3923
102
}
330
3923
100
AcDbScale
 70
     0
300
1/64" = 1'-0"
140
0.015625
141
12.0
290
     0
  0
SCALE
  5
3937
102
{ACAD_REACTORS
330
3923
102
}
330
3923
100
AcDbScale
 70
     0
300
1/32" = 1'-0"
140
0.03125
141
12.0
290
     0
  0
SCALE
  5
3938
102
{ACAD_REACTORS
330
3923
102
}
330
3923
100
AcDbScale
 70
     0
300
1/16" = 1'-0"
140
0.0625
141
12.0
290
     0
  0
SCALE
  5
3939
102
{ACAD_REACTORS
330
3923
102
}
330
3923
100
AcDbScale
 70
     0
300
3/32" = 1'-0"
140
0.09375
141
12.0
290
     0
  0
SCALE
  5
393A
102
{ACAD_REACTORS
330
3923
102
}
330
3923
100
AcDbScale
 70
     0
300
1/8" = 1'-0"
140
0.125
141
12.0
290
     0
  0
SCALE
  5
393B
102
{ACAD_REACTORS
330
3923
102
}
330
3923
100
AcDbScale
 70
     0
300
3/16" = 1'-0"
140
0.1875
141
12.0
290
     0
  0
SCALE
  5
393C
102
{ACAD_REACTORS
330
3923
102
}
330
3923
100
AcDbScale
 70
     0
300
1/4" = 1'-0"
140
0.25
141
12.0
290
     0
  0
SCALE
  5
393D
102
{ACAD_REACTORS
330
3923
102
}
330
3923
100
AcDbScale
 70
     0
300
3/8" = 1'-0"
140
0.375
141
12.0
290
     0
  0
SCALE
  5
393E
102
{ACAD_REACTORS
330
3923
102
}
330
3923
100
AcDbScale
 70
     0
300
1/2" = 1'-0"
140
0.5
141
12.0
290
     0
  0
SCALE
  5
393F
102
{ACAD_REACTORS
330
3923
102
}
330
3923
100
AcDbScale
 70
     0
300
3/4" = 1'-0"
140
0.75
141
12.0
290
     0
  0
SCALE
  5
3940
102
{ACAD_REACTORS
330
3923
102
}
330
3923
100
AcDbScale
 70
     0
300
1" = 1'-0"
140
1.0
141
12.0
290
     0
  0
SCALE
  5
3941
102
{ACAD_REACTORS
330
3923
102
}
330
3923
100
AcDbScale
 70
     0
300
1-1/2" = 1'-0"
140
1.5
141
12.0
290
     0
  0
SCALE
  5
3942
102
{ACAD_REACTORS
330
3923
102
}
330
3923
100
AcDbScale
 70
     0
300
3" = 1'-0"
140
3.0
141
12.0
290
     0
  0
SCALE
  5
3943
102
{ACAD_REACTORS
330
3923
102
}
330
3923
100
AcDbScale
 70
     0
300
6" = 1'-0"
140
6.0
141
12.0
290
     0
  0
SCALE
  5
3944
102
{ACAD_REACTORS
330
3923
102
}
330
3923
100
AcDbScale
 70
     0
300
1'-0" = 1'-0"
140
12.0
141
12.0
290
     0
  0
TABLESTYLE
  5
3955
102
{ACAD_XDICTIONARY
360
3B4B
102
}
102
{ACAD_REACTORS
330
3954
102
}
330
3954
100
AcDbTableStyle
  3
Standard
 70
     0
 71
     0
 40
0.06
 41
0.06
280
     0
281
     0
  7
STANDARD
140
0.18
170
     2
 62
     0
 63
     7
283
     0
274
    -2
284
     1
 64
     0
275
    -2
285
     1
 65
     0
276
    -2
286
     1
 66
     0
277
    -2
287
     1
 67
     0
278
    -2
288
     1
 68
     0
279
    -2
289
     1
 69
     0
  7
STANDARD
140
0.25
170
     5
 62
     0
 63
     7
283
     0
274
    -2
284
     1
 64
     0
275
    -2
285
     1
 65
     0
276
    -2
286
     1
 66
     0
277
    -2
287
     1
 67
     0
278
    -2
288
     1
 68
     0
279
    -2
289
     1
 69
     0
  7
STANDARD
140
0.18
170
     5
 62
     0
 63
     7
283
     0
274
    -2
284
     1
 64
     0
275
    -2
285
     1
 65
     0
276
    -2
286
     1
 66
     0
277
    -2
287
     1
 67
     0
278
    -2
288
     1
 68
     0
279
    -2
289
     1
 69
     0
  0
VISUALSTYLE
  5
3918
102
{ACAD_REACTORS
330
3912
102
}
330
3912
100
AcDbVisualStyle
  2
2dWireframe
 70
     4
 71
     0
 72
     2
 73
     0
 90
        0
 40
-0.6
 41
-30.0
 62
     5
 63
     7
 74
     1
 91
        4
 64
     7
 65
   257
 75
     1
175
     1
 42
1.0
 92
        0
 66
   257
 43
1.0
 76
     1
 77
     6
 78
     2
 67
     7
 79
     5
170
     0
171
     0
290
     0
174
     0
 93
        1
 44
0.0
173
     0
291
     0
 45
0.0
1001
ACAD
1000
AcDbSavedByObjectVersion
1070
     0
  0
VISUALSTYLE
  5
391A
102
{ACAD_REACTORS
330
3912
102
}
330
3912
100
AcDbVisualStyle
  2
3D Hidden
 70
     6
 71
     1
 72
     2
 73
     2
 90
        0
 40
-0.6
 41
-30.0
 62
     5
 63
     7
 74
     2
 91
        2
 64
     7
 65
   257
 75
     2
175
     1
 42
40.0
 92
        0
 66
   257
 43
1.0
 76
     1
 77
     6
 78
     2
 67
     7
 79
     3
170
     0
171
     0
290
     0
174
     0
 93
        1
 44
0.0
173
     0
291
     0
 45
0.0
1001
ACAD
1000
AcDbSavedByObjectVersion
1070
     0
  0
VISUALSTYLE
  5
3919
102
{ACAD_REACTORS
330
3912
102
}
330
3912
100
AcDbVisualStyle
  2
3dWireframe
 70
     5
 71
     0
 72
     2
 73
     0
 90
        0
 40
-0.6
 41
-30.0
 62
     5
 63
     7
 74
     1
 91
        4
 64
     7
 65
   257
 75
     1
175
     1
 42
1.0
 92
        0
 66
   257
 43
1.0
 76
     1
 77
     6
 78
     2
 67
     7
 79
     5
170
     0
171
     0
290
     0
174
     0
 93
        1
 44
0.0
173
     0
291
     0
 45
0.0
1001
ACAD
1000
AcDbSavedByObjectVersion
1070
     0
  0
VISUALSTYLE
  5
3917
102
{ACAD_REACTORS
330
3912
102
}
330
3912
100
AcDbVisualStyle
  2
Basic
 70
     7
 71
     1
 72
     0
 73
     1
 90
        0
 40
-0.6
 41
-30.0
 62
     5
 63
     7
 74
     0
 91
        4
 64
     7
 65
   257
 75
     1
175
     1
 42
1.0
 92
        8
 66
     7
 43
1.0
 76
     1
 77
     6
 78
     2
 67
     7
 79
     5
170
     0
171
     0
290
     0
174
     0
 93
        1
 44
0.0
173
     0
291
     1
 45
0.0
1001
ACAD
1000
AcDbSavedByObjectVersion
1070
     0
  0
VISUALSTYLE
  5
391E
102
{ACAD_REACTORS
330
3912
102
}
330
3912
100
AcDbVisualStyle
  2
Brighten
 70
    12
 71
     2
 72
     2
 73
     0
 90
        0
 40
-0.6
 41
-30.0
 62
     5
 63
     7
 74
     1
 91
        4
 64
     7
 65
   257
 75
     1
175
     1
 42
1.0
 92
        8
 66
     7
 43
1.0
 76
     1
 77
     6
 78
     2
 67
     7
 79
     5
170
     0
171
     0
290
     0
174
     0
 93
        1
 44
50.0
173
     0
291
     1
 45
0.0
1001
ACAD
1000
AcDbSavedByObjectVersion
1070
     0
  0
VISUALSTYLE
  5
3922
102
{ACAD_REACTORS
330
3912
102
}
330
3912
100
AcDbVisualStyle
  2
ColorChange
 70
    16
 71
     2
 72
     2
 73
     3
 90
        0
 40
-0.6
 41
-30.0
 62
     5
 63
     8
 74
     1
 91
        4
 64
     7
 65
   257
 75
     1
175
     1
 42
1.0
 92
        8
 66
     8
 43
1.0
 76
     1
 77
     6
 78
     2
 67
     7
 79
     5
170
     0
171
     0
290
     0
174
     0
 93
        1
 44
0.0
173
     0
291
     1
 45
0.0
1001
ACAD
1000
AcDbSavedByObjectVersion
1070
     0
  0
VISUALSTYLE
  5
391B
102
{ACAD_REACTORS
330
3912
102
}
330
3912
100
AcDbVisualStyle
  2
Conceptual
 70
     9
 71
     3
 72
     2
 73
     0
 90
        0
 40
-0.6
 41
-30.0
 62
     5
 63
     7
 74
     2
 91
        2
 64
     7
 65
   257
 75
     1
175
     1
 42
40.0
 92
        8
 66
     7
 43
1.0
 76
     1
 77
     6
 78
     2
 67
     7
 79
     3
170
     0
171
     0
290
     0
174
     0
 93
        1
 44
0.0
173
     0
291
     0
 45
0.0
1001
ACAD
1000
AcDbSavedByObjectVersion
1070
     0
  0
VISUALSTYLE
  5
391D
102
{ACAD_REACTORS
330
3912
102
}
330
3912
100
AcDbVisualStyle
  2
Dim
 70
    11
 71
     2
 72
     2
 73
     0
 90
        0
 40
-0.6
 41
-30.0
 62
     5
 63
     7
 74
     1
 91
        4
 64
     7
 65
   257
 75
     1
175
     1
 42
1.0
 92
        8
 66
     7
 43
1.0
 76
     1
 77
     6
 78
     2
 67
     7
 79
     5
170
     0
171
     0
290
     0
174
     0
 93
        1
 44
-50.0
173
     0
291
     1
 45
0.0
1001
ACAD
1000
AcDbSavedByObjectVersion
1070
     0
  0
VISUALSTYLE
  5
3921
102
{ACAD_REACTORS
330
3912
102
}
330
3912
100
AcDbVisualStyle
  2
Facepattern
 70
    15
 71
     2
 72
     2
 73
     0
 90
        0
 40
-0.6
 41
-30.0
 62
     5
 63
     7
 74
     1
 91
        4
 64
     7
 65
   257
 75
     1
175
     1
 42
1.0
 92
        8
 66
     7
 43
1.0
 76
     1
 77
     6
 78
     2
 67
     7
 79
     5
170
     0
171
     0
290
     0
174
     0
 93
        1
 44
0.0
173
     0
291
     1
 45
0.0
1001
ACAD
1000
AcDbSavedByObjectVersion
1070
     0
  0
VISUALSTYLE
  5
3913
102
{ACAD_REACTORS
330
3912
102
}
330
3912
100
AcDbVisualStyle
  2
Flat
 70
     0
 71
     2
 72
     1
 73
     1
 90
        2
 40
-0.6
 41
30.0
 62
     5
 63
     7
 74
     0
 91
        4
 64
     7
 65
   257
 75
     1
175
     1
 42
1.0
 92
        8
 66
     7
 43
1.0
 76
     1
 77
     6
 78
     2
 67
     7
 79
     5
170
     0
171
     0
290
     0
174
     0
 93
       13
 44
0.0
173
     0
291
     1
 45
0.0
1001
ACAD
1000
AcDbSavedByObjectVersion
1070
     0
  0
VISUALSTYLE
  5
3914
102
{ACAD_REACTORS
330
3912
102
}
330
3912
100
AcDbVisualStyle
  2
FlatWithEdges
 70
     1
 71
     2
 72
     1
 73
     1
 90
        2
 40
-0.6
 41
30.0
 62
     5
 63
     7
 74
     1
 91
        4
 64
     7
 65
   257
 75
     1
175
     1
 42
1.0
 92
        0
 66
   257
 43
1.0
 76
     1
 77
     6
 78
     2
 67
     7
 79
     5
170
     0
171
     0
290
     0
174
     0
 93
       13
 44
0.0
173
     0
291
     1
 45
0.0
1001
ACAD
1000
AcDbSavedByObjectVersion
1070
     0
  0
VISUALSTYLE
  5
3915
102
{ACAD_REACTORS
330
3912
102
}
330
3912
100
AcDbVisualStyle
  2
Gouraud
 70
     2
 71
     2
 72
     2
 73
     1
 90
        2
 40
-0.6
 41
30.0
 62
     5
 63
     7
 74
     0
 91
        4
 64
     7
 65
   257
 75
     1
175
     1
 42
1.0
 92
        0
 66
     7
 43
1.0
 76
     1
 77
     6
 78
     2
 67
     7
 79
     5
170
     0
171
     0
290
     0
174
     0
 93
       13
 44
0.0
173
     0
291
     1
 45
0.0
1001
ACAD
1000
AcDbSavedByObjectVersion
1070
     0
  0
VISUALSTYLE
  5
3916
102
{ACAD_REACTORS
330
3912
102
}
330
3912
100
AcDbVisualStyle
  2
GouraudWithEdges
 70
     3
 71
     2
 72
     2
 73
     1
 90
        2
 40
-0.6
 41
30.0
 62
     5
 63
     7
 74
     1
 91
        4
 64
     7
 65
   257
 75
     1
175
     1
 42
1.0
 92
        0
 66
   257
 43
1.0
 76
     1
 77
     6
 78
     2
 67
     7
 79
     5
170
     0
171
     0
290
     0
174
     0
 93
       13
 44
0.0
173
     0
291
     1
 45
0.0
1001
ACAD
1000
AcDbSavedByObjectVersion
1070
     0
  0
VISUALSTYLE
  5
3920
102
{ACAD_REACTORS
330
3912
102
}
330
3912
100
AcDbVisualStyle
  2
Linepattern
 70
    14
 71
     2
 72
     2
 73
     0
 90
        0
 40
-0.6
 41
-30.0
 62
     5
 63
     7
 74
     1
 91
        4
 64
     7
 65
   257
 75
     7
175
     7
 42
1.0
 92
        8
 66
     7
 43
1.0
 76
     1
 77
     6
 78
     2
 67
     7
 79
     5
170
     0
171
     0
290
     0
174
     0
 93
        1
 44
0.0
173
     0
291
     1
 45
0.0
1001
ACAD
1000
AcDbSavedByObjectVersion
1070
     0
  0
VISUALSTYLE
  5
391C
102
{ACAD_REACTORS
330
3912
102
}
330
3912
100
AcDbVisualStyle
  2
Realistic
 70
     8
 71
     2
 72
     2
 73
     0
 90
        0
 40
-0.6
 41
-30.0
 62
     5
 63
     7
 74
     1
 91
        0
 64
     7
 65
   257
 75
     1
175
     1
 42
1.0
 92
        8
 66
     8
 43
1.0
 76
     1
 77
     6
 78
     2
 67
     7
 79
     5
170
     0
171
     0
290
     0
174
     0
 93
       13
 44
0.0
173
     0
291
     0
 45
0.0
1001
ACAD
1000
AcDbSavedByObjectVersion
1070
     0
  0
VISUALSTYLE
  5
391F
102
{ACAD_REACTORS
330
3912
102
}
330
3912
100
AcDbVisualStyle
  2
Thicken
 70
    13
 71
     2
 72
     2
 73
     0
 90
        0
 40
-0.6
 41
-30.0
 62
     5
 63
     7
 74
     1
 91
        4
 64
     7
 65
   257
 75
     1
175
     1
 42
1.0
 92
       12
 66
     7
 43
1.0
 76
     1
 77
     6
 78
     2
 67
     7
 79
     5
170
     0
171
     0
290
     0
174
     0
 93
        1
 44
0.0
173
     0
291
     1
 45
0.0
1001
ACAD
1000
AcDbSavedByObjectVersion
1070
     0
  0
DICTIONARYVAR
  5
3B47
102
{ACAD_REACTORS
330
3B44
102
}
330
3B44
100
DictionaryVariables
280
     0
  1
1:1
  0
DICTIONARYVAR
  5
3B46
102
{ACAD_REACTORS
330
3B44
102
}
330
3B44
100
DictionaryVariables
280
     0
  1
STANDARD
  0
DICTIONARYVAR
  5
3B45
102
{ACAD_REACTORS
330
3B44
102
}
330
3B44
100
DictionaryVariables
280
     0
  1
STANDARD
  0
DICTIONARYVAR
  5
3B4A
102
{ACAD_REACTORS
330
3B44
102
}
330
3B44
100
DictionaryVariables
280
     0
  1
1
  0
DICTIONARYVAR
  5
3B49
102
{ACAD_REACTORS
330
3B44
102
}
330
3B44
100
DictionaryVariables
280
     0
  1
1
  0
DICTIONARYVAR
  5
3B48
102
{ACAD_REACTORS
330
3B44
102
}
330
3B44
100
DictionaryVariables
280
     0
  1
127
  0
DICTIONARY
  5
3B05
102
{ACAD_REACTORS
330
3AF7
102
}
330
3AF7
100
AcDbDictionary
281
     1
  0
DICTIONARY
  5
3A45
102
{ACAD_REACTORS
330
3A44
102
}
330
3A44
100
AcDbDictionary
281
     1
  3
DWGSETTINGS
350
3A46
  3
TRANSSETTINGS
350
3A47
  0
LAYER_INDEX
  5
3B37
102
{ACAD_REACTORS
330
3B36
102
}
330
3B36
100
AcDbIndex
 40
2456213.47156544
100
AcDbLayerIndex
  8
0
360
3B38
 90
        0
  8
OUTLINE
360
3B39
 90
       20
  8
SIZE
360
3B3A
 90
       60
  8
BASIS
360
3B3B
 90
        1
  8
DETAIL
360
3B3C
 90
       13
  8
ARRANGE
360
3B3D
 90
        2
  8
DEFPOINTS
360
3B3E
 90
        0
  8
ETC
360
3B3F
 90
        3
  8
FIX
360
3B40
 90
        0
  8
NOTE
360
3B41
 90
       17
  8
SERVICESPACE
360
3B42
 90
        0
  8
SYMBOLLINE
360
3B43
 90
        0
  0
DICTIONARY
  5
3B5A
330
3960
100
AcDbDictionary
280
     1
281
     1
  3
ACAD_XREC_ROUNDTRIP
360
3B5B
  0
DICTIONARY
  5
3B58
330
395C
100
AcDbDictionary
280
     1
281
     1
  3
ACAD_XREC_ROUNDTRIP
360
3B59
  0
DICTIONARY
  5
3903
330
3902
100
AcDbDictionary
280
     1
281
     1
  3
ACAD_XREC_ROUNDTRIP
360
3B55
  3
BUMPTILE
360
3905
  3
DIFFUSETILE
360
3904
  3
OPACITYTILE
360
3908
  3
REFLECTIONTILE
360
3907
  3
REFRACTIONTILE
360
3909
  3
SPECULARTILE
360
3906
  0
DICTIONARY
  5
38FB
330
38FA
100
AcDbDictionary
280
     1
281
     1
  3
ACAD_XREC_ROUNDTRIP
360
3B54
  3
BUMPTILE
360
38FD
  3
DIFFUSETILE
360
38FC
  3
OPACITYTILE
360
3900
  3
REFLECTIONTILE
360
38FF
  3
REFRACTIONTILE
360
3901
  3
SPECULARTILE
360
38FE
  0
DICTIONARY
  5
390B
330
390A
100
AcDbDictionary
280
     1
281
     1
  3
ACAD_XREC_ROUNDTRIP
360
3B56
  3
BUMPTILE
360
390D
  3
DIFFUSETILE
360
390C
  3
OPACITYTILE
360
3910
  3
REFLECTIONTILE
360
390F
  3
REFRACTIONTILE
360
3911
  3
SPECULARTILE
360
390E
  0
DICTIONARY
  5
3B4B
330
3955
100
AcDbDictionary
280
     1
281
     1
  3
ACAD_ROUNDTRIP_2008_TABLESTYLE_CELLSTYLEMAP
360
3B4C
  3
ACAD_XREC_ROUNDTRIP
360
3B57
  0
IDBUFFER
  5
3B38
330
0
100
AcDbIdBuffer
  0
IDBUFFER
  5
3B39
330
0
100
AcDbIdBuffer
330
30FA
330
30FB
330
30FC
330
3101
330
953
330
954
330
955
330
956
330
957
330
958
330
30E0
330
30F1
330
30F2
330
30F3
330
30F4
330
30F5
330
30F6
330
30F7
330
30F8
330
30F9
  0
IDBUFFER
  5
3B3A
330
0
100
AcDbIdBuffer
330
3147
330
3148
330
3149
330
314A
330
314B
330
314C
330
314D
330
314E
330
314F
330
3150
330
3151
330
3152
330
3110
330
3111
330
3112
330
3113
330
3114
330
3115
330
3116
330
3117
330
3118
330
3119
330
311A
330
311B
330
311C
330
311D
330
311E
330
311F
330
3120
330
3121
330
3122
330
3123
330
3124
330
3125
330
312D
330
312E
330
312F
330
3130
330
3131
330
3132
330
3133
330
3134
330
3135
330
3136
330
3137
330
3138
330
3139
330
313A
330
313B
330
313C
330
313D
330
313E
330
313F
330
3140
330
3141
330
3142
330
3143
330
3144
330
3145
330
3146
  0
IDBUFFER
  5
3B3B
330
0
100
AcDbIdBuffer
330
30DE
  0
IDBUFFER
  5
3B3C
330
0
100
AcDbIdBuffer
330
30DF
330
30E1
330
30E2
330
30E3
330
30E4
330
30E5
330
30E6
330
30E7
330
30E8
330
30E9
330
30EA
330
30EC
330
30EE
  0
IDBUFFER
  5
3B3D
330
0
100
AcDbIdBuffer
330
30DC
330
30DD
  0
IDBUFFER
  5
3B3E
330
0
100
AcDbIdBuffer
  0
IDBUFFER
  5
3B3F
330
0
100
AcDbIdBuffer
330
30D9
330
30DA
330
3637
  0
IDBUFFER
  5
3B40
330
0
100
AcDbIdBuffer
  0
IDBUFFER
  5
3B41
330
0
100
AcDbIdBuffer
330
3128
330
30EB
330
30ED
330
30EF
330
30F0
330
30FD
330
30FE
330
30FF
330
3100
330
3102
330
3103
330
3104
330
3109
330
310A
330
310B
330
3126
330
3127
  0
IDBUFFER
  5
3B42
330
0
100
AcDbIdBuffer
  0
IDBUFFER
  5
3B43
330
0
100
AcDbIdBuffer
  0
XRECORD
  5
3B5B
102
{ACAD_REACTORS
330
3B5A
102
}
330
3B5A
100
AcDbXrecord
280
     1
102
SHADEPLOT
 70
     0
102
SHADEPLOTRESLEVEL
 70
     2
102
SHADEPLOTCUSTOMDPI
 70
   300
  0
XRECORD
  5
3B59
102
{ACAD_REACTORS
330
3B58
102
}
330
3B58
100
AcDbXrecord
280
     1
102
SHADEPLOT
 70
     0
102
SHADEPLOTRESLEVEL
 70
     2
102
SHADEPLOTCUSTOMDPI
 70
   300
  0
XRECORD
  5
3B55
102
{ACAD_REACTORS
330
3903
102
}
330
3903
100
AcDbXrecord
280
     1
102
MATERIAL
148
0.0
149
0.0
149
0.0
 93
        0
 94
      127
282
     0
 72
     0
 77
     0
171
     0
175
     0
179
     0
273
     0
  0
XRECORD
  5
3905
102
{ACAD_REACTORS
330
3903
102
}
330
3903
100
AcDbXrecord
280
     1
270
     1
271
     1
  0
XRECORD
  5
3904
102
{ACAD_REACTORS
330
3903
102
}
330
3903
100
AcDbXrecord
280
     1
270
     1
271
     1
  0
XRECORD
  5
3908
102
{ACAD_REACTORS
330
3903
102
}
330
3903
100
AcDbXrecord
280
     1
270
     1
271
     1
  0
XRECORD
  5
3907
102
{ACAD_REACTORS
330
3903
102
}
330
3903
100
AcDbXrecord
280
     1
270
     1
271
     1
  0
XRECORD
  5
3909
102
{ACAD_REACTORS
330
3903
102
}
330
3903
100
AcDbXrecord
280
     1
270
     1
271
     1
  0
XRECORD
  5
3906
102
{ACAD_REACTORS
330
3903
102
}
330
3903
100
AcDbXrecord
280
     1
270
     1
271
     1
  0
XRECORD
  5
3B54
102
{ACAD_REACTORS
330
38FB
102
}
330
38FB
100
AcDbXrecord
280
     1
102
MATERIAL
148
0.0
149
0.0
149
0.0
 93
        0
 94
      127
282
     0
 72
     0
 77
     0
171
     0
175
     0
179
     0
273
     0
  0
XRECORD
  5
38FD
102
{ACAD_REACTORS
330
38FB
102
}
330
38FB
100
AcDbXrecord
280
     1
270
     1
271
     1
  0
XRECORD
  5
38FC
102
{ACAD_REACTORS
330
38FB
102
}
330
38FB
100
AcDbXrecord
280
     1
270
     1
271
     1
  0
XRECORD
  5
3900
102
{ACAD_REACTORS
330
38FB
102
}
330
38FB
100
AcDbXrecord
280
     1
270
     1
271
     1
  0
XRECORD
  5
38FF
102
{ACAD_REACTORS
330
38FB
102
}
330
38FB
100
AcDbXrecord
280
     1
270
     1
271
     1
  0
XRECORD
  5
3901
102
{ACAD_REACTORS
330
38FB
102
}
330
38FB
100
AcDbXrecord
280
     1
270
     1
271
     1
  0
XRECORD
  5
38FE
102
{ACAD_REACTORS
330
38FB
102
}
330
38FB
100
AcDbXrecord
280
     1
270
     1
271
     1
  0
XRECORD
  5
3B56
102
{ACAD_REACTORS
330
390B
102
}
330
390B
100
AcDbXrecord
280
     1
102
MATERIAL
148
0.0
149
0.0
149
0.0
 93
        0
 94
      127
282
     0
 72
     0
 77
     0
171
     0
175
     0
179
     0
273
     0
  0
XRECORD
  5
390D
102
{ACAD_REACTORS
330
390B
102
}
330
390B
100
AcDbXrecord
280
     1
270
     1
271
     1
  0
XRECORD
  5
390C
102
{ACAD_REACTORS
330
390B
102
}
330
390B
100
AcDbXrecord
280
     1
270
     1
271
     1
  0
XRECORD
  5
3910
102
{ACAD_REACTORS
330
390B
102
}
330
390B
100
AcDbXrecord
280
     1
270
     1
271
     1
  0
XRECORD
  5
390F
102
{ACAD_REACTORS
330
390B
102
}
330
390B
100
AcDbXrecord
280
     1
270
     1
271
     1
  0
XRECORD
  5
3911
102
{ACAD_REACTORS
330
390B
102
}
330
390B
100
AcDbXrecord
280
     1
270
     1
271
     1
  0
XRECORD
  5
390E
102
{ACAD_REACTORS
330
390B
102
}
330
390B
100
AcDbXrecord
280
     1
270
     1
271
     1
  0
CELLSTYLEMAP
  5
3B4C
102
{ACAD_REACTORS
330
3B4B
102
}
330
3B4B
100
AcDbCellStyleMap
 90
        3
300
CELLSTYLE
  1
TABLEFORMAT_BEGIN
 90
        5
170
     1
 91
        0
 92
    32768
 62
   257
 93
        1
300
CONTENTFORMAT
  1
CONTENTFORMAT_BEGIN
 90
        0
 91
        0
 92
      512
 93
        0
300

 40
0.0
140
1.0
 94
        5
 62
     0
340
3946
144
0.25
309
CONTENTFORMAT_END
171
     0
 94
        0
309
TABLEFORMAT_END
  1
CELLSTYLE_BEGIN
 90
        1
 91
        1
300
_TITLE
309
CELLSTYLE_END
300
CELLSTYLE
  1
TABLEFORMAT_BEGIN
 90
        5
170
     1
 91
        0
 92
        0
 62
   257
 93
        1
300
CONTENTFORMAT
  1
CONTENTFORMAT_BEGIN
 90
        0
 91
        0
 92
      512
 93
        0
300

 40
0.0
140
1.0
 94
        5
 62
     0
340
3946
144
0.18
309
CONTENTFORMAT_END
171
     0
 94
        0
309
TABLEFORMAT_END
  1
CELLSTYLE_BEGIN
 90
        2
 91
        1
300
_HEADER
309
CELLSTYLE_END
300
CELLSTYLE
  1
TABLEFORMAT_BEGIN
 90
        5
170
     1
 91
        0
 92
        0
 62
   257
 93
        1
300
CONTENTFORMAT
  1
CONTENTFORMAT_BEGIN
 90
        0
 91
        0
 92
      512
 93
        0
300

 40
0.0
140
1.0
 94
        2
 62
     0
340
3946
144
0.18
309
CONTENTFORMAT_END
171
     0
 94
        0
309
TABLEFORMAT_END
  1
CELLSTYLE_BEGIN
 90
        3
 91
        2
300
_DATA
309
CELLSTYLE_END
  0
XRECORD
  5
3B57
102
{ACAD_REACTORS
330
3B4B
102
}
330
3B4B
100
AcDbXrecord
280
     1
102
ACAD_ROUNDTRIP_PRE2007_TABLESTYLE
 90
      512
 91
        0
  1

 92
      512
 93
        0
  2

 94
      512
 95
        0
  3

  0
ENDSEC
  0
EOF
