  0
SECTION
  2
HEADER
  9
$ACADVER
  1
AC1009
  9
$DWGCODEPAGE
  3
dos932
  9
$INSBASE
 10
0.0
 20
0.0
 30
0.0
  9
$EXTMIN
 10
-177.1957226647028
 20
-145.15684829693959
 30
-0.0015258207003583
  9
$EXTMAX
 10
663.01118057804342
 20
397.65930955491422
 30
0.0000000349246037
  9
$LIMMIN
 10
-2970.0
 20
-2100.0
  9
$LIMMAX
 10
2970.0
 20
2100.0
  9
$ORTHOMODE
 70
     1
  9
$REGENMODE
 70
     1
  9
$FILLMODE
 70
     1
  9
$QTEXTMODE
 70
     0
  9
$MIRRTEXT
 70
     0
  9
$LTSCALE
 40
20.0
  9
$ATTMODE
 70
     1
  9
$TEXTSIZE
 40
64.0
  9
$TRACEWID
 40
0.05
  9
$TEXTSTYLE
  7
STANDARD
  9
$CLAYER
  8
SIZE
  9
$CELTYPE
  6
CONTINUOUS
  9
$CECOLOR
 62
     7
  9
$DIMSCALE
 40
1.0
  9
$DIMASZ
 40
12.0
  9
$DIMEXO
 40
20.0
  9
$DIMDLI
 40
200.0
  9
$DIMRND
 40
0.0
  9
$DIMDLE
 40
0.0
  9
$DIMEXE
 40
20.0
  9
$DIMTP
 40
0.0
  9
$DIMTM
 40
0.0
  9
$DIMTXT
 40
64.0
  9
$DIMCEN
 40
0.09
  9
$DIMTSZ
 40
0.0
  9
$DIMTOL
 70
     0
  9
$DIMLIM
 70
     0
  9
$DIMTIH
 70
     0
  9
$DIMTOH
 70
     0
  9
$DIMSE1
 70
     0
  9
$DIMSE2
 70
     0
  9
$DIMTAD
 70
     1
  9
$DIMZIN
 70
     8
  9
$DIMBLK
  1

  9
$DIMASO
 70
     1
  9
$DIMSHO
 70
     0
  9
$DIMPOST
  1

  9
$DIMAPOST
  1

  9
$DIMALT
 70
     0
  9
$DIMALTD
 70
     2
  9
$DIMALTF
 40
25.399999999999999
  9
$DIMLFAC
 40
1.0
  9
$DIMTOFL
 70
     1
  9
$DIMTVP
 40
0.0
  9
$DIMTIX
 70
     1
  9
$DIMSOXD
 70
     0
  9
$DIMSAH
 70
     0
  9
$DIMBLK1
  1

  9
$DIMBLK2
  1

  9
$DIMSTYLE
  2
STANDARD
  9
$DIMCLRD
 70
     7
  9
$DIMCLRE
 70
     7
  9
$DIMCLRT
 70
     7
  9
$DIMTFAC
 40
1.0
  9
$DIMGAP
 40
25.0
  9
$LUNITS
 70
     2
  9
$LUPREC
 70
     4
  9
$SKETCHINC
 40
0.1
  9
$FILLETRAD
 40
3.0
  9
$AUNITS
 70
     1
  9
$AUPREC
 70
     3
  9
$MENU
  1
ACAD
  9
$ELEVATION
 40
0.0
  9
$PELEVATION
 40
0.0
  9
$THICKNESS
 40
0.0
  9
$LIMCHECK
 70
     0
  9
$CHAMFERA
 40
0.0
  9
$CHAMFERB
 40
0.0
  9
$SKPOLY
 70
     0
  9
$TDCREATE
 40
2453019.62301037
  9
$TDUPDATE
 40
2459375.453702593
  9
$TDINDWG
 40
1.7629326505
  9
$TDUSRTIMER
 40
1.7629326505
  9
$USRTIMER
 70
     1
  9
$ANGBASE
 50
0.0
  9
$ANGDIR
 70
     0
  9
$PDMODE
 70
     3
  9
$PDSIZE
 40
-2.0
  9
$PLINEWID
 40
0.0
  9
$SPLFRAME
 70
     0
  9
$SPLINETYPE
 70
     6
  9
$SPLINESEGS
 70
     8
  9
$SURFTAB1
 70
     6
  9
$SURFTAB2
 70
     6
  9
$SURFTYPE
 70
     6
  9
$SURFU
 70
     6
  9
$SURFV
 70
     6
  9
$UCSNAME
  2

  9
$UCSORG
 10
0.0
 20
0.0
 30
0.0
  9
$UCSXDIR
 10
1.0
 20
0.0
 30
0.0
  9
$UCSYDIR
 10
0.0
 20
1.0
 30
0.0
  9
$PUCSNAME
  2

  9
$PUCSORG
 10
0.0
 20
0.0
 30
0.0
  9
$PUCSXDIR
 10
1.0
 20
0.0
 30
0.0
  9
$PUCSYDIR
 10
0.0
 20
1.0
 30
0.0
  9
$USERI1
 70
     0
  9
$USERI2
 70
     0
  9
$USERI3
 70
     0
  9
$USERI4
 70
     0
  9
$USERI5
 70
     0
  9
$USERR1
 40
20.0
  9
$USERR2
 40
0.0
  9
$USERR3
 40
0.0
  9
$USERR4
 40
0.0
  9
$USERR5
 40
0.0
  9
$WORLDVIEW
 70
     1
  9
$SHADEDGE
 70
     3
  9
$SHADEDIF
 70
    70
  9
$TILEMODE
 70
     1
  9
$MAXACTVP
 70
    48
  9
$PINSBASE
 10
0.0
 20
0.0
 30
0.0
  9
$PLIMCHECK
 70
     0
  9
$PEXTMIN
 10
-100000000000000000000.0
 20
-100000000000000000000.0
 30
-100000000000000000000.0
  9
$PEXTMAX
 10
100000000000000000000.0
 20
100000000000000000000.0
 30
100000000000000000000.0
  9
$PLIMMIN
 10
0.0
 20
0.0
  9
$PLIMMAX
 10
12.0
 20
9.0
  9
$UNITMODE
 70
     0
  9
$VISRETAIN
 70
     0
  9
$PLINEGEN
 70
     0
  9
$PSLTSCALE
 70
     0
  9
$TREEDEPTH
 70
  3020
  9
$ATTDIA
 70
     0
  9
$ATTREQ
 70
     1
  9
$BLIPMODE
 70
     1
  9
$COORDS
 70
     1
  9
$DRAGMODE
 70
     2
  9
$OSMODE
 70
     0
  9
$HANDLING
 70
     0
  9
$HANDSEED
  5
F7A2
  0
ENDSEC
  0
SECTION
  2
TABLES
  0
TABLE
  2
LTYPE
 70
     2
  0
LTYPE
  2
CONTINUOUS
 70
     0
  3
実線
 72
    65
 73
     0
 40
0.0
  0
LTYPE
  2
DASHDOT
 70
     0
  3
____ _ ____ _ ____ _ ____ _ ____ _ ____ _ ____
 72
    65
 73
     4
 40
5.5
 49
4.0
 49
-0.6
 49
0.3
 49
-0.6
  0
ENDTAB
  0
TABLE
  2
LAYER
 70
    12
  0
LAYER
  2
0
 70
     0
 62
     7
  6
CONTINUOUS
  0
LAYER
  2
BASIS
 70
     0
 62
     6
  6
DASHDOT
  0
LAYER
  2
OUTLINE
 70
     0
 62
     3
  6
CONTINUOUS
  0
LAYER
  2
DETAIL
 70
     0
 62
     5
  6
CONTINUOUS
  0
LAYER
  2
SIZE
 70
     0
 62
    30
  6
CONTINUOUS
  0
LAYER
  2
ARRANGE
 70
     0
 62
     1
  6
CONTINUOUS
  0
LAYER
  2
DEFPOINTS
 70
     0
 62
     7
  6
CONTINUOUS
  0
LAYER
  2
ETC
 70
     0
 62
    61
  6
CONTINUOUS
  0
LAYER
  2
FIX
 70
    64
 62
    11
  6
CONTINUOUS
  0
LAYER
  2
NOTE
 70
    64
 62
     4
  6
CONTINUOUS
  0
LAYER
  2
SERVICESPACE
 70
    64
 62
     2
  6
DASHDOT
  0
LAYER
  2
SYMBOLLINE
 70
    64
 62
    15
  6
CONTINUOUS
  0
ENDTAB
  0
TABLE
  2
STYLE
 70
     1
  0
STYLE
  2
STANDARD
 70
     0
 40
64.0
 41
0.9
 50
0.0
 71
     0
 42
64.0
  3
SIMPLEX.shx
  4
BIGFONT.shx
  0
ENDTAB
  0
TABLE
  2
APPID
 70
    20
  0
APPID
  2
ACAD
 70
     0
  0
APPID
  2
AUTOCAD_POSTSCRIPT_FIGURE
 70
     0
  0
APPID
  2
ACAD_EXEMPT_FROM_CAD_STANDARDS
 70
     0
  0
APPID
  2
ACAD_PSEXT
 70
     0
  0
APPID
  2
ACAUTHENVIRON
 70
     0
  0
APPID
  2
GENIUS_GENOENT_13
 70
     0
  0
APPID
  2
GENIUS_GENCFG_13
 70
     0
  0
APPID
  2
GENIUS_GENCFG0_13
 70
     0
  0
APPID
  2
GENIUS_GENCFG1_13
 70
     0
  0
APPID
  2
GENIUS_GENCFG2_13
 70
     0
  0
APPID
  2
GENIUS_GENCFG3_13
 70
     0
  0
APPID
  2
GENIUS_GENCFG4_13
 70
     0
  0
APPID
  2
GENIUS_GEVCFG0_13
 70
     0
  0
APPID
  2
CONTENTBLOCKICON
 70
     0
  0
APPID
  2
CONTENTBLOCKDESCRIPTION
 70
     0
  0
APPID
  2
ACAD_NAV_VCDISPLAY
 70
     0
  0
APPID
  2
ACAD_MLEADERVER
 70
     0
  0
APPID
  2
ACDBDYNAMICBLOCKTRUENAME
 70
     0
  0
APPID
  2
ACDBDYNAMICBLOCKGUID
 70
     0
  0
APPID
  2
ACAD_DSTYLE_DIMRADIAL_EXTENSION
 70
     0
  0
ENDTAB
  0
TABLE
  2
DIMSTYLE
 70
     1
  0
DIMSTYLE
  2
STANDARD
 70
     0
  3

  4

  5
_ORIGIN
  6

  7

 40
1.0
 41
12.0
 42
20.0
 43
200.0
 44
20.0
 45
0.0
 46
0.0
 47
0.0
 48
0.0
140
64.0
141
0.09
142
0.0
143
25.399999999999999
144
1.0
145
0.0
146
1.0
147
25.0
 71
     0
 72
     0
 73
     0
 74
     0
 75
     0
 76
     0
 77
     1
 78
     8
170
     0
171
     2
172
     1
173
     0
174
     1
175
     0
176
     7
177
     7
178
     7
  0
ENDTAB
  0
TABLE
  2
VIEW
 70
     1
  0
VIEW
  2
ALL
 70
     0
 40
4282.6198079999986
 10
0.0
 20
41.309904000000003
 41
5940.0
 11
0.0
 21
0.0
 31
1.0
 12
0.0
 22
0.0
 32
0.0
 42
50.0
 43
0.0
 44
0.0
 50
0.0
 71
     0
  0
ENDTAB
  0
TABLE
  2
UCS
 70
     0
  0
ENDTAB
  0
TABLE
  2
VPORT
 70
     1
  0
VPORT
  2
*ACTIVE
 70
     0
 10
0.0
 20
0.0
 11
1.0
 21
1.0
 12
242.9077289566703
 22
126.2512306289873
 13
0.0
 23
0.0
 14
1.0
 24
1.0
 15
0.0
 25
0.0
 16
0.0
 26
0.0
 36
1.0
 17
0.0
 27
0.0
 37
0.0
 40
546.45514885421267
 41
1.767337807606264
 42
50.0
 43
0.0
 44
0.0
 50
0.0
 51
0.0
 71
     0
 72
  1000
 73
     1
 74
     3
 75
     0
 76
     0
 77
     0
 78
     0
  0
ENDTAB
  0
ENDSEC
  0
SECTION
  2
BLOCKS
  0
BLOCK
  8
0
  2
_ORIGIN
 70
     0
 10
0.0
 20
0.0
 30
0.0
  3
_ORIGIN
  1
_ORIGIN
  0
CIRCLE
  8
SIZE
  6
CONTINUOUS
 62
    30
 10
0.0
 20
0.0
 30
0.0
 40
0.5
  0
LINE
  8
SIZE
  6
CONTINUOUS
 62
    30
 10
0.0
 20
0.0
 30
0.0
 11
-1.0
 21
0.0
 31
0.0
  0
ENDBLK
  8
0
  0
ENDSEC
  0
SECTION
  2
ENTITIES
  0
LINE
  8
BASIS
  6
DASHDOT
 62
     6
 10
157.90897497196599
 20
0.0
 30
0.0
 11
-59.315399726721807
 21
0.0
 31
0.0
  0
CIRCLE
  8
ARRANGE
  6
CONTINUOUS
 62
     1
 10
0.0
 20
0.0
 30
0.0
 40
40.0
  0
POINT
  8
ARRANGE
  6
CONTINUOUS
 62
     1
 10
0.0
 20
0.0
 30
0.0
 50
180.0
  0
ARC
  8
DETAIL
  6
CONTINUOUS
 62
     5
 10
1.5
 20
137.5
 30
0.0
 40
1.5
 50
0.000000000000007
 51
180.0
  0
LINE
  8
DETAIL
  6
CONTINUOUS
 62
     5
 10
0.0
 20
137.5
 30
0.0
 11
0.0
 21
100.7356900300172
 31
0.0
  0
LINE
  8
DETAIL
  6
CONTINUOUS
 62
     5
 10
3.0
 20
137.5
 30
0.0
 11
3.0
 21
103.1347794936086
 31
0.0
  0
LINE
  8
DETAIL
  6
CONTINUOUS
 62
     5
 10
76.511181000000761
 20
128.79241208287749
 30
0.0
 11
76.511181000000761
 21
96.439022842561315
 31
0.0
  0
LINE
  8
DETAIL
  6
CONTINUOUS
 62
     5
 10
73.511181000000761
 20
128.79241208287749
 30
0.0
 11
73.511181000000761
 21
96.439022842561315
 31
0.0
  0
ARC
  8
DETAIL
  6
CONTINUOUS
 62
     5
 10
126.5
 20
78.5
 30
0.0
 40
1.5
 50
0.000000000000007
 51
180.0
  0
ARC
  8
DETAIL
  6
CONTINUOUS
 62
     5
 10
75.011181000000761
 20
128.79241208287749
 30
0.0
 40
1.5
 50
0.000000000000007
 51
180.0
  0
ARC
  8
DETAIL
  6
CONTINUOUS
 62
     5
 10
1.5
 20
86.441569611874854
 30
0.0
 40
1.5
 50
0.000000000000007
 51
180.0
  0
ARC
  8
DETAIL
  6
CONTINUOUS
 62
     5
 10
1.5
 20
103.1347794936086
 30
0.0
 40
1.5
 50
180.0
 51
0.000000000000007
  0
ARC
  8
DETAIL
  6
CONTINUOUS
 62
     5
 10
75.011181000000761
 20
96.439022842561315
 30
0.0
 40
1.5
 50
180.0
 51
0.000000000000007
  0
ARC
  8
DETAIL
  6
CONTINUOUS
 62
     5
 10
75.011181000000761
 20
77.723999643415482
 30
0.0
 40
1.5
 50
0.000000000000007
 51
180.0
  0
ARC
  8
DETAIL
  6
CONTINUOUS
 62
     5
 10
1.5
 20
-137.5
 30
0.0
 40
1.5
 50
180.0
 51
0.000000000000007
  0
ARC
  8
DETAIL
  6
CONTINUOUS
 62
     5
 10
1.5
 20
-82.131286223749726
 30
0.0
 40
1.5
 50
180.0
 51
0.000000000000007
  0
ARC
  8
DETAIL
  6
CONTINUOUS
 62
     5
 10
1.5
 20
-103.0154290799743
 30
0.0
 40
1.5
 50
0.000000000000007
 51
180.0
  0
LINE
  8
DETAIL
  6
CONTINUOUS
 62
     5
 10
0.0
 20
-82.131286223749726
 30
0.0
 11
0.0
 21
86.441569611874854
 31
0.0
  0
LINE
  8
DETAIL
  6
CONTINUOUS
 62
     5
 10
0.0
 20
-137.5
 30
0.0
 11
0.0
 21
-100.7356900300171
 31
0.0
  0
LINE
  8
DETAIL
  6
CONTINUOUS
 62
     5
 10
3.0
 20
-82.131286223749726
 30
0.0
 11
3.0
 21
86.441569611874854
 31
0.0
  0
LINE
  8
DETAIL
  6
CONTINUOUS
 62
     5
 10
73.511181000003489
 20
-77.566666666665697
 30
0.0
 11
73.511181000000761
 21
77.723999643415482
 31
0.0
  0
LINE
  8
DETAIL
  6
CONTINUOUS
 62
     5
 10
76.511181000003489
 20
-77.566666666665697
 30
0.0
 11
76.511181000000761
 21
77.723999643415482
 31
0.0
  0
ARC
  8
DETAIL
  6
CONTINUOUS
 62
     5
 10
97.563391265570317
 20
-65.574621212090335
 30
0.0
 40
28.359750601198421
 50
271.77047035118642
 51
345.3409505736812
  0
ARC
  8
DETAIL
  6
CONTINUOUS
 62
     5
 10
97.043636245495691
 20
-65.28281006246084
 30
0.0
 40
26.724747108117359
 50
272.43969259459891
 51
344.95305189282487
  0
ARC
  8
DETAIL
  6
CONTINUOUS
 62
     5
 10
96.330621362986676
 20
-79.881684899430979
 30
0.0
 40
26.7615462756577
 50
273.96531281789407
 51
352.31950644145138
  0
ARC
  8
DETAIL
  6
CONTINUOUS
 62
     5
 10
96.70475195601648
 20
-80.050381313341859
 30
0.0
 40
28.519099595266511
 50
273.48748457586851
 51
352.81653036227652
  0
ARC
  8
DETAIL
  6
CONTINUOUS
 62
     5
 10
95.309635326251737
 20
-94.329539517642388
 30
0.0
 40
29.723216555476711
 50
276.04463197521869
 51
2.694076114807467
  0
ARC
  8
DETAIL
  6
CONTINUOUS
 62
     5
 10
95.211306086260265
 20
-94.194917999417214
 30
0.0
 40
27.91352976084962
 50
276.10771765788331
 51
337.73559301560857
  0
ARC
  8
DETAIL
  6
CONTINUOUS
 62
     5
 10
96.076382978660149
 20
-90.09992343641278
 30
0.0
 40
26.76630024685101
 50
274.5103223877162
 51
356.8987401921969
  0
ARC
  8
DETAIL
  6
CONTINUOUS
 62
     5
 10
95.80031304952081
 20
-89.430577061547524
 30
0.0
 40
29.408924837505541
 50
275.14887142816241
 51
353.16126070115848
  0
ARC
  8
DETAIL
  6
CONTINUOUS
 62
     5
 10
98.214851600329894
 20
-45.952986602214537
 30
0.0
 40
27.430367311741399
 50
269.92981390501342
 51
333.91902389679672
  0
ARC
  8
DETAIL
  6
CONTINUOUS
 62
     5
 10
97.790767744761979
 20
-45.017896257883478
 30
0.0
 40
30.30739233917199
 50
270.98243850021248
 51
333.86718109105738
  0
ARC
  8
DETAIL
  6
CONTINUOUS
 62
     5
 10
100.6321929638225
 20
27.590741328701771
 30
0.0
 40
55.684998745612788
 50
267.61036975987213
 51
293.51744684575522
  0
ARC
  8
DETAIL
  6
CONTINUOUS
 62
     5
 10
99.328160919557376
 20
24.18426724133144
 30
0.0
 40
54.30630475574231
 50
268.92616769791402
 51
298.21119776433483
  0
LINE
  8
DETAIL
  6
CONTINUOUS
 62
     5
 10
73.51118100000258
 20
-54.906063051371973
 30
0.0
 11
2.98541666669189
 21
-58.400000000001462
 31
0.0
  0
LINE
  8
DETAIL
  6
CONTINUOUS
 62
     5
 10
73.51118100000258
 20
-52.968563051375611
 30
0.0
 11
2.98541666669189
 21
-56.462499999997817
 31
0.0
  0
LINE
  8
DETAIL
  6
CONTINUOUS
 62
     5
 10
98.310416666645324
 20
-28.04583333333721
 30
0.0
 11
76.511181000000761
 21
-28.68698732353198
 31
0.0
  0
LINE
  8
DETAIL
  6
CONTINUOUS
 62
     5
 10
98.310416666645324
 20
-30.112499999999269
 30
0.0
 11
76.511181000000761
 21
-30.625423192155839
 31
0.0
  0
LINE
  8
DETAIL
  6
CONTINUOUS
 62
     5
 10
73.381249999947613
 20
-126.8583333333336
 30
0.0
 11
3.0
 21
-135.12328746178031
 31
0.0
  0
LINE
  8
DETAIL
  6
CONTINUOUS
 62
     5
 10
73.381249999947613
 20
-124.9208333333372
 30
0.0
 11
3.0
 21
-133.1857874617767
 31
0.0
  0
LINE
  8
DETAIL
  6
CONTINUOUS
 62
     5
 10
73.381249999947613
 20
-109.1624999999985
 30
0.0
 11
3.0
 21
-116.39433486239029
 31
0.0
  0
LINE
  8
DETAIL
  6
CONTINUOUS
 62
     5
 10
73.381249999947613
 20
-111.1000000000022
 30
0.0
 11
3.0
 21
-118.46097477064269
 31
0.0
  0
LINE
  8
DETAIL
  6
CONTINUOUS
 62
     5
 10
73.381249999947613
 20
-121.5625
 30
0.0
 11
3.0
 21
-129.4400344036716
 31
0.0
  0
LINE
  8
DETAIL
  6
CONTINUOUS
 62
     5
 10
73.381249999947613
 20
-119.625
 30
0.0
 11
3.0
 21
-127.5025344036716
 31
0.0
  0
LINE
  8
DETAIL
  6
CONTINUOUS
 62
     5
 10
2.98541666669189
 20
-102.31666666666931
 30
0.0
 11
73.381249999947613
 21
-96.116666666668607
 31
0.0
  0
LINE
  8
DETAIL
  6
CONTINUOUS
 62
     5
 10
0.0
 20
-100.7356900300172
 30
0.0
 11
98.181249999994179
 21
-91.983333333333576
 31
0.0
  0
LINE
  8
DETAIL
  6
CONTINUOUS
 62
     5
 10
3.0
 20
-82.036483180432072
 30
0.0
 11
73.51118100000258
 21
-77.120107257491156
 31
0.0
  0
LINE
  8
DETAIL
  6
CONTINUOUS
 62
     5
 10
3.0
 20
-80.098713899841584
 30
0.0
 11
73.51118100000258
 21
-75.182607754607091
 31
0.0
  0
LINE
  8
DETAIL
  6
CONTINUOUS
 62
     5
 10
3.0
 20
-137.5
 30
0.0
 11
3.0
 21
-103.0154290799743
 31
0.0
  0
LINE
  8
DETAIL
  6
CONTINUOUS
 62
     5
 10
76.506695461562231
 20
-95.833585182620766
 30
0.0
 11
98.439583333354676
 21
-93.920833333333576
 31
0.0
  0
LINE
  8
DETAIL
  6
CONTINUOUS
 62
     5
 10
98.181249999994179
 20
-106.5791666666701
 30
0.0
 11
76.511181000000761
 21
-108.8872213530574
 31
0.0
  0
LINE
  8
DETAIL
  6
CONTINUOUS
 62
     5
 10
98.439583333354676
 20
-108.5166666666664
 30
0.0
 11
76.511181000000761
 21
-110.82491954385981
 31
0.0
  0
ARC
  8
DETAIL
  6
CONTINUOUS
 62
     5
 10
75.011181000000761
 20
-128.71285076868301
 30
0.0
 40
1.5
 50
180.0
 51
0.000000000000007
  0
LINE
  8
DETAIL
  6
CONTINUOUS
 62
     5
 10
98.439583333354676
 20
-123.8875000000007
 30
0.0
 11
76.511181000000761
 21
-126.4522254191025
 31
0.0
  0
LINE
  8
DETAIL
  6
CONTINUOUS
 62
     5
 10
98.181249999994179
 20
-121.9500000000007
 30
0.0
 11
76.511181000000761
 21
-124.5145052070998
 31
0.0
  0
LINE
  8
DETAIL
  6
CONTINUOUS
 62
     5
 10
98.181249999994179
 20
-116.78333333333281
 30
0.0
 11
76.511181000000761
 21
-119.21961328007789
 31
0.0
  0
LINE
  8
DETAIL
  6
CONTINUOUS
 62
     5
 10
98.439583333354676
 20
-118.72083333333281
 30
0.0
 11
76.511181000000761
 21
-121.1573224814841
 31
0.0
  0
LINE
  8
DETAIL
  6
CONTINUOUS
 62
     5
 10
73.511181000000761
 20
-128.71285076868301
 30
0.0
 11
73.511181000000761
 21
-95.949501079974311
 31
0.0
  0
LINE
  8
DETAIL
  6
CONTINUOUS
 62
     5
 10
76.511181000000761
 20
-128.71285076868301
 30
0.0
 11
76.511181000000761
 21
-95.949501079974311
 31
0.0
  0
ARC
  8
DETAIL
  6
CONTINUOUS
 62
     5
 10
75.011181000000761
 20
-95.949501079974311
 30
0.0
 40
1.5
 50
0.000000000000007
 51
180.0
  0
ARC
  8
DETAIL
  6
CONTINUOUS
 62
     5
 10
75.011181000003489
 20
-77.566666666665697
 30
0.0
 40
1.5
 50
180.0
 51
0.000000000000007
  0
LINE
  8
DETAIL
  6
CONTINUOUS
 62
     5
 10
76.511181000003489
 20
-74.922036457594288
 30
0.0
 11
98.181249999994179
 21
-73.383333333335031
 31
0.0
  0
LINE
  8
DETAIL
  6
CONTINUOUS
 62
     5
 10
76.511181000003489
 20
-76.859602909804494
 30
0.0
 11
98.310416666645324
 21
-75.320833333331393
 31
0.0
  0
LINE
  8
DETAIL
  6
CONTINUOUS
 62
     5
 10
125.0
 20
-92.932454000000007
 30
0.0
 11
125.0
 21
92.932454000000007
 31
0.0
  0
LINE
  8
DETAIL
  6
CONTINUOUS
 62
     5
 10
128.0
 20
-78.5
 30
0.0
 11
128.0
 21
78.5
 31
0.0
  0
ARC
  8
DETAIL
  6
CONTINUOUS
 62
     5
 10
126.5
 20
-78.5
 30
0.0
 40
1.5
 50
180.0
 51
0.000000000000007
  0
LINE
  8
DETAIL
  6
CONTINUOUS
 62
     5
 10
73.511181000000761
 20
-1.0000000000001139
 30
0.0
 11
3.0
 21
-1.0000000000001139
 31
0.0
  0
LINE
  8
DETAIL
  6
CONTINUOUS
 62
     5
 10
73.51118100000258
 20
-30.625828989599999
 30
0.0
 11
2.9999999999990909
 21
-32.437125382263673
 31
0.0
  0
LINE
  8
DETAIL
  6
CONTINUOUS
 62
     5
 10
73.51118100000258
 20
-28.6883289896038
 30
0.0
 11
3.0
 21
-30.49962538226367
 31
0.0
  0
ARC
  8
DETAIL
  6
CONTINUOUS
 62
     5
 10
123.9260416666657
 20
-13.88794642856919
 30
0.0
 40
1.0888743571769559
 50
9.494504335822251
 51
170.50549566418451
  0
LINE
  8
DETAIL
  6
CONTINUOUS
 62
     5
 10
122.85208333333139
 20
-13.70833333333576
 30
0.0
 11
122.85208333333139
 21
-23.468984064859679
 31
0.0
  0
LINE
  8
DETAIL
  6
CONTINUOUS
 62
     5
 10
122.85208333333139
 20
-24.762640837670862
 30
0.0
 11
122.85208333333139
 21
-41.479166666666003
 31
0.0
  0
LINE
  8
DETAIL
  6
CONTINUOUS
 62
     5
 10
122.85208333333139
 20
-44.151445046319957
 30
0.0
 11
122.85208333333139
 21
-58.012500000002831
 31
0.0
  0
LINE
  8
DETAIL
  6
CONTINUOUS
 62
     5
 10
122.85208333333139
 20
-62.061032453156599
 30
0.0
 11
122.85208333333139
 21
-72.220833333336486
 31
0.0
  0
LINE
  8
DETAIL
  6
CONTINUOUS
 62
     5
 10
122.85208333333139
 20
-78.410411318824401
 30
0.0
 11
122.85208333333139
 21
-83.458333333332121
 31
0.0
  0
LINE
  8
DETAIL
  6
CONTINUOUS
 62
     5
 10
76.511181000000761
 20
-52.838346384316708
 30
0.0
 11
98.310416666645324
 21
-51.8125
 31
0.0
  0
LINE
  8
DETAIL
  6
CONTINUOUS
 62
     5
 10
76.511181000000761
 20
-54.775846384313127
 30
0.0
 11
98.310416666645324
 21
-53.75
 31
0.0
  0
ARC
  8
DETAIL
  6
CONTINUOUS
 62
     5
 10
99.544333048868793
 20
-20.433155574407639
 30
0.0
 40
31.4035954345729
 50
267.74814303268789
 51
317.91916532313633
  0
ARC
  8
DETAIL
  6
CONTINUOUS
 62
     5
 10
99.041947115418225
 20
-19.446935096232721
 30
0.0
 40
34.310864148102432
 50
268.77832329669678
 51
319.1614208483204
  0
LINE
  8
DETAIL
  6
CONTINUOUS
 62
     5
 10
76.51118100000258
 20
-0.9041666666671517
 30
0.0
 11
124.1640771176135
 21
-0.9041666666671517
 31
0.0
  0
ARC
  8
DETAIL
  6
CONTINUOUS
 62
     5
 10
124.0930476612393
 20
0.0000000000001705
 30
0.0
 40
0.9069523387612433
 50
274.49181247733628
 51
85.508187522663803
  0
LINE
  8
DETAIL
  6
CONTINUOUS
 62
     5
 10
76.51118100000258
 20
0.9041666666671517
 30
0.0
 11
124.1640771176135
 21
0.9041666666671517
 31
0.0
  0
LINE
  8
DETAIL
  6
CONTINUOUS
 62
     5
 10
73.511181000000761
 20
1.0000000000001139
 30
0.0
 11
3.0
 21
1.0000000000001139
 31
0.0
  0
ARC
  8
DETAIL
  6
CONTINUOUS
 62
     5
 10
102.2354166666919
 20
-93.462881960602658
 30
0.0
 40
1.5
 50
191.16020986572971
 51
0.000000000000007
  0
LINE
  8
DETAIL
  6
CONTINUOUS
 62
     5
 10
100.7354166666919
 20
-91.751336000157096
 30
0.0
 11
100.7354166666919
 21
-75.181899193950812
 31
0.0
  0
LINE
  8
DETAIL
  6
CONTINUOUS
 62
     5
 10
100.7354166666919
 20
-73.267301578125739
 30
0.0
 11
100.7354166666919
 21
-69.25
 31
0.0
  0
LINE
  8
DETAIL
  6
CONTINUOUS
 62
     5
 10
103.7354166666919
 20
-93.462881960602658
 30
0.0
 11
103.7354166666919
 21
-93.25460597744177
 31
0.0
  0
LINE
  8
DETAIL
  6
CONTINUOUS
 62
     5
 10
103.7354166666919
 20
-91.156197602311863
 30
0.0
 11
103.7354166666928
 21
-74.736563448649179
 31
0.0
  0
LINE
  8
DETAIL
  6
CONTINUOUS
 62
     5
 10
103.7354166666919
 20
-72.822084320692397
 30
0.0
 11
103.7354166666919
 21
-69.25
 31
0.0
  0
ARC
  8
DETAIL
  6
CONTINUOUS
 62
     5
 10
102.2354166666919
 20
-69.25
 30
0.0
 40
1.5
 50
0.000000000000007
 51
180.0
  0
ARC
  8
DETAIL
  6
CONTINUOUS
 62
     5
 10
97.563391265570317
 20
65.574621212090335
 30
0.0
 40
28.359750601198421
 50
14.65904942632144
 51
88.229529648813596
  0
ARC
  8
DETAIL
  6
CONTINUOUS
 62
     5
 10
97.043636245495691
 20
65.28281006246084
 30
0.0
 40
26.724747108117359
 50
15.04694810717846
 51
87.560307405401119
  0
ARC
  8
DETAIL
  6
CONTINUOUS
 62
     5
 10
96.330621362986676
 20
79.881684899430979
 30
0.0
 40
26.7615462756577
 50
7.6804935585486591
 51
86.034687182105898
  0
ARC
  8
DETAIL
  6
CONTINUOUS
 62
     5
 10
96.70475195601648
 20
80.050381313341859
 30
0.0
 40
28.519099595266511
 50
7.1834696377267564
 51
86.512515424131479
  0
ARC
  8
DETAIL
  6
CONTINUOUS
 62
     5
 10
95.309635326251737
 20
94.329539517642388
 30
0.0
 40
29.723216555476711
 50
357.30592388518932
 51
83.955368024781308
  0
ARC
  8
DETAIL
  6
CONTINUOUS
 62
     5
 10
95.211306086260265
 20
94.194917999417214
 30
0.0
 40
27.91352976084962
 50
22.26440698439141
 51
83.892282342116715
  0
ARC
  8
DETAIL
  6
CONTINUOUS
 62
     5
 10
96.076382978660149
 20
90.09992343641278
 30
0.0
 40
26.76630024685101
 50
3.101259807799857
 51
85.489677612283856
  0
ARC
  8
DETAIL
  6
CONTINUOUS
 62
     5
 10
95.80031304952081
 20
89.430577061547524
 30
0.0
 40
29.408924837505541
 50
6.8387392988423654
 51
84.851128571837563
  0
ARC
  8
DETAIL
  6
CONTINUOUS
 62
     5
 10
98.214851600329894
 20
45.952986602214537
 30
0.0
 40
27.430367311741399
 50
26.080976103203358
 51
90.070186094986582
  0
ARC
  8
DETAIL
  6
CONTINUOUS
 62
     5
 10
97.790767744761979
 20
45.017896257883478
 30
0.0
 40
30.30739233917199
 50
26.13281890894266
 51
89.017561499787547
  0
ARC
  8
DETAIL
  6
CONTINUOUS
 62
     5
 10
100.6321929638225
 20
-27.590741328701771
 30
0.0
 40
55.684998745612788
 50
66.482553154246588
 51
92.389630240127872
  0
ARC
  8
DETAIL
  6
CONTINUOUS
 62
     5
 10
99.328160919557376
 20
-24.18426724133144
 30
0.0
 40
54.30630475574231
 50
61.788802235665273
 51
91.073832302086004
  0
LINE
  8
DETAIL
  6
CONTINUOUS
 62
     5
 10
73.51118100000258
 20
54.906063051371973
 30
0.0
 11
2.98541666669189
 21
58.400000000001462
 31
0.0
  0
LINE
  8
DETAIL
  6
CONTINUOUS
 62
     5
 10
73.51118100000258
 20
52.968563051375611
 30
0.0
 11
2.98541666669189
 21
56.462499999997817
 31
0.0
  0
LINE
  8
DETAIL
  6
CONTINUOUS
 62
     5
 10
98.310416666645324
 20
28.04583333333721
 30
0.0
 11
76.511181000000761
 21
28.68698732353198
 31
0.0
  0
LINE
  8
DETAIL
  6
CONTINUOUS
 62
     5
 10
98.310416666645324
 20
30.112499999999269
 30
0.0
 11
76.511181000000761
 21
30.625423192155839
 31
0.0
  0
LINE
  8
DETAIL
  6
CONTINUOUS
 62
     5
 10
73.381249999947613
 20
126.8583333333336
 30
0.0
 11
3.0
 21
135.12328746178031
 31
0.0
  0
LINE
  8
DETAIL
  6
CONTINUOUS
 62
     5
 10
73.381249999947613
 20
124.9208333333372
 30
0.0
 11
3.0
 21
133.1857874617767
 31
0.0
  0
LINE
  8
DETAIL
  6
CONTINUOUS
 62
     5
 10
73.381249999947613
 20
109.1624999999985
 30
0.0
 11
3.0
 21
116.39433486239029
 31
0.0
  0
LINE
  8
DETAIL
  6
CONTINUOUS
 62
     5
 10
73.381249999947613
 20
111.1000000000022
 30
0.0
 11
3.0
 21
118.46097477064269
 31
0.0
  0
LINE
  8
DETAIL
  6
CONTINUOUS
 62
     5
 10
73.381249999947613
 20
121.5625
 30
0.0
 11
3.0
 21
129.4400344036716
 31
0.0
  0
LINE
  8
DETAIL
  6
CONTINUOUS
 62
     5
 10
73.381249999947613
 20
119.625
 30
0.0
 11
3.0
 21
127.5025344036716
 31
0.0
  0
LINE
  8
DETAIL
  6
CONTINUOUS
 62
     5
 10
2.7694308995341999
 20
102.3356892663456
 30
0.0
 11
73.549569138496736
 21
96.101842228777912
 31
0.0
  0
LINE
  8
DETAIL
  6
CONTINUOUS
 62
     5
 10
0.0
 20
100.7356900300172
 30
0.0
 11
98.181249999994179
 21
91.983333333333576
 31
0.0
  0
LINE
  8
DETAIL
  6
CONTINUOUS
 62
     5
 10
3.0
 20
82.036483180432072
 30
0.0
 11
73.51118100000258
 21
77.120107257491156
 31
0.0
  0
LINE
  8
DETAIL
  6
CONTINUOUS
 62
     5
 10
3.0
 20
80.098713899841584
 30
0.0
 11
73.51118100000258
 21
75.182607754607091
 31
0.0
  0
LINE
  8
DETAIL
  6
CONTINUOUS
 62
     5
 10
76.38808459197935
 20
95.843929153805362
 30
0.0
 11
98.439583333354676
 21
93.920833333333576
 31
0.0
  0
LINE
  8
DETAIL
  6
CONTINUOUS
 62
     5
 10
98.181249999994179
 20
106.5791666666701
 30
0.0
 11
76.511181000000761
 21
108.8872213530574
 31
0.0
  0
LINE
  8
DETAIL
  6
CONTINUOUS
 62
     5
 10
98.439583333354676
 20
108.5166666666664
 30
0.0
 11
76.511181000000761
 21
110.82491954385981
 31
0.0
  0
LINE
  8
DETAIL
  6
CONTINUOUS
 62
     5
 10
98.439583333354676
 20
123.8875000000007
 30
0.0
 11
76.511181000000761
 21
126.4522254191025
 31
0.0
  0
LINE
  8
DETAIL
  6
CONTINUOUS
 62
     5
 10
98.181249999994179
 20
121.9500000000007
 30
0.0
 11
76.511181000000761
 21
124.5145052070998
 31
0.0
  0
LINE
  8
DETAIL
  6
CONTINUOUS
 62
     5
 10
98.181249999994179
 20
116.78333333333281
 30
0.0
 11
76.511181000000761
 21
119.21961328007789
 31
0.0
  0
LINE
  8
DETAIL
  6
CONTINUOUS
 62
     5
 10
98.439583333354676
 20
118.72083333333281
 30
0.0
 11
76.511181000000761
 21
121.1573224814841
 31
0.0
  0
LINE
  8
DETAIL
  6
CONTINUOUS
 62
     5
 10
76.511181000003489
 20
74.922036457594288
 30
0.0
 11
98.181249999994179
 21
73.383333333335031
 31
0.0
  0
LINE
  8
DETAIL
  6
CONTINUOUS
 62
     5
 10
76.511181000003489
 20
76.859602909804494
 30
0.0
 11
98.310416666645324
 21
75.320833333331393
 31
0.0
  0
LINE
  8
DETAIL
  6
CONTINUOUS
 62
     5
 10
73.51118100000258
 20
30.625828989599999
 30
0.0
 11
2.9999999999990909
 21
32.437125382263673
 31
0.0
  0
LINE
  8
DETAIL
  6
CONTINUOUS
 62
     5
 10
73.51118100000258
 20
28.6883289896038
 30
0.0
 11
3.0
 21
30.49962538226367
 31
0.0
  0
ARC
  8
DETAIL
  6
CONTINUOUS
 62
     5
 10
123.9260416666657
 20
13.88794642856919
 30
0.0
 40
1.0888743571769559
 50
189.4945043358197
 51
350.50549566417459
  0
LINE
  8
DETAIL
  6
CONTINUOUS
 62
     5
 10
122.85208333333139
 20
13.70833333333576
 30
0.0
 11
122.85208333333139
 21
23.468984064859679
 31
0.0
  0
LINE
  8
DETAIL
  6
CONTINUOUS
 62
     5
 10
122.85208333333139
 20
24.762640837670862
 30
0.0
 11
122.85208333333139
 21
41.479166666666003
 31
0.0
  0
LINE
  8
DETAIL
  6
CONTINUOUS
 62
     5
 10
122.85208333333139
 20
44.151445046319957
 30
0.0
 11
122.85208333333139
 21
58.012500000002831
 31
0.0
  0
LINE
  8
DETAIL
  6
CONTINUOUS
 62
     5
 10
122.85208333333139
 20
62.061032453156599
 30
0.0
 11
122.85208333333139
 21
72.220833333336486
 31
0.0
  0
LINE
  8
DETAIL
  6
CONTINUOUS
 62
     5
 10
122.85208333333139
 20
78.410411318824401
 30
0.0
 11
122.85208333333139
 21
83.458333333332121
 31
0.0
  0
LINE
  8
DETAIL
  6
CONTINUOUS
 62
     5
 10
76.511181000000761
 20
52.838346384316708
 30
0.0
 11
98.310416666645324
 21
51.8125
 31
0.0
  0
LINE
  8
DETAIL
  6
CONTINUOUS
 62
     5
 10
76.511181000000761
 20
54.775846384313127
 30
0.0
 11
98.310416666645324
 21
53.75
 31
0.0
  0
ARC
  8
DETAIL
  6
CONTINUOUS
 62
     5
 10
99.544333048868793
 20
20.433155574407639
 30
0.0
 40
31.4035954345729
 50
42.080834676863773
 51
92.251856967312065
  0
ARC
  8
DETAIL
  6
CONTINUOUS
 62
     5
 10
99.041947115418225
 20
19.446935096232721
 30
0.0
 40
34.310864148102432
 50
40.838579151681877
 51
91.22167670330316
  0
ARC
  8
DETAIL
  6
CONTINUOUS
 62
     5
 10
102.2354166666919
 20
93.462881960602658
 30
0.0
 40
1.5
 50
0.000000000000007
 51
168.83979013427029
  0
LINE
  8
DETAIL
  6
CONTINUOUS
 62
     5
 10
100.7354166666919
 20
91.751336000157124
 30
0.0
 11
100.7354166666919
 21
75.181899193950784
 31
0.0
  0
LINE
  8
DETAIL
  6
CONTINUOUS
 62
     5
 10
100.7354166666919
 20
73.267301578125711
 30
0.0
 11
100.7354166666919
 21
69.25
 31
0.0
  0
LINE
  8
DETAIL
  6
CONTINUOUS
 62
     5
 10
103.7354166666919
 20
93.462881960602658
 30
0.0
 11
103.7354166666919
 21
93.254605977441713
 31
0.0
  0
LINE
  8
DETAIL
  6
CONTINUOUS
 62
     5
 10
103.7354166666919
 20
91.15619760231192
 30
0.0
 11
103.7354166666919
 21
74.736563448649321
 31
0.0
  0
LINE
  8
DETAIL
  6
CONTINUOUS
 62
     5
 10
103.7354166666919
 20
72.822084320692511
 30
0.0
 11
103.7354166666919
 21
69.25
 31
0.0
  0
ARC
  8
DETAIL
  6
CONTINUOUS
 62
     5
 10
102.2354166666919
 20
69.25
 30
0.0
 40
1.5
 50
180.0
 51
0.000000000000007
  0
LINE
  8
OUTLINE
  6
CONTINUOUS
 62
     3
 10
98.439583333446535
 20
123.88749999999
 30
0.0
 11
76.511181000000761
 21
126.4522254191025
 31
0.0
  0
LINE
  8
OUTLINE
  6
CONTINUOUS
 62
     3
 10
76.511181000000761
 20
126.4522254191025
 30
0.0
 11
76.511181000000761
 21
128.79241208287749
 31
0.0
  0
ARC
  8
OUTLINE
  6
CONTINUOUS
 62
     3
 10
75.011181000000761
 20
128.79241208287749
 30
0.0
 40
1.5
 50
0.0
 51
180.0
  0
LINE
  8
OUTLINE
  6
CONTINUOUS
 62
     3
 10
73.511181000000761
 20
128.79241208287749
 30
0.0
 11
73.511181000000761
 21
126.8430753810337
 31
0.0
  0
LINE
  8
OUTLINE
  6
CONTINUOUS
 62
     3
 10
73.511181000000761
 20
126.8430753810337
 30
0.0
 11
3.0
 21
135.12328746178031
 31
0.0
  0
LINE
  8
OUTLINE
  6
CONTINUOUS
 62
     3
 10
3.0
 20
135.12328746178031
 30
0.0
 11
3.0
 21
137.5
 31
0.0
  0
ARC
  8
OUTLINE
  6
CONTINUOUS
 62
     3
 10
1.5
 20
137.5
 30
0.0
 40
1.5
 50
0.0
 51
180.0
  0
LINE
  8
OUTLINE
  6
CONTINUOUS
 62
     3
 10
0.0
 20
137.5
 30
0.0
 11
0.0
 21
100.7356900300172
 31
0.0
  0
LINE
  8
OUTLINE
  6
CONTINUOUS
 62
     3
 10
0.0
 20
100.7356900300172
 30
0.0
 11
98.181249999999636
 21
91.983333333333064
 31
0.0
  0
ARC
  8
OUTLINE
  6
CONTINUOUS
 62
     3
 10
97.043636245495492
 20
65.282810062455638
 30
0.0
 40
26.724747108122546
 50
82.059718031328543
 51
87.560307405413084
  0
LINE
  8
OUTLINE
  6
CONTINUOUS
 62
     3
 10
100.7354166666919
 20
91.751336000157096
 30
0.0
 11
100.7354166666919
 21
75.181899193950812
 31
0.0
  0
ARC
  8
OUTLINE
  6
CONTINUOUS
 62
     3
 10
97.79076774476205
 20
45.017896257880963
 30
0.0
 40
30.307392339174495
 50
84.42437895597493
 51
89.017561499773649
  0
LINE
  8
OUTLINE
  6
CONTINUOUS
 62
     3
 10
98.310416666666242
 20
75.320833333329887
 30
0.0
 11
76.511181000000761
 21
76.859602909804693
 31
0.0
  0
LINE
  8
OUTLINE
  6
CONTINUOUS
 62
     3
 10
76.511181000000761
 20
76.859602909804693
 30
0.0
 11
76.511181000000761
 21
77.72399964341551
 31
0.0
  0
ARC
  8
OUTLINE
  6
CONTINUOUS
 62
     3
 10
75.011181000000761
 20
77.723999643415496
 30
0.0
 40
1.5
 50
0.0
 51
180.0
  0
LINE
  8
OUTLINE
  6
CONTINUOUS
 62
     3
 10
73.511181000000761
 20
77.723999643415482
 30
0.0
 11
73.511181000000761
 21
77.12010725749127
 31
0.0
  0
LINE
  8
OUTLINE
  6
CONTINUOUS
 62
     3
 10
73.511181000000761
 20
77.12010725749127
 30
0.0
 11
3.0
 21
82.036483180432072
 31
0.0
  0
LINE
  8
OUTLINE
  6
CONTINUOUS
 62
     3
 10
3.0
 20
82.036483180432072
 30
0.0
 11
3.0
 21
86.441569611874854
 31
0.0
  0
ARC
  8
OUTLINE
  6
CONTINUOUS
 62
     3
 10
1.5
 20
86.441569611874854
 30
0.0
 40
1.5
 50
0.0
 51
180.0
  0
LINE
  8
OUTLINE
  6
CONTINUOUS
 62
     3
 10
0.0
 20
86.441569611874854
 30
0.0
 11
0.0
 21
-82.131286223749726
 31
0.0
  0
ARC
  8
OUTLINE
  6
CONTINUOUS
 62
     3
 10
1.5
 20
-82.131286223749726
 30
0.0
 40
1.5
 50
180.0
 51
0.0
  0
LINE
  8
OUTLINE
  6
CONTINUOUS
 62
     3
 10
3.0
 20
-82.131286223749726
 30
0.0
 11
3.0
 21
-82.036483180432072
 31
0.0
  0
LINE
  8
OUTLINE
  6
CONTINUOUS
 62
     3
 10
3.0
 20
-82.036483180432072
 30
0.0
 11
73.511181000003489
 21
-77.1201072574911
 31
0.0
  0
LINE
  8
OUTLINE
  6
CONTINUOUS
 62
     3
 10
73.511181000003489
 20
-77.1201072574911
 30
0.0
 11
73.511181000003489
 21
-77.566666666665697
 31
0.0
  0
ARC
  8
OUTLINE
  6
CONTINUOUS
 62
     3
 10
75.011181000003489
 20
-77.566666666665697
 30
0.0
 40
1.5
 50
180.0
 51
0.0
  0
LINE
  8
OUTLINE
  6
CONTINUOUS
 62
     3
 10
76.511181000003489
 20
-77.566666666665697
 30
0.0
 11
76.511181000003489
 21
-76.859602909804494
 31
0.0
  0
LINE
  8
OUTLINE
  6
CONTINUOUS
 62
     3
 10
76.511181000003489
 20
-76.859602909804494
 30
0.0
 11
98.310416666666242
 21
-75.320833333329915
 31
0.0
  0
ARC
  8
OUTLINE
  6
CONTINUOUS
 62
     3
 10
97.790767744761695
 20
-45.017896257880949
 30
0.0
 40
30.307392339174545
 50
270.98243850022709
 51
275.57562104402575
  0
LINE
  8
OUTLINE
  6
CONTINUOUS
 62
     3
 10
100.7354166666919
 20
-75.181899193950812
 30
0.0
 11
100.7354166666919
 21
-91.751336000157153
 31
0.0
  0
ARC
  8
OUTLINE
  6
CONTINUOUS
 62
     3
 10
97.043636245496401
 20
-65.282810062461294
 30
0.0
 40
26.724747108116873
 50
272.43969259458345
 51
277.94028196867112
  0
LINE
  8
OUTLINE
  6
CONTINUOUS
 62
     3
 10
98.181249999998727
 20
-91.983333333333121
 30
0.0
 11
0.0
 21
-100.7356900300172
 31
0.0
  0
LINE
  8
OUTLINE
  6
CONTINUOUS
 62
     3
 10
0.0
 20
-100.7356900300172
 30
0.0
 11
0.0
 21
-137.5
 31
0.0
  0
ARC
  8
OUTLINE
  6
CONTINUOUS
 62
     3
 10
1.5
 20
-137.5
 30
0.0
 40
1.5
 50
180.0
 51
0.0
  0
LINE
  8
OUTLINE
  6
CONTINUOUS
 62
     3
 10
3.0
 20
-137.5
 30
0.0
 11
3.0
 21
-135.12328746178031
 31
0.0
  0
LINE
  8
OUTLINE
  6
CONTINUOUS
 62
     3
 10
3.0
 20
-135.12328746178031
 30
0.0
 11
73.511181000000761
 21
-126.8430753810337
 31
0.0
  0
LINE
  8
OUTLINE
  6
CONTINUOUS
 62
     3
 10
73.511181000000761
 20
-126.8430753810337
 30
0.0
 11
73.511181000000761
 21
-128.71285076868301
 31
0.0
  0
ARC
  8
OUTLINE
  6
CONTINUOUS
 62
     3
 10
75.011181000000761
 20
-128.71285076868301
 30
0.0
 40
1.5
 50
180.0
 51
0.0
  0
LINE
  8
OUTLINE
  6
CONTINUOUS
 62
     3
 10
76.511181000000761
 20
-128.71285076868301
 30
0.0
 11
76.511181000000761
 21
-126.4522254191025
 31
0.0
  0
LINE
  8
OUTLINE
  6
CONTINUOUS
 62
     3
 10
76.511181000000761
 20
-126.4522254191025
 30
0.0
 11
98.439583333449264
 21
-123.8874999999897
 31
0.0
  0
ARC
  8
OUTLINE
  6
CONTINUOUS
 62
     3
 10
95.309635326251978
 20
-94.329539517642601
 30
0.0
 40
29.72321655547648
 50
276.04463197541554
 51
2.6940761148107981
  0
LINE
  8
OUTLINE
  6
CONTINUOUS
 62
     3
 10
125.0
 20
-92.932453999999893
 30
0.0
 11
125.0
 21
-78.5
 31
0.0
  0
ARC
  8
OUTLINE
  6
CONTINUOUS
 62
     3
 10
126.5
 20
-78.5
 30
0.0
 40
1.5
 50
180.0
 51
0.0
  0
LINE
  8
OUTLINE
  6
CONTINUOUS
 62
     3
 10
128.0
 20
-78.5
 30
0.0
 11
128.0
 21
78.5
 31
0.0
  0
ARC
  8
OUTLINE
  6
CONTINUOUS
 62
     3
 10
126.5
 20
78.5
 30
0.0
 40
1.5
 50
0.0
 51
180.0
  0
LINE
  8
OUTLINE
  6
CONTINUOUS
 62
     3
 10
125.0
 20
78.5
 30
0.0
 11
125.0
 21
92.932453999998927
 31
0.0
  0
ARC
  8
OUTLINE
  6
CONTINUOUS
 62
     3
 10
95.309635326251822
 20
94.329539517642417
 30
0.0
 40
29.723216555476679
 50
357.30592388518767
 51
83.955368024589461
  0
LINE
  8
SIZE
  6
CONTINUOUS
 62
    30
 10
128.0
 20
98.5
 30
0.0
 11
128.0
 21
212.3113762172965
 31
0.0
  0
LINE
  8
SIZE
  6
CONTINUOUS
 62
    30
 10
0.0000000000000012
 20
157.5
 30
0.0
 11
0.0000000000000046
 21
212.3113762172965
 31
0.0
  0
LINE
  8
SIZE
  6
CONTINUOUS
 62
    30
 10
140.0
 20
192.3113762172965
 30
0.0
 11
152.0
 21
192.3113762172965
 31
0.0
  0
LINE
  8
SIZE
  6
CONTINUOUS
 62
    30
 10
-12.0
 20
192.3113762172965
 30
0.0
 11
-24.0
 21
192.3113762172965
 31
0.0
  0
LINE
  8
SIZE
  6
CONTINUOUS
 62
    30
 10
128.0
 20
192.3113762172965
 30
0.0
 11
0.0000000000000034
 21
192.3113762172965
 31
0.0
  0
CIRCLE
  8
SIZE
  6
CONTINUOUS
 62
    30
 10
128.0
 20
192.3113762172965
 30
0.0
 40
6.0
  0
LINE
  8
SIZE
  6
CONTINUOUS
 62
    30
 10
128.0
 20
192.3113762172965
 30
0.0
 11
140.0
 21
192.3113762172965
 31
0.0
  0
CIRCLE
  8
SIZE
  6
CONTINUOUS
 62
    30
 10
0.0000000000000034
 20
192.3113762172965
 30
0.0
 40
6.0
  0
LINE
  8
SIZE
  6
CONTINUOUS
 62
    30
 10
0.0000000000000034
 20
192.3113762172965
 30
0.0
 11
-11.999999999999996
 21
192.3113762172965
 31
0.0
  0
TEXT
  8
SIZE
  6
CONTINUOUS
 62
    30
 10
-10.592000000000013
 20
217.31137621729647
 30
0.0
 40
64.0
  1
128
 50
0.0
 41
0.9
 51
0.0
  7
STANDARD
 71
     0
 72
     1
 11
64.0
 21
217.31137621729647
 31
0.0
210
0.0
220
0.0
230
1.0
  0
POINT
  8
DEFPOINTS
  6
CONTINUOUS
 62
    30
 10
128.0
 20
78.5
 30
0.0
  0
POINT
  8
DEFPOINTS
  6
CONTINUOUS
 62
    30
 10
0.0
 20
137.5
 30
0.0
  0
POINT
  8
DEFPOINTS
  6
CONTINUOUS
 62
    30
 10
0.0000000000000034
 20
192.3113762172965
 30
0.0
  0
LINE
  8
SIZE
  6
CONTINUOUS
 62
    30
 10
-18.5
 20
139.00000000000011
 30
0.0
 11
-108.0339559210594
 21
139.0
 31
0.0
  0
LINE
  8
SIZE
  6
CONTINUOUS
 62
    30
 10
-18.5
 20
-139.00000000000011
 30
0.0
 11
-108.0339559210593
 21
-139.00000000000011
 31
0.0
  0
LINE
  8
SIZE
  6
CONTINUOUS
 62
    30
 10
-88.033955921059345
 20
127.0
 30
0.0
 11
-88.033955921059288
 21
-127.0000000000001
 31
0.0
  0
CIRCLE
  8
SIZE
  6
CONTINUOUS
 62
    30
 10
-88.033955921059345
 20
139.0
 30
0.0
 40
6.0
  0
LINE
  8
SIZE
  6
CONTINUOUS
 62
    30
 10
-88.033955921059345
 20
139.0
 30
0.0
 11
-88.033955921059345
 21
127.0
 31
0.0
  0
CIRCLE
  8
SIZE
  6
CONTINUOUS
 62
    30
 10
-88.033955921059288
 20
-139.00000000000011
 30
0.0
 40
6.0
  0
LINE
  8
SIZE
  6
CONTINUOUS
 62
    30
 10
-88.033955921059288
 20
-139.00000000000011
 30
0.0
 11
-88.033955921059288
 21
-127.00000000000011
 31
0.0
  0
TEXT
  8
SIZE
  6
CONTINUOUS
 62
    30
 10
-113.0339559210593
 20
-114.91199999999999
 30
0.0
 40
64.0
  1
φ278
 50
90.0
 41
0.9
 51
0.0
  7
STANDARD
 71
     0
 72
     1
 11
-113.03395592105929
 21
0.0000000000000104
 31
0.0
210
0.0
220
0.0
230
1.0
  0
POINT
  8
DEFPOINTS
  6
CONTINUOUS
 62
    30
 10
1.5000000000000011
 20
139.00000000000011
 30
0.0
  0
POINT
  8
DEFPOINTS
  6
CONTINUOUS
 62
    30
 10
1.5000000000000011
 20
-139.00000000000011
 30
0.0
  0
POINT
  8
DEFPOINTS
  6
CONTINUOUS
 62
    30
 10
-88.033955921059288
 20
-139.00000000000011
 30
0.0
  0
TEXT
  8
ETC
  6
CONTINUOUS
 62
    61
 10
204.8043176043893
 20
333.63289646991723
 30
0.0
 40
64.0
  1
G-20XD3_5
 41
0.9
  0
TEXT
  8
ETC
  6
CONTINUOUS
 62
    61
 10
200.61832360438979
 20
215.67758645508599
 30
0.0
 40
64.0
  1
システム部材
 41
0.9
  0
TEXT
  8
ETC
  6
CONTINUOUS
 62
    61
 10
251.31972185294489
 20
107.52881356886081
 30
0.0
 40
40.0
  1
G-20XD3
 50
0.0
 41
0.9
 51
0.0
  7
STANDARD
 71
     0
 11
0.0
 21
0.0
 31
0.0
210
0.0
220
0.0
230
1.0
  0
ENDSEC
  0
EOF
