  0
SECTION
  2
HEADER
  9
$ACADVER
  1
AC1009
  9
$DWGCODEPAGE
  3
dos932
  9
$INSBASE
 10
0.0
 20
0.0
 30
0.0
  9
$EXTMIN
 10
-315.91660499231148
 20
-202.03228526246369
 30
0.0
  9
$EXTMAX
 10
918.75295134612895
 20
568.43495140186781
 30
50.0
  9
$LIMMIN
 10
-2970.0
 20
-2100.0
  9
$LIMMAX
 10
2970.0
 20
2100.0
  9
$ORTHOMODE
 70
     1
  9
$REGENMODE
 70
     1
  9
$FILLMODE
 70
     1
  9
$QTEXTMODE
 70
     0
  9
$MIRRTEXT
 70
     0
  9
$LTSCALE
 40
20.0
  9
$ATTMODE
 70
     1
  9
$TEXTSIZE
 40
64.0
  9
$TRACEWID
 40
0.05
  9
$TEXTSTYLE
  7
STANDARD
  9
$CLAYER
  8
SIZE
  9
$CELTYPE
  6
CONTINUOUS
  9
$CECOLOR
 62
     7
  9
$DIMSCALE
 40
1.0
  9
$DIMASZ
 40
12.0
  9
$DIMEXO
 40
20.0
  9
$DIMDLI
 40
200.0
  9
$DIMRND
 40
0.0
  9
$DIMDLE
 40
0.0
  9
$DIMEXE
 40
20.0
  9
$DIMTP
 40
0.0
  9
$DIMTM
 40
0.0
  9
$DIMTXT
 40
64.0
  9
$DIMCEN
 40
0.09
  9
$DIMTSZ
 40
0.0
  9
$DIMTOL
 70
     0
  9
$DIMLIM
 70
     0
  9
$DIMTIH
 70
     0
  9
$DIMTOH
 70
     0
  9
$DIMSE1
 70
     0
  9
$DIMSE2
 70
     0
  9
$DIMTAD
 70
     1
  9
$DIMZIN
 70
     8
  9
$DIMBLK
  1

  9
$DIMASO
 70
     1
  9
$DIMSHO
 70
     0
  9
$DIMPOST
  1

  9
$DIMAPOST
  1

  9
$DIMALT
 70
     0
  9
$DIMALTD
 70
     2
  9
$DIMALTF
 40
25.399999999999999
  9
$DIMLFAC
 40
1.0
  9
$DIMTOFL
 70
     1
  9
$DIMTVP
 40
0.0
  9
$DIMTIX
 70
     1
  9
$DIMSOXD
 70
     0
  9
$DIMSAH
 70
     0
  9
$DIMBLK1
  1

  9
$DIMBLK2
  1

  9
$DIMSTYLE
  2
STANDARD
  9
$DIMCLRD
 70
     7
  9
$DIMCLRE
 70
     7
  9
$DIMCLRT
 70
     7
  9
$DIMTFAC
 40
1.0
  9
$DIMGAP
 40
25.0
  9
$LUNITS
 70
     2
  9
$LUPREC
 70
     4
  9
$SKETCHINC
 40
0.1
  9
$FILLETRAD
 40
3.0
  9
$AUNITS
 70
     1
  9
$AUPREC
 70
     3
  9
$MENU
  1
ACAD
  9
$ELEVATION
 40
0.0
  9
$PELEVATION
 40
0.0
  9
$THICKNESS
 40
50.0
  9
$LIMCHECK
 70
     0
  9
$CHAMFERA
 40
0.0
  9
$CHAMFERB
 40
0.0
  9
$SKPOLY
 70
     0
  9
$TDCREATE
 40
2453019.62301037
  9
$TDUPDATE
 40
2456015.817140741
  9
$TDINDWG
 40
1.645361412
  9
$TDUSRTIMER
 40
1.645361412
  9
$USRTIMER
 70
     1
  9
$ANGBASE
 50
0.0
  9
$ANGDIR
 70
     0
  9
$PDMODE
 70
     3
  9
$PDSIZE
 40
-2.0
  9
$PLINEWID
 40
0.0
  9
$SPLFRAME
 70
     0
  9
$SPLINETYPE
 70
     6
  9
$SPLINESEGS
 70
     8
  9
$SURFTAB1
 70
     6
  9
$SURFTAB2
 70
     6
  9
$SURFTYPE
 70
     6
  9
$SURFU
 70
     6
  9
$SURFV
 70
     6
  9
$UCSNAME
  2

  9
$UCSORG
 10
0.0
 20
0.0
 30
0.0
  9
$UCSXDIR
 10
1.0
 20
0.0
 30
0.0
  9
$UCSYDIR
 10
0.0
 20
1.0
 30
0.0
  9
$PUCSNAME
  2

  9
$PUCSORG
 10
0.0
 20
0.0
 30
0.0
  9
$PUCSXDIR
 10
1.0
 20
0.0
 30
0.0
  9
$PUCSYDIR
 10
0.0
 20
1.0
 30
0.0
  9
$USERI1
 70
     0
  9
$USERI2
 70
     0
  9
$USERI3
 70
     0
  9
$USERI4
 70
     0
  9
$USERI5
 70
     0
  9
$USERR1
 40
20.0
  9
$USERR2
 40
0.0
  9
$USERR3
 40
0.0
  9
$USERR4
 40
0.0
  9
$USERR5
 40
0.0
  9
$WORLDVIEW
 70
     1
  9
$SHADEDGE
 70
     3
  9
$SHADEDIF
 70
    70
  9
$TILEMODE
 70
     1
  9
$MAXACTVP
 70
    48
  9
$PINSBASE
 10
0.0
 20
0.0
 30
0.0
  9
$PLIMCHECK
 70
     0
  9
$PEXTMIN
 10
-100000000000000000000.0
 20
-100000000000000000000.0
 30
-100000000000000000000.0
  9
$PEXTMAX
 10
100000000000000000000.0
 20
100000000000000000000.0
 30
100000000000000000000.0
  9
$PLIMMIN
 10
0.0
 20
0.0
  9
$PLIMMAX
 10
12.0
 20
9.0
  9
$UNITMODE
 70
     0
  9
$VISRETAIN
 70
     0
  9
$PLINEGEN
 70
     0
  9
$PSLTSCALE
 70
     0
  9
$TREEDEPTH
 70
  3020
  9
$ATTDIA
 70
     0
  9
$ATTREQ
 70
     1
  9
$BLIPMODE
 70
     1
  9
$COORDS
 70
     1
  9
$DRAGMODE
 70
     2
  9
$OSMODE
 70
     0
  9
$HANDLING
 70
     0
  9
$HANDSEED
  5
10C94
  0
ENDSEC
  0
SECTION
  2
TABLES
  0
TABLE
  2
LTYPE
 70
     2
  0
LTYPE
  2
CONTINUOUS
 70
     0
  3
実線
 72
    65
 73
     0
 40
0.0
  0
LTYPE
  2
DASHDOT
 70
     0
  3
____ _ ____ _ ____ _ ____ _ ____ _ ____ _ ____
 72
    65
 73
     4
 40
5.5
 49
4.0
 49
-0.6
 49
0.3
 49
-0.6
  0
ENDTAB
  0
TABLE
  2
LAYER
 70
    12
  0
LAYER
  2
0
 70
     0
 62
     7
  6
CONTINUOUS
  0
LAYER
  2
BASIS
 70
     4
 62
     6
  6
DASHDOT
  0
LAYER
  2
OUTLINE
 70
     0
 62
     3
  6
CONTINUOUS
  0
LAYER
  2
DETAIL
 70
     0
 62
     5
  6
CONTINUOUS
  0
LAYER
  2
SIZE
 70
     0
 62
    30
  6
CONTINUOUS
  0
LAYER
  2
ARRANGE
 70
     4
 62
     1
  6
CONTINUOUS
  0
LAYER
  2
DEFPOINTS
 70
     0
 62
     7
  6
CONTINUOUS
  0
LAYER
  2
ETC
 70
     0
 62
    61
  6
CONTINUOUS
  0
LAYER
  2
FIX
 70
    64
 62
    11
  6
CONTINUOUS
  0
LAYER
  2
NOTE
 70
    64
 62
     4
  6
CONTINUOUS
  0
LAYER
  2
SERVICESPACE
 70
    64
 62
     2
  6
DASHDOT
  0
LAYER
  2
SYMBOLLINE
 70
    64
 62
    15
  6
CONTINUOUS
  0
ENDTAB
  0
TABLE
  2
STYLE
 70
     1
  0
STYLE
  2
STANDARD
 70
     0
 40
64.0
 41
0.9
 50
0.0
 71
     0
 42
64.0
  3
SIMPLEX.shx
  4
BIGFONT.shx
  0
ENDTAB
  0
TABLE
  2
APPID
 70
    15
  0
APPID
  2
ACAD
 70
     0
  0
APPID
  2
AUTOCAD_POSTSCRIPT_FIGURE
 70
     0
  0
APPID
  2
ACAD_EXEMPT_FROM_CAD_STANDARDS
 70
     0
  0
APPID
  2
ACAD_PSEXT
 70
     0
  0
APPID
  2
ACAUTHENVIRON
 70
     0
  0
APPID
  2
GENIUS_GENOENT_13
 70
     0
  0
APPID
  2
GENIUS_GENCFG_13
 70
     0
  0
APPID
  2
GENIUS_GENCFG0_13
 70
     0
  0
APPID
  2
GENIUS_GENCFG1_13
 70
     0
  0
APPID
  2
GENIUS_GENCFG2_13
 70
     0
  0
APPID
  2
GENIUS_GENCFG3_13
 70
     0
  0
APPID
  2
GENIUS_GENCFG4_13
 70
     0
  0
APPID
  2
GENIUS_GEVCFG0_13
 70
     0
  0
APPID
  2
CONTENTBLOCKICON
 70
     0
  0
APPID
  2
CONTENTBLOCKDESCRIPTION
 70
     0
  0
ENDTAB
  0
TABLE
  2
DIMSTYLE
 70
     1
  0
DIMSTYLE
  2
STANDARD
 70
     0
  3

  4

  5

  6

  7

 40
1.0
 41
0.18
 42
0.0625
 43
0.38
 44
0.18
 45
0.0
 46
0.0
 47
0.0
 48
0.0
140
0.18
141
0.09
142
0.0
143
25.399999999999999
144
1.0
145
0.0
146
1.0
147
0.09
 71
     0
 72
     0
 73
     1
 74
     1
 75
     0
 76
     0
 77
     0
 78
     0
170
     0
171
     2
172
     0
173
     0
174
     0
175
     0
176
     7
177
     7
178
     7
  0
ENDTAB
  0
TABLE
  2
VIEW
 70
     1
  0
VIEW
  2
ALL
 70
     0
 40
4282.6198079999986
 10
0.0
 20
41.309904000000003
 41
5940.0
 11
0.0
 21
0.0
 31
1.0
 12
0.0
 22
0.0
 32
0.0
 42
50.0
 43
0.0
 44
0.0
 50
0.0
 71
     0
  0
ENDTAB
  0
TABLE
  2
UCS
 70
     0
  0
ENDTAB
  0
TABLE
  2
VPORT
 70
     1
  0
VPORT
  2
*ACTIVE
 70
     0
 10
0.0
 20
0.0
 11
1.0
 21
1.0
 12
333.9618081238068
 22
194.56057883725271
 13
0.0
 23
0.0
 14
1.0
 24
1.0
 15
0.0
 25
0.0
 16
0.0
 26
0.0
 36
1.0
 17
0.0
 27
0.0
 37
0.0
 40
1256.4942581536361
 41
1.215836526181354
 42
50.0
 43
0.0
 44
0.0
 50
0.0
 51
0.0
 71
     0
 72
  1000
 73
     1
 74
     0
 75
     0
 76
     0
 77
     0
 78
     0
  0
ENDTAB
  0
ENDSEC
  0
SECTION
  2
BLOCKS
  0
BLOCK
  8
0
  2
_ORIGIN
 70
     0
 10
0.0
 20
0.0
 30
0.0
  3
_ORIGIN
  1

  0
CIRCLE
  8
0
  6
CONTINUOUS
 62
     7
 10
0.0
 20
0.0
 30
0.0
 40
0.5
  0
LINE
  8
0
  6
CONTINUOUS
 62
     7
 10
0.0
 20
0.0
 30
0.0
 11
-1.0
 21
0.0
 31
0.0
  0
ENDBLK
  8
0
  0
ENDSEC
  0
SECTION
  2
ENTITIES
  0
TEXT
  8
ETC
  6
CONTINUOUS
 62
    61
 10
329.03866563184329
 20
504.43495140186752
 30
0.0
 40
64.0
  1
G-25EC3-M_3
 41
0.9
  0
TEXT
  8
ETC
  6
CONTINUOUS
 62
    61
 10
324.8526716318429
 20
386.47964138703628
 30
0.0
 40
64.0
  1
システム部材
 41
0.9
  0
CIRCLE
  8
ARRANGE
  6
CONTINUOUS
 62
     1
 10
0.0
 20
0.0
 30
0.0
 40
40.0
  0
POINT
  8
ARRANGE
  6
CONTINUOUS
 62
     1
 10
0.0
 20
0.0
 30
0.0
 39
50.0
  0
LINE
  8
BASIS
  6
DASHDOT
 62
     6
 39
58.5
 10
0.0
 20
-202.03228526246369
 30
0.0
 11
0.0
 21
197.82410277618581
 31
0.0
  0
TEXT
  8
ETC
  6
CONTINUOUS
 62
    61
 10
375.55406988039891
 20
278.33086850081099
 30
0.0
 40
40.0
  1
G-25EC3-M
 50
0.0
 41
0.9
 51
0.0
  7
STANDARD
 71
     0
 11
0.0
 21
0.0
 31
0.0
210
0.0
220
0.0
230
1.0
  0
LINE
  8
BASIS
  6
DASHDOT
 62
     6
 39
63.0
 10
-195.93000000000001
 20
0.0
 30
0.0
 11
195.93000000000001
 21
0.0
 31
0.0
  0
LINE
  8
SIZE
  6
CONTINUOUS
 62
    30
 10
-184.99999999999989
 20
196.25
 30
0.0
 11
-184.99999999999989
 21
244.15752443591461
 31
0.0
  0
LINE
  8
SIZE
  6
CONTINUOUS
 62
    30
 10
185.0
 20
196.25
 30
0.0
 11
185.0
 21
244.15752443591461
 31
0.0
  0
LINE
  8
SIZE
  6
CONTINUOUS
 62
    30
 10
-172.99999999999989
 20
224.15752443591461
 30
0.0
 11
173.0
 21
224.15752443591461
 31
0.0
  0
CIRCLE
  8
SIZE
  6
CONTINUOUS
 62
    30
 10
-184.99999999999989
 20
224.15752443591461
 30
0.0
 40
6.0
  0
LINE
  8
SIZE
  6
CONTINUOUS
 62
    30
 10
-184.99999999999989
 20
224.15752443591461
 30
0.0
 11
-172.99999999999989
 21
224.15752443591461
 31
0.0
  0
CIRCLE
  8
SIZE
  6
CONTINUOUS
 62
    30
 10
185.0
 20
224.15752443591461
 30
0.0
 40
6.0
  0
LINE
  8
SIZE
  6
CONTINUOUS
 62
    30
 10
185.0
 20
224.15752443591461
 30
0.0
 11
173.0
 21
224.15752443591461
 31
0.0
  0
TEXT
  8
SIZE
  6
CONTINUOUS
 62
    30
 10
-80.927999999999656
 20
249.15752443591458
 30
0.0
 40
64.0
  1
370
 50
0.0
 41
0.9
 51
0.0
  7
STANDARD
 71
     0
 72
     1
 11
0.0000000000003411
 21
249.15752443591458
 31
0.0
210
0.0
220
0.0
230
1.0
  0
POINT
  8
DEFPOINTS
  6
CONTINUOUS
 62
    30
 10
-184.99999999999989
 20
176.25
 30
0.0
  0
POINT
  8
DEFPOINTS
  6
CONTINUOUS
 62
    30
 10
185.0
 20
176.25
 30
0.0
  0
POINT
  8
DEFPOINTS
  6
CONTINUOUS
 62
    30
 10
185.0
 20
224.15752443591461
 30
0.0
  0
LINE
  8
SIZE
  6
CONTINUOUS
 62
    30
 10
-198.99999999999969
 20
185.0
 30
0.0
 11
-246.91660499231139
 21
185.0
 31
0.0
  0
LINE
  8
SIZE
  6
CONTINUOUS
 62
    30
 10
-198.99999999999969
 20
-185.0
 30
0.0
 11
-246.91660499231151
 21
-185.0
 31
0.0
  0
LINE
  8
SIZE
  6
CONTINUOUS
 62
    30
 10
-226.91660499231139
 20
173.0
 30
0.0
 11
-226.91660499231151
 21
-173.0
 31
0.0
  0
CIRCLE
  8
SIZE
  6
CONTINUOUS
 62
    30
 10
-226.91660499231139
 20
185.0
 30
0.0
 40
6.0
  0
LINE
  8
SIZE
  6
CONTINUOUS
 62
    30
 10
-226.91660499231139
 20
185.0
 30
0.0
 11
-226.91660499231139
 21
173.0
 31
0.0
  0
CIRCLE
  8
SIZE
  6
CONTINUOUS
 62
    30
 10
-226.91660499231151
 20
-185.0
 30
0.0
 40
6.0
  0
LINE
  8
SIZE
  6
CONTINUOUS
 62
    30
 10
-226.91660499231151
 20
-185.0
 30
0.0
 11
-226.91660499231151
 21
-173.0
 31
0.0
  0
TEXT
  8
SIZE
  6
CONTINUOUS
 62
    30
 10
-251.91660499231148
 20
-80.927999999999997
 30
0.0
 40
64.0
  1
370
 50
90.0
 41
0.9
 51
0.0
  7
STANDARD
 71
     0
 72
     1
 11
-251.91660499231148
 21
-0.0000000000000037
 31
0.0
210
0.0
220
0.0
230
1.0
  0
POINT
  8
DEFPOINTS
  6
CONTINUOUS
 62
    30
 10
-178.99999999999969
 20
185.0
 30
0.0
  0
POINT
  8
DEFPOINTS
  6
CONTINUOUS
 62
    30
 10
-178.99999999999969
 20
-185.0
 30
0.0
  0
POINT
  8
DEFPOINTS
  6
CONTINUOUS
 62
    30
 10
-226.91660499231151
 20
-185.0
 30
0.0
  0
LINE
  8
SIZE
  6
CONTINUOUS
 62
    30
 10
188.6947884672006
 20
198.45452509050469
 30
0.0
 11
229.59395733486781
 21
248.24481762505599
 31
0.0
  0
LINE
  8
SIZE
  6
CONTINUOUS
 62
    30
 10
195.6947884672006
 20
192.70452509050469
 30
0.0
 11
236.59395733486781
 21
242.49481762505599
 31
0.0
  0
LINE
  8
SIZE
  6
CONTINUOUS
 62
    30
 10
207.62645381336469
 20
240.40716561487139
 30
0.0
 11
198.35373875906191
 21
248.02403869519159
 31
0.0
  0
LINE
  8
SIZE
  6
CONTINUOUS
 62
    30
 10
233.17188392197031
 20
219.42341945423109
 30
0.0
 11
242.44459897627311
 21
211.80654637391089
 31
0.0
  0
LINE
  8
SIZE
  6
CONTINUOUS
 62
    30
 10
216.8991688676675
 20
232.7902925345513
 30
0.0
 11
223.8991688676675
 21
227.0402925345513
 31
0.0
  0
CIRCLE
  8
SIZE
  6
CONTINUOUS
 62
    30
 10
216.8991688676675
 20
232.7902925345513
 30
0.0
 40
6.0
  0
LINE
  8
SIZE
  6
CONTINUOUS
 62
    30
 10
216.8991688676675
 20
232.7902925345513
 30
0.0
 11
207.62645381336469
 21
240.40716561487147
 31
0.0
  0
CIRCLE
  8
SIZE
  6
CONTINUOUS
 62
    30
 10
223.8991688676675
 20
227.0402925345513
 30
0.0
 40
6.0
  0
LINE
  8
SIZE
  6
CONTINUOUS
 62
    30
 10
223.8991688676675
 20
227.0402925345513
 30
0.0
 11
233.17188392197031
 21
219.42341945423112
 31
0.0
  0
TEXT
  8
SIZE
  6
CONTINUOUS
 62
    30
 10
135.23215121998447
 20
332.22689798085082
 30
0.0
 40
64.0
  1
（9.1）
 50
320.59933933652053
 41
0.9
 51
0.0
  7
STANDARD
 71
     0
 72
     1
 11
236.2676544516678
 21
249.23344889768214
 31
0.0
210
0.0
220
0.0
230
1.0
  0
POINT
  8
DEFPOINTS
  6
CONTINUOUS
 62
    30
 10
176.00000000000031
 20
183.0
 30
0.0
  0
POINT
  8
DEFPOINTS
  6
CONTINUOUS
 62
    30
 10
183.00000000000031
 20
177.25
 30
0.0
  0
POINT
  8
DEFPOINTS
  6
CONTINUOUS
 62
    30
 10
223.8991688676675
 20
227.0402925345513
 30
0.0
  0
LINE
  8
SIZE
  6
CONTINUOUS
 62
    30
 10
203.00000000000031
 20
175.25
 30
0.0
 11
360.45179095296498
 21
175.24999999999989
 31
0.0
  0
LINE
  8
SIZE
  6
CONTINUOUS
 62
    30
 10
203.00000000000031
 20
169.75
 30
0.0
 11
360.45179095296498
 21
169.74999999999989
 31
0.0
  0
LINE
  8
SIZE
  6
CONTINUOUS
 62
    30
 10
340.45179095296498
 20
187.24999999999989
 30
0.0
 11
340.45179095296498
 21
199.24999999999989
 31
0.0
  0
LINE
  8
SIZE
  6
CONTINUOUS
 62
    30
 10
340.45179095296498
 20
157.74999999999989
 30
0.0
 11
340.45179095296498
 21
-24.38714285714288
 31
0.0
  0
LINE
  8
SIZE
  6
CONTINUOUS
 62
    30
 10
340.45179095296498
 20
175.24999999999989
 30
0.0
 11
340.45179095296498
 21
169.74999999999989
 31
0.0
  0
CIRCLE
  8
SIZE
  6
CONTINUOUS
 62
    30
 10
340.45179095296498
 20
175.24999999999989
 30
0.0
 40
6.0
  0
LINE
  8
SIZE
  6
CONTINUOUS
 62
    30
 10
340.45179095296498
 20
175.24999999999989
 30
0.0
 11
340.45179095296498
 21
187.24999999999989
 31
0.0
  0
CIRCLE
  8
SIZE
  6
CONTINUOUS
 62
    30
 10
340.45179095296498
 20
169.74999999999989
 30
0.0
 40
6.0
  0
LINE
  8
SIZE
  6
CONTINUOUS
 62
    30
 10
340.45179095296498
 20
169.74999999999989
 30
0.0
 11
340.45179095296498
 21
157.74999999999989
 31
0.0
  0
TEXT
  8
SIZE
  6
CONTINUOUS
 62
    30
 10
315.45179095296498
 20
-35.222571428571399
 30
0.0
 40
64.0
  1
（6）
 50
90.0
 41
0.9
 51
0.0
  7
STANDARD
 71
     0
 72
     1
 11
315.45179095296498
 21
60.681428571428597
 31
0.0
210
0.0
220
0.0
230
1.0
  0
POINT
  8
DEFPOINTS
  6
CONTINUOUS
 62
    30
 10
183.00000000000031
 20
175.25
 30
0.0
  0
POINT
  8
DEFPOINTS
  6
CONTINUOUS
 62
    30
 10
183.00000000000031
 20
169.75
 30
0.0
  0
POINT
  8
DEFPOINTS
  6
CONTINUOUS
 62
    30
 10
340.45179095296498
 20
169.74999999999989
 30
0.0
  0
LINE
  8
SIZE
  6
CONTINUOUS
 62
    30
 39
50.0
 10
-59.0
 20
-183.0
 30
0.0
 11
-59.0
 21
-183.0
 31
0.0
  0
LINE
  8
OUTLINE
  6
CONTINUOUS
 62
     3
 10
-182.99999999999989
 20
-181.0
 30
0.0
 11
-182.99999999999989
 21
181.0
 31
0.0
  0
LINE
  8
OUTLINE
  6
CONTINUOUS
 62
     3
 10
-180.99999999999989
 20
-181.0
 30
0.0
 11
-180.99999999999989
 21
181.0
 31
0.0
  0
LINE
  8
OUTLINE
  6
CONTINUOUS
 62
     3
 10
-175.99999999999989
 20
182.0
 30
0.0
 11
-175.99999999999989
 21
-182.0
 31
0.0
  0
LINE
  8
OUTLINE
  6
CONTINUOUS
 62
     3
 10
-173.99999999999989
 20
182.0
 30
0.0
 11
-173.99999999999989
 21
-182.0
 31
0.0
  0
LINE
  8
OUTLINE
  6
CONTINUOUS
 62
     3
 10
179.0
 20
-185.0
 30
0.0
 11
-178.99999999999989
 21
-185.0
 31
0.0
  0
LINE
  8
OUTLINE
  6
CONTINUOUS
 62
     3
 10
179.0
 20
-183.0
 30
0.0
 11
-178.99999999999989
 21
-183.0
 31
0.0
  0
LINE
  8
OUTLINE
  6
CONTINUOUS
 62
     3
 10
-183.99999999999989
 20
-177.25
 30
0.0
 11
-182.99999999999989
 21
-177.25
 31
0.0
  0
LINE
  8
OUTLINE
  6
CONTINUOUS
 62
     3
 10
-180.99999999999989
 20
-177.25
 30
0.0
 11
-175.99999999999989
 21
-177.25
 31
0.0
  0
LINE
  8
OUTLINE
  6
CONTINUOUS
 62
     3
 10
-173.99999999999989
 20
-177.25
 30
0.0
 11
-61.0
 21
-177.25
 31
0.0
  0
LINE
  8
OUTLINE
  6
CONTINUOUS
 62
     3
 10
-59.0
 20
-177.25
 30
0.0
 11
59.0
 21
-177.25
 31
0.0
  0
LINE
  8
OUTLINE
  6
CONTINUOUS
 62
     3
 10
61.0
 20
-177.25
 30
0.0
 11
174.0
 21
-177.25
 31
0.0
  0
LINE
  8
OUTLINE
  6
CONTINUOUS
 62
     3
 10
176.0
 20
-177.25
 30
0.0
 11
181.0
 21
-177.25
 31
0.0
  0
LINE
  8
OUTLINE
  6
CONTINUOUS
 62
     3
 10
183.0
 20
-177.25
 30
0.0
 11
184.0
 21
-177.25
 31
0.0
  0
LINE
  8
OUTLINE
  6
CONTINUOUS
 62
     3
 10
-183.99999999999989
 20
-175.25
 30
0.0
 11
-182.99999999999989
 21
-175.25
 31
0.0
  0
LINE
  8
OUTLINE
  6
CONTINUOUS
 62
     3
 10
-180.99999999999989
 20
-175.25
 30
0.0
 11
-175.99999999999989
 21
-175.25
 31
0.0
  0
LINE
  8
OUTLINE
  6
CONTINUOUS
 62
     3
 10
-173.99999999999989
 20
-175.25
 30
0.0
 11
-61.0
 21
-175.25
 31
0.0
  0
LINE
  8
OUTLINE
  6
CONTINUOUS
 62
     3
 10
-59.0
 20
-175.25
 30
0.0
 11
59.0
 21
-175.25
 31
0.0
  0
LINE
  8
OUTLINE
  6
CONTINUOUS
 62
     3
 10
61.0
 20
-175.25
 30
0.0
 11
174.0
 21
-175.25
 31
0.0
  0
LINE
  8
OUTLINE
  6
CONTINUOUS
 62
     3
 10
176.0
 20
-175.25
 30
0.0
 11
181.0
 21
-175.25
 31
0.0
  0
LINE
  8
OUTLINE
  6
CONTINUOUS
 62
     3
 10
183.0
 20
-175.25
 30
0.0
 11
184.0
 21
-175.25
 31
0.0
  0
LINE
  8
OUTLINE
  6
CONTINUOUS
 62
     3
 10
-183.99999999999989
 20
-169.75
 30
0.0
 11
-182.99999999999989
 21
-169.75
 31
0.0
  0
LINE
  8
OUTLINE
  6
CONTINUOUS
 62
     3
 10
-180.99999999999989
 20
-169.75
 30
0.0
 11
-175.99999999999989
 21
-169.75
 31
0.0
  0
LINE
  8
OUTLINE
  6
CONTINUOUS
 62
     3
 10
-173.99999999999989
 20
-169.75
 30
0.0
 11
-61.0
 21
-169.75
 31
0.0
  0
LINE
  8
OUTLINE
  6
CONTINUOUS
 62
     3
 10
-59.0
 20
-169.75
 30
0.0
 11
59.0
 21
-169.75
 31
0.0
  0
LINE
  8
OUTLINE
  6
CONTINUOUS
 62
     3
 10
61.0
 20
-169.75
 30
0.0
 11
174.0
 21
-169.75
 31
0.0
  0
LINE
  8
OUTLINE
  6
CONTINUOUS
 62
     3
 10
176.0
 20
-169.75
 30
0.0
 11
181.0
 21
-169.75
 31
0.0
  0
LINE
  8
OUTLINE
  6
CONTINUOUS
 62
     3
 10
183.0
 20
-169.75
 30
0.0
 11
184.0
 21
-169.75
 31
0.0
  0
LINE
  8
OUTLINE
  6
CONTINUOUS
 62
     3
 10
-183.99999999999989
 20
-167.75
 30
0.0
 11
-182.99999999999989
 21
-167.75
 31
0.0
  0
LINE
  8
OUTLINE
  6
CONTINUOUS
 62
     3
 10
-180.99999999999989
 20
-167.75
 30
0.0
 11
-175.99999999999989
 21
-167.75
 31
0.0
  0
LINE
  8
OUTLINE
  6
CONTINUOUS
 62
     3
 10
-173.99999999999989
 20
-167.75
 30
0.0
 11
-61.0
 21
-167.75
 31
0.0
  0
LINE
  8
OUTLINE
  6
CONTINUOUS
 62
     3
 10
-59.0
 20
-167.75
 30
0.0
 11
59.0
 21
-167.75
 31
0.0
  0
LINE
  8
OUTLINE
  6
CONTINUOUS
 62
     3
 10
61.0
 20
-167.75
 30
0.0
 11
174.0
 21
-167.75
 31
0.0
  0
LINE
  8
OUTLINE
  6
CONTINUOUS
 62
     3
 10
176.0
 20
-167.75
 30
0.0
 11
181.0
 21
-167.75
 31
0.0
  0
LINE
  8
OUTLINE
  6
CONTINUOUS
 62
     3
 10
183.0
 20
-167.75
 30
0.0
 11
184.0
 21
-167.75
 31
0.0
  0
LINE
  8
OUTLINE
  6
CONTINUOUS
 62
     3
 10
-183.99999999999989
 20
-162.25
 30
0.0
 11
-182.99999999999989
 21
-162.25
 31
0.0
  0
LINE
  8
OUTLINE
  6
CONTINUOUS
 62
     3
 10
-180.99999999999989
 20
-162.25
 30
0.0
 11
-175.99999999999989
 21
-162.25
 31
0.0
  0
LINE
  8
OUTLINE
  6
CONTINUOUS
 62
     3
 10
-173.99999999999989
 20
-162.25
 30
0.0
 11
-61.0
 21
-162.25
 31
0.0
  0
LINE
  8
OUTLINE
  6
CONTINUOUS
 62
     3
 10
-59.0
 20
-162.25
 30
0.0
 11
59.0
 21
-162.25
 31
0.0
  0
LINE
  8
OUTLINE
  6
CONTINUOUS
 62
     3
 10
61.0
 20
-162.25
 30
0.0
 11
174.0
 21
-162.25
 31
0.0
  0
LINE
  8
OUTLINE
  6
CONTINUOUS
 62
     3
 10
176.0
 20
-162.25
 30
0.0
 11
181.0
 21
-162.25
 31
0.0
  0
LINE
  8
OUTLINE
  6
CONTINUOUS
 62
     3
 10
183.0
 20
-162.25
 30
0.0
 11
184.0
 21
-162.25
 31
0.0
  0
LINE
  8
OUTLINE
  6
CONTINUOUS
 62
     3
 10
-183.99999999999989
 20
-160.25
 30
0.0
 11
-182.99999999999989
 21
-160.25
 31
0.0
  0
LINE
  8
OUTLINE
  6
CONTINUOUS
 62
     3
 10
-180.99999999999989
 20
-160.25
 30
0.0
 11
-175.99999999999989
 21
-160.25
 31
0.0
  0
LINE
  8
OUTLINE
  6
CONTINUOUS
 62
     3
 10
-173.99999999999989
 20
-160.25
 30
0.0
 11
-61.0
 21
-160.25
 31
0.0
  0
LINE
  8
OUTLINE
  6
CONTINUOUS
 62
     3
 10
-59.0
 20
-160.25
 30
0.0
 11
59.0
 21
-160.25
 31
0.0
  0
LINE
  8
OUTLINE
  6
CONTINUOUS
 62
     3
 10
61.0
 20
-160.25
 30
0.0
 11
174.0
 21
-160.25
 31
0.0
  0
LINE
  8
OUTLINE
  6
CONTINUOUS
 62
     3
 10
176.0
 20
-160.25
 30
0.0
 11
181.0
 21
-160.25
 31
0.0
  0
LINE
  8
OUTLINE
  6
CONTINUOUS
 62
     3
 10
183.0
 20
-160.25
 30
0.0
 11
184.0
 21
-160.25
 31
0.0
  0
LINE
  8
OUTLINE
  6
CONTINUOUS
 62
     3
 10
-183.99999999999989
 20
-154.75
 30
0.0
 11
-182.99999999999989
 21
-154.75
 31
0.0
  0
LINE
  8
OUTLINE
  6
CONTINUOUS
 62
     3
 10
-180.99999999999989
 20
-154.75
 30
0.0
 11
-175.99999999999989
 21
-154.75
 31
0.0
  0
LINE
  8
OUTLINE
  6
CONTINUOUS
 62
     3
 10
-173.99999999999989
 20
-154.75
 30
0.0
 11
-61.0
 21
-154.75
 31
0.0
  0
LINE
  8
OUTLINE
  6
CONTINUOUS
 62
     3
 10
-59.0
 20
-154.75
 30
0.0
 11
59.0
 21
-154.75
 31
0.0
  0
LINE
  8
OUTLINE
  6
CONTINUOUS
 62
     3
 10
61.0
 20
-154.75
 30
0.0
 11
174.0
 21
-154.75
 31
0.0
  0
LINE
  8
OUTLINE
  6
CONTINUOUS
 62
     3
 10
176.0
 20
-154.75
 30
0.0
 11
181.0
 21
-154.75
 31
0.0
  0
LINE
  8
OUTLINE
  6
CONTINUOUS
 62
     3
 10
183.0
 20
-154.75
 30
0.0
 11
184.0
 21
-154.75
 31
0.0
  0
LINE
  8
OUTLINE
  6
CONTINUOUS
 62
     3
 10
-183.99999999999989
 20
-152.75
 30
0.0
 11
-182.99999999999989
 21
-152.75
 31
0.0
  0
LINE
  8
OUTLINE
  6
CONTINUOUS
 62
     3
 10
-180.99999999999989
 20
-152.75
 30
0.0
 11
-175.99999999999989
 21
-152.75
 31
0.0
  0
LINE
  8
OUTLINE
  6
CONTINUOUS
 62
     3
 10
-173.99999999999989
 20
-152.75
 30
0.0
 11
-61.0
 21
-152.75
 31
0.0
  0
LINE
  8
OUTLINE
  6
CONTINUOUS
 62
     3
 10
-59.0
 20
-152.75
 30
0.0
 11
59.0
 21
-152.75
 31
0.0
  0
LINE
  8
OUTLINE
  6
CONTINUOUS
 62
     3
 10
61.0
 20
-152.75
 30
0.0
 11
174.0
 21
-152.75
 31
0.0
  0
LINE
  8
OUTLINE
  6
CONTINUOUS
 62
     3
 10
176.0
 20
-152.75
 30
0.0
 11
181.0
 21
-152.75
 31
0.0
  0
LINE
  8
OUTLINE
  6
CONTINUOUS
 62
     3
 10
183.0
 20
-152.75
 30
0.0
 11
184.0
 21
-152.75
 31
0.0
  0
LINE
  8
OUTLINE
  6
CONTINUOUS
 62
     3
 10
-183.99999999999989
 20
-147.25
 30
0.0
 11
-182.99999999999989
 21
-147.25
 31
0.0
  0
LINE
  8
OUTLINE
  6
CONTINUOUS
 62
     3
 10
-180.99999999999989
 20
-147.25
 30
0.0
 11
-175.99999999999989
 21
-147.25
 31
0.0
  0
LINE
  8
OUTLINE
  6
CONTINUOUS
 62
     3
 10
-173.99999999999989
 20
-147.25
 30
0.0
 11
-61.0
 21
-147.25
 31
0.0
  0
LINE
  8
OUTLINE
  6
CONTINUOUS
 62
     3
 10
-59.0
 20
-147.25
 30
0.0
 11
59.0
 21
-147.25
 31
0.0
  0
LINE
  8
OUTLINE
  6
CONTINUOUS
 62
     3
 10
61.0
 20
-147.25
 30
0.0
 11
174.0
 21
-147.25
 31
0.0
  0
LINE
  8
OUTLINE
  6
CONTINUOUS
 62
     3
 10
176.0
 20
-147.25
 30
0.0
 11
181.0
 21
-147.25
 31
0.0
  0
LINE
  8
OUTLINE
  6
CONTINUOUS
 62
     3
 10
183.0
 20
-147.25
 30
0.0
 11
184.0
 21
-147.25
 31
0.0
  0
LINE
  8
OUTLINE
  6
CONTINUOUS
 62
     3
 10
-183.99999999999989
 20
-145.25
 30
0.0
 11
-182.99999999999989
 21
-145.25
 31
0.0
  0
LINE
  8
OUTLINE
  6
CONTINUOUS
 62
     3
 10
-180.99999999999989
 20
-145.25
 30
0.0
 11
-175.99999999999989
 21
-145.25
 31
0.0
  0
LINE
  8
OUTLINE
  6
CONTINUOUS
 62
     3
 10
-173.99999999999989
 20
-145.25
 30
0.0
 11
-61.0
 21
-145.25
 31
0.0
  0
LINE
  8
OUTLINE
  6
CONTINUOUS
 62
     3
 10
-59.0
 20
-145.25
 30
0.0
 11
59.0
 21
-145.25
 31
0.0
  0
LINE
  8
OUTLINE
  6
CONTINUOUS
 62
     3
 10
61.0
 20
-145.25
 30
0.0
 11
174.0
 21
-145.25
 31
0.0
  0
LINE
  8
OUTLINE
  6
CONTINUOUS
 62
     3
 10
176.0
 20
-145.25
 30
0.0
 11
181.0
 21
-145.25
 31
0.0
  0
LINE
  8
OUTLINE
  6
CONTINUOUS
 62
     3
 10
183.0
 20
-145.25
 30
0.0
 11
184.0
 21
-145.25
 31
0.0
  0
LINE
  8
OUTLINE
  6
CONTINUOUS
 62
     3
 10
-183.99999999999989
 20
-139.75
 30
0.0
 11
-182.99999999999989
 21
-139.75
 31
0.0
  0
LINE
  8
OUTLINE
  6
CONTINUOUS
 62
     3
 10
-180.99999999999989
 20
-139.75
 30
0.0
 11
-175.99999999999989
 21
-139.75
 31
0.0
  0
LINE
  8
OUTLINE
  6
CONTINUOUS
 62
     3
 10
-173.99999999999989
 20
-139.75
 30
0.0
 11
-61.0
 21
-139.75
 31
0.0
  0
LINE
  8
OUTLINE
  6
CONTINUOUS
 62
     3
 10
-59.0
 20
-139.75
 30
0.0
 11
59.0
 21
-139.75
 31
0.0
  0
LINE
  8
OUTLINE
  6
CONTINUOUS
 62
     3
 10
61.0
 20
-139.75
 30
0.0
 11
174.0
 21
-139.75
 31
0.0
  0
LINE
  8
OUTLINE
  6
CONTINUOUS
 62
     3
 10
176.0
 20
-139.75
 30
0.0
 11
181.0
 21
-139.75
 31
0.0
  0
LINE
  8
OUTLINE
  6
CONTINUOUS
 62
     3
 10
183.0
 20
-139.75
 30
0.0
 11
184.0
 21
-139.75
 31
0.0
  0
LINE
  8
OUTLINE
  6
CONTINUOUS
 62
     3
 10
-183.99999999999989
 20
-137.75
 30
0.0
 11
-182.99999999999989
 21
-137.75
 31
0.0
  0
LINE
  8
OUTLINE
  6
CONTINUOUS
 62
     3
 10
-180.99999999999989
 20
-137.75
 30
0.0
 11
-175.99999999999989
 21
-137.75
 31
0.0
  0
LINE
  8
OUTLINE
  6
CONTINUOUS
 62
     3
 10
-173.99999999999989
 20
-137.75
 30
0.0
 11
-61.0
 21
-137.75
 31
0.0
  0
LINE
  8
OUTLINE
  6
CONTINUOUS
 62
     3
 10
-59.0
 20
-137.75
 30
0.0
 11
59.0
 21
-137.75
 31
0.0
  0
LINE
  8
OUTLINE
  6
CONTINUOUS
 62
     3
 10
61.0
 20
-137.75
 30
0.0
 11
174.0
 21
-137.75
 31
0.0
  0
LINE
  8
OUTLINE
  6
CONTINUOUS
 62
     3
 10
176.0
 20
-137.75
 30
0.0
 11
181.0
 21
-137.75
 31
0.0
  0
LINE
  8
OUTLINE
  6
CONTINUOUS
 62
     3
 10
183.0
 20
-137.75
 30
0.0
 11
184.0
 21
-137.75
 31
0.0
  0
LINE
  8
OUTLINE
  6
CONTINUOUS
 62
     3
 10
-183.99999999999989
 20
-132.25
 30
0.0
 11
-182.99999999999989
 21
-132.25
 31
0.0
  0
LINE
  8
OUTLINE
  6
CONTINUOUS
 62
     3
 10
-180.99999999999989
 20
-132.25
 30
0.0
 11
-175.99999999999989
 21
-132.25
 31
0.0
  0
LINE
  8
OUTLINE
  6
CONTINUOUS
 62
     3
 10
-173.99999999999989
 20
-132.25
 30
0.0
 11
-61.0
 21
-132.25
 31
0.0
  0
LINE
  8
OUTLINE
  6
CONTINUOUS
 62
     3
 10
-59.0
 20
-132.25
 30
0.0
 11
59.0
 21
-132.25
 31
0.0
  0
LINE
  8
OUTLINE
  6
CONTINUOUS
 62
     3
 10
61.0
 20
-132.25
 30
0.0
 11
174.0
 21
-132.25
 31
0.0
  0
LINE
  8
OUTLINE
  6
CONTINUOUS
 62
     3
 10
176.0
 20
-132.25
 30
0.0
 11
181.0
 21
-132.25
 31
0.0
  0
LINE
  8
OUTLINE
  6
CONTINUOUS
 62
     3
 10
183.0
 20
-132.25
 30
0.0
 11
184.0
 21
-132.25
 31
0.0
  0
LINE
  8
OUTLINE
  6
CONTINUOUS
 62
     3
 10
-183.99999999999989
 20
-130.25
 30
0.0
 11
-182.99999999999989
 21
-130.25
 31
0.0
  0
LINE
  8
OUTLINE
  6
CONTINUOUS
 62
     3
 10
-180.99999999999989
 20
-130.25
 30
0.0
 11
-175.99999999999989
 21
-130.25
 31
0.0
  0
LINE
  8
OUTLINE
  6
CONTINUOUS
 62
     3
 10
-173.99999999999989
 20
-130.25
 30
0.0
 11
-61.0
 21
-130.25
 31
0.0
  0
LINE
  8
OUTLINE
  6
CONTINUOUS
 62
     3
 10
-59.0
 20
-130.25
 30
0.0
 11
59.0
 21
-130.25
 31
0.0
  0
LINE
  8
OUTLINE
  6
CONTINUOUS
 62
     3
 10
61.0
 20
-130.25
 30
0.0
 11
174.0
 21
-130.25
 31
0.0
  0
LINE
  8
OUTLINE
  6
CONTINUOUS
 62
     3
 10
176.0
 20
-130.25
 30
0.0
 11
181.0
 21
-130.25
 31
0.0
  0
LINE
  8
OUTLINE
  6
CONTINUOUS
 62
     3
 10
183.0
 20
-130.25
 30
0.0
 11
184.0
 21
-130.25
 31
0.0
  0
LINE
  8
OUTLINE
  6
CONTINUOUS
 62
     3
 10
-183.99999999999989
 20
-124.7500000000001
 30
0.0
 11
-182.99999999999989
 21
-124.7500000000001
 31
0.0
  0
LINE
  8
OUTLINE
  6
CONTINUOUS
 62
     3
 10
-180.99999999999989
 20
-124.7500000000001
 30
0.0
 11
-175.99999999999989
 21
-124.7500000000001
 31
0.0
  0
LINE
  8
OUTLINE
  6
CONTINUOUS
 62
     3
 10
-173.99999999999989
 20
-124.7500000000001
 30
0.0
 11
-61.0
 21
-124.7500000000001
 31
0.0
  0
LINE
  8
OUTLINE
  6
CONTINUOUS
 62
     3
 10
-59.0
 20
-124.7500000000001
 30
0.0
 11
59.0
 21
-124.7500000000001
 31
0.0
  0
LINE
  8
OUTLINE
  6
CONTINUOUS
 62
     3
 10
61.0
 20
-124.7500000000001
 30
0.0
 11
174.0
 21
-124.7500000000001
 31
0.0
  0
LINE
  8
OUTLINE
  6
CONTINUOUS
 62
     3
 10
176.0
 20
-124.7500000000001
 30
0.0
 11
181.0
 21
-124.7500000000001
 31
0.0
  0
LINE
  8
OUTLINE
  6
CONTINUOUS
 62
     3
 10
183.0
 20
-124.7500000000001
 30
0.0
 11
184.0
 21
-124.7500000000001
 31
0.0
  0
LINE
  8
OUTLINE
  6
CONTINUOUS
 62
     3
 10
-183.99999999999989
 20
-122.7500000000001
 30
0.0
 11
-182.99999999999989
 21
-122.7500000000001
 31
0.0
  0
LINE
  8
OUTLINE
  6
CONTINUOUS
 62
     3
 10
-180.99999999999989
 20
-122.7500000000001
 30
0.0
 11
-175.99999999999989
 21
-122.7500000000001
 31
0.0
  0
LINE
  8
OUTLINE
  6
CONTINUOUS
 62
     3
 10
-173.99999999999989
 20
-122.7500000000001
 30
0.0
 11
-61.0
 21
-122.7500000000001
 31
0.0
  0
LINE
  8
OUTLINE
  6
CONTINUOUS
 62
     3
 10
-59.0
 20
-122.7500000000001
 30
0.0
 11
59.0
 21
-122.7500000000001
 31
0.0
  0
LINE
  8
OUTLINE
  6
CONTINUOUS
 62
     3
 10
61.0
 20
-122.7500000000001
 30
0.0
 11
174.0
 21
-122.7500000000001
 31
0.0
  0
LINE
  8
OUTLINE
  6
CONTINUOUS
 62
     3
 10
176.0
 20
-122.7500000000001
 30
0.0
 11
181.0
 21
-122.7500000000001
 31
0.0
  0
LINE
  8
OUTLINE
  6
CONTINUOUS
 62
     3
 10
183.0
 20
-122.7500000000001
 30
0.0
 11
184.0
 21
-122.7500000000001
 31
0.0
  0
LINE
  8
OUTLINE
  6
CONTINUOUS
 62
     3
 10
-64.0
 20
90.499999999999943
 30
0.0
 11
-61.0
 21
93.499999999999943
 31
0.0
  0
LINE
  8
OUTLINE
  6
CONTINUOUS
 62
     3
 10
-183.99999999999989
 20
-117.2500000000001
 30
0.0
 11
-182.99999999999989
 21
-117.2500000000001
 31
0.0
  0
LINE
  8
OUTLINE
  6
CONTINUOUS
 62
     3
 10
-180.99999999999989
 20
-117.2500000000001
 30
0.0
 11
-175.99999999999989
 21
-117.2500000000001
 31
0.0
  0
LINE
  8
OUTLINE
  6
CONTINUOUS
 62
     3
 10
-173.99999999999989
 20
-117.2500000000001
 30
0.0
 11
-61.0
 21
-117.2500000000001
 31
0.0
  0
LINE
  8
OUTLINE
  6
CONTINUOUS
 62
     3
 10
-59.0
 20
-117.2500000000001
 30
0.0
 11
59.0
 21
-117.2500000000001
 31
0.0
  0
LINE
  8
OUTLINE
  6
CONTINUOUS
 62
     3
 10
61.0
 20
-117.2500000000001
 30
0.0
 11
174.0
 21
-117.2500000000001
 31
0.0
  0
LINE
  8
OUTLINE
  6
CONTINUOUS
 62
     3
 10
176.0
 20
-117.2500000000001
 30
0.0
 11
181.0
 21
-117.2500000000001
 31
0.0
  0
LINE
  8
OUTLINE
  6
CONTINUOUS
 62
     3
 10
183.0
 20
-117.2500000000001
 30
0.0
 11
184.0
 21
-117.2500000000001
 31
0.0
  0
LINE
  8
OUTLINE
  6
CONTINUOUS
 62
     3
 10
-183.99999999999989
 20
-115.2500000000001
 30
0.0
 11
-182.99999999999989
 21
-115.2500000000001
 31
0.0
  0
LINE
  8
OUTLINE
  6
CONTINUOUS
 62
     3
 10
-180.99999999999989
 20
-115.2500000000001
 30
0.0
 11
-175.99999999999989
 21
-115.2500000000001
 31
0.0
  0
LINE
  8
OUTLINE
  6
CONTINUOUS
 62
     3
 10
-173.99999999999989
 20
-115.2500000000001
 30
0.0
 11
-61.0
 21
-115.2500000000001
 31
0.0
  0
LINE
  8
OUTLINE
  6
CONTINUOUS
 62
     3
 10
-59.0
 20
-115.2500000000001
 30
0.0
 11
59.0
 21
-115.2500000000001
 31
0.0
  0
LINE
  8
OUTLINE
  6
CONTINUOUS
 62
     3
 10
61.0
 20
-115.2500000000001
 30
0.0
 11
174.0
 21
-115.2500000000001
 31
0.0
  0
LINE
  8
OUTLINE
  6
CONTINUOUS
 62
     3
 10
176.0
 20
-115.2500000000001
 30
0.0
 11
181.0
 21
-115.2500000000001
 31
0.0
  0
LINE
  8
OUTLINE
  6
CONTINUOUS
 62
     3
 10
183.0
 20
-115.2500000000001
 30
0.0
 11
184.0
 21
-115.2500000000001
 31
0.0
  0
LINE
  8
OUTLINE
  6
CONTINUOUS
 62
     3
 10
-183.99999999999989
 20
-109.7500000000001
 30
0.0
 11
-182.99999999999989
 21
-109.7500000000001
 31
0.0
  0
LINE
  8
OUTLINE
  6
CONTINUOUS
 62
     3
 10
-180.99999999999989
 20
-109.7500000000001
 30
0.0
 11
-175.99999999999989
 21
-109.7500000000001
 31
0.0
  0
LINE
  8
OUTLINE
  6
CONTINUOUS
 62
     3
 10
-173.99999999999989
 20
-109.7500000000001
 30
0.0
 11
-61.0
 21
-109.7500000000001
 31
0.0
  0
LINE
  8
OUTLINE
  6
CONTINUOUS
 62
     3
 10
-59.0
 20
-109.7500000000001
 30
0.0
 11
59.0
 21
-109.7500000000001
 31
0.0
  0
LINE
  8
OUTLINE
  6
CONTINUOUS
 62
     3
 10
61.0
 20
-109.7500000000001
 30
0.0
 11
174.0
 21
-109.7500000000001
 31
0.0
  0
LINE
  8
OUTLINE
  6
CONTINUOUS
 62
     3
 10
176.0
 20
-109.7500000000001
 30
0.0
 11
181.0
 21
-109.7500000000001
 31
0.0
  0
LINE
  8
OUTLINE
  6
CONTINUOUS
 62
     3
 10
183.0
 20
-109.7500000000001
 30
0.0
 11
184.0
 21
-109.7500000000001
 31
0.0
  0
LINE
  8
OUTLINE
  6
CONTINUOUS
 62
     3
 10
-183.99999999999989
 20
-107.7500000000001
 30
0.0
 11
-182.99999999999989
 21
-107.7500000000001
 31
0.0
  0
LINE
  8
OUTLINE
  6
CONTINUOUS
 62
     3
 10
-180.99999999999989
 20
-107.7500000000001
 30
0.0
 11
-175.99999999999989
 21
-107.7500000000001
 31
0.0
  0
LINE
  8
OUTLINE
  6
CONTINUOUS
 62
     3
 10
-173.99999999999989
 20
-107.7500000000001
 30
0.0
 11
-61.0
 21
-107.7500000000001
 31
0.0
  0
LINE
  8
OUTLINE
  6
CONTINUOUS
 62
     3
 10
-59.0
 20
-107.7500000000001
 30
0.0
 11
59.0
 21
-107.7500000000001
 31
0.0
  0
LINE
  8
OUTLINE
  6
CONTINUOUS
 62
     3
 10
61.0
 20
-107.7500000000001
 30
0.0
 11
174.0
 21
-107.7500000000001
 31
0.0
  0
LINE
  8
OUTLINE
  6
CONTINUOUS
 62
     3
 10
176.0
 20
-107.7500000000001
 30
0.0
 11
181.0
 21
-107.7500000000001
 31
0.0
  0
LINE
  8
OUTLINE
  6
CONTINUOUS
 62
     3
 10
183.0
 20
-107.7500000000001
 30
0.0
 11
184.0
 21
-107.7500000000001
 31
0.0
  0
LINE
  8
OUTLINE
  6
CONTINUOUS
 62
     3
 10
-98.999999999999886
 20
92.749999999999943
 30
0.0
 11
-98.999999999999886
 21
87.249999999999943
 31
0.0
  0
LINE
  8
OUTLINE
  6
CONTINUOUS
 62
     3
 10
-98.999999999999886
 20
85.249999999999943
 30
0.0
 11
-98.999999999999886
 21
79.749999999999943
 31
0.0
  0
LINE
  8
OUTLINE
  6
CONTINUOUS
 62
     3
 10
-98.999999999999886
 20
77.749999999999943
 30
0.0
 11
-98.999999999999886
 21
75.499999999999943
 31
0.0
  0
LINE
  8
OUTLINE
  6
CONTINUOUS
 62
     3
 10
-98.999999999999886
 20
93.499999999999943
 30
0.0
 11
-98.999999999999886
 21
95.099999999999966
 31
0.0
  0
LINE
  8
OUTLINE
  6
CONTINUOUS
 62
     3
 10
-64.0
 20
72.499999999999943
 30
0.0
 11
-61.0
 21
75.499999999999943
 31
0.0
  0
LINE
  8
OUTLINE
  6
CONTINUOUS
 62
     3
 10
-183.99999999999989
 20
-102.2500000000001
 30
0.0
 11
-182.99999999999989
 21
-102.2500000000001
 31
0.0
  0
LINE
  8
OUTLINE
  6
CONTINUOUS
 62
     3
 10
-180.99999999999989
 20
-102.2500000000001
 30
0.0
 11
-175.99999999999989
 21
-102.2500000000001
 31
0.0
  0
LINE
  8
OUTLINE
  6
CONTINUOUS
 62
     3
 10
-173.99999999999989
 20
-102.2500000000001
 30
0.0
 11
-61.0
 21
-102.2500000000001
 31
0.0
  0
LINE
  8
OUTLINE
  6
CONTINUOUS
 62
     3
 10
-59.0
 20
-102.2500000000001
 30
0.0
 11
59.0
 21
-102.2500000000001
 31
0.0
  0
LINE
  8
OUTLINE
  6
CONTINUOUS
 62
     3
 10
61.0
 20
-102.2500000000001
 30
0.0
 11
174.0
 21
-102.2500000000001
 31
0.0
  0
LINE
  8
OUTLINE
  6
CONTINUOUS
 62
     3
 10
176.0
 20
-102.2500000000001
 30
0.0
 11
181.0
 21
-102.2500000000001
 31
0.0
  0
LINE
  8
OUTLINE
  6
CONTINUOUS
 62
     3
 10
183.0
 20
-102.2500000000001
 30
0.0
 11
184.0
 21
-102.2500000000001
 31
0.0
  0
LINE
  8
OUTLINE
  6
CONTINUOUS
 62
     3
 10
-183.99999999999989
 20
-100.2500000000001
 30
0.0
 11
-182.99999999999989
 21
-100.2500000000001
 31
0.0
  0
LINE
  8
OUTLINE
  6
CONTINUOUS
 62
     3
 10
-180.99999999999989
 20
-100.2500000000001
 30
0.0
 11
-175.99999999999989
 21
-100.2500000000001
 31
0.0
  0
LINE
  8
OUTLINE
  6
CONTINUOUS
 62
     3
 10
-173.99999999999989
 20
-100.2500000000001
 30
0.0
 11
-61.0
 21
-100.2500000000001
 31
0.0
  0
LINE
  8
OUTLINE
  6
CONTINUOUS
 62
     3
 10
-59.0
 20
-100.2500000000001
 30
0.0
 11
59.0
 21
-100.2500000000001
 31
0.0
  0
LINE
  8
OUTLINE
  6
CONTINUOUS
 62
     3
 10
61.0
 20
-100.2500000000001
 30
0.0
 11
174.0
 21
-100.2500000000001
 31
0.0
  0
LINE
  8
OUTLINE
  6
CONTINUOUS
 62
     3
 10
176.0
 20
-100.2500000000001
 30
0.0
 11
181.0
 21
-100.2500000000001
 31
0.0
  0
LINE
  8
OUTLINE
  6
CONTINUOUS
 62
     3
 10
183.0
 20
-100.2500000000001
 30
0.0
 11
184.0
 21
-100.2500000000001
 31
0.0
  0
LINE
  8
OUTLINE
  6
CONTINUOUS
 62
     3
 10
-183.99999999999989
 20
-94.750000000000057
 30
0.0
 11
-182.99999999999989
 21
-94.750000000000057
 31
0.0
  0
LINE
  8
OUTLINE
  6
CONTINUOUS
 62
     3
 10
-180.99999999999989
 20
-94.750000000000057
 30
0.0
 11
-175.99999999999989
 21
-94.750000000000057
 31
0.0
  0
LINE
  8
OUTLINE
  6
CONTINUOUS
 62
     3
 10
-173.99999999999989
 20
-94.750000000000057
 30
0.0
 11
-61.0
 21
-94.750000000000057
 31
0.0
  0
LINE
  8
OUTLINE
  6
CONTINUOUS
 62
     3
 10
-59.0
 20
-94.750000000000057
 30
0.0
 11
59.0
 21
-94.750000000000057
 31
0.0
  0
LINE
  8
OUTLINE
  6
CONTINUOUS
 62
     3
 10
61.0
 20
-94.750000000000057
 30
0.0
 11
174.0
 21
-94.750000000000057
 31
0.0
  0
LINE
  8
OUTLINE
  6
CONTINUOUS
 62
     3
 10
176.0
 20
-94.750000000000057
 30
0.0
 11
181.0
 21
-94.750000000000057
 31
0.0
  0
LINE
  8
OUTLINE
  6
CONTINUOUS
 62
     3
 10
183.0
 20
-94.750000000000057
 30
0.0
 11
184.0
 21
-94.750000000000057
 31
0.0
  0
LINE
  8
OUTLINE
  6
CONTINUOUS
 62
     3
 10
-183.99999999999989
 20
-92.750000000000057
 30
0.0
 11
-182.99999999999989
 21
-92.750000000000057
 31
0.0
  0
LINE
  8
OUTLINE
  6
CONTINUOUS
 62
     3
 10
-180.99999999999989
 20
-92.750000000000057
 30
0.0
 11
-175.99999999999989
 21
-92.750000000000057
 31
0.0
  0
LINE
  8
OUTLINE
  6
CONTINUOUS
 62
     3
 10
-173.99999999999989
 20
-92.750000000000057
 30
0.0
 11
-61.0
 21
-92.750000000000057
 31
0.0
  0
LINE
  8
OUTLINE
  6
CONTINUOUS
 62
     3
 10
-59.0
 20
-92.750000000000057
 30
0.0
 11
59.0
 21
-92.750000000000057
 31
0.0
  0
LINE
  8
OUTLINE
  6
CONTINUOUS
 62
     3
 10
61.0
 20
-92.750000000000057
 30
0.0
 11
174.0
 21
-92.750000000000057
 31
0.0
  0
LINE
  8
OUTLINE
  6
CONTINUOUS
 62
     3
 10
176.0
 20
-92.750000000000057
 30
0.0
 11
181.0
 21
-92.750000000000057
 31
0.0
  0
LINE
  8
OUTLINE
  6
CONTINUOUS
 62
     3
 10
183.0
 20
-92.750000000000057
 30
0.0
 11
184.0
 21
-92.750000000000057
 31
0.0
  0
LINE
  8
OUTLINE
  6
CONTINUOUS
 62
     3
 10
-183.99999999999989
 20
-87.250000000000057
 30
0.0
 11
-182.99999999999989
 21
-87.250000000000057
 31
0.0
  0
LINE
  8
OUTLINE
  6
CONTINUOUS
 62
     3
 10
-180.99999999999989
 20
-87.250000000000057
 30
0.0
 11
-175.99999999999989
 21
-87.250000000000057
 31
0.0
  0
LINE
  8
OUTLINE
  6
CONTINUOUS
 62
     3
 10
-173.99999999999989
 20
-87.250000000000057
 30
0.0
 11
-61.0
 21
-87.250000000000057
 31
0.0
  0
LINE
  8
OUTLINE
  6
CONTINUOUS
 62
     3
 10
-59.0
 20
-87.250000000000057
 30
0.0
 11
59.0
 21
-87.250000000000057
 31
0.0
  0
LINE
  8
OUTLINE
  6
CONTINUOUS
 62
     3
 10
61.0
 20
-87.250000000000057
 30
0.0
 11
174.0
 21
-87.250000000000057
 31
0.0
  0
LINE
  8
OUTLINE
  6
CONTINUOUS
 62
     3
 10
176.0
 20
-87.250000000000057
 30
0.0
 11
181.0
 21
-87.250000000000057
 31
0.0
  0
LINE
  8
OUTLINE
  6
CONTINUOUS
 62
     3
 10
183.0
 20
-87.250000000000057
 30
0.0
 11
184.0
 21
-87.250000000000057
 31
0.0
  0
LINE
  8
OUTLINE
  6
CONTINUOUS
 62
     3
 10
-183.99999999999989
 20
-85.250000000000057
 30
0.0
 11
-182.99999999999989
 21
-85.250000000000057
 31
0.0
  0
LINE
  8
OUTLINE
  6
CONTINUOUS
 62
     3
 10
-180.99999999999989
 20
-85.250000000000057
 30
0.0
 11
-175.99999999999989
 21
-85.250000000000057
 31
0.0
  0
LINE
  8
OUTLINE
  6
CONTINUOUS
 62
     3
 10
-173.99999999999989
 20
-85.250000000000057
 30
0.0
 11
-61.0
 21
-85.250000000000057
 31
0.0
  0
LINE
  8
OUTLINE
  6
CONTINUOUS
 62
     3
 10
-59.0
 20
-85.250000000000057
 30
0.0
 11
59.0
 21
-85.250000000000057
 31
0.0
  0
LINE
  8
OUTLINE
  6
CONTINUOUS
 62
     3
 10
61.0
 20
-85.250000000000057
 30
0.0
 11
174.0
 21
-85.250000000000057
 31
0.0
  0
LINE
  8
OUTLINE
  6
CONTINUOUS
 62
     3
 10
176.0
 20
-85.250000000000057
 30
0.0
 11
181.0
 21
-85.250000000000057
 31
0.0
  0
LINE
  8
OUTLINE
  6
CONTINUOUS
 62
     3
 10
183.0
 20
-85.250000000000057
 30
0.0
 11
184.0
 21
-85.250000000000057
 31
0.0
  0
LINE
  8
OUTLINE
  6
CONTINUOUS
 62
     3
 10
-82.799999999999841
 20
82.499999999999943
 30
0.0
 11
-82.799999999999841
 21
79.999999999999943
 31
0.0
  0
LINE
  8
OUTLINE
  6
CONTINUOUS
 62
     3
 10
-77.199999999999932
 20
79.999999999999943
 30
0.0
 11
-77.199999999999932
 21
82.499999999999943
 31
0.0
  0
LINE
  8
OUTLINE
  6
CONTINUOUS
 62
     3
 10
-183.99999999999989
 20
-79.750000000000057
 30
0.0
 11
-182.99999999999989
 21
-79.750000000000057
 31
0.0
  0
LINE
  8
OUTLINE
  6
CONTINUOUS
 62
     3
 10
-180.99999999999989
 20
-79.750000000000057
 30
0.0
 11
-175.99999999999989
 21
-79.750000000000057
 31
0.0
  0
LINE
  8
OUTLINE
  6
CONTINUOUS
 62
     3
 10
-173.99999999999989
 20
-79.750000000000057
 30
0.0
 11
-61.0
 21
-79.750000000000057
 31
0.0
  0
LINE
  8
OUTLINE
  6
CONTINUOUS
 62
     3
 10
-59.0
 20
-79.750000000000057
 30
0.0
 11
59.0
 21
-79.750000000000057
 31
0.0
  0
LINE
  8
OUTLINE
  6
CONTINUOUS
 62
     3
 10
61.0
 20
-79.750000000000057
 30
0.0
 11
174.0
 21
-79.750000000000057
 31
0.0
  0
LINE
  8
OUTLINE
  6
CONTINUOUS
 62
     3
 10
176.0
 20
-79.750000000000057
 30
0.0
 11
181.0
 21
-79.750000000000057
 31
0.0
  0
LINE
  8
OUTLINE
  6
CONTINUOUS
 62
     3
 10
183.0
 20
-79.750000000000057
 30
0.0
 11
184.0
 21
-79.750000000000057
 31
0.0
  0
LINE
  8
OUTLINE
  6
CONTINUOUS
 62
     3
 10
-183.99999999999989
 20
-77.750000000000057
 30
0.0
 11
-182.99999999999989
 21
-77.750000000000057
 31
0.0
  0
LINE
  8
OUTLINE
  6
CONTINUOUS
 62
     3
 10
-180.99999999999989
 20
-77.750000000000057
 30
0.0
 11
-175.99999999999989
 21
-77.750000000000057
 31
0.0
  0
LINE
  8
OUTLINE
  6
CONTINUOUS
 62
     3
 10
-173.99999999999989
 20
-77.750000000000057
 30
0.0
 11
-61.0
 21
-77.750000000000057
 31
0.0
  0
LINE
  8
OUTLINE
  6
CONTINUOUS
 62
     3
 10
-59.0
 20
-77.750000000000057
 30
0.0
 11
59.0
 21
-77.750000000000057
 31
0.0
  0
LINE
  8
OUTLINE
  6
CONTINUOUS
 62
     3
 10
61.0
 20
-77.750000000000057
 30
0.0
 11
174.0
 21
-77.750000000000057
 31
0.0
  0
LINE
  8
OUTLINE
  6
CONTINUOUS
 62
     3
 10
176.0
 20
-77.750000000000057
 30
0.0
 11
181.0
 21
-77.750000000000057
 31
0.0
  0
LINE
  8
OUTLINE
  6
CONTINUOUS
 62
     3
 10
183.0
 20
-77.750000000000057
 30
0.0
 11
184.0
 21
-77.750000000000057
 31
0.0
  0
LINE
  8
OUTLINE
  6
CONTINUOUS
 62
     3
 10
-183.99999999999989
 20
-72.250000000000057
 30
0.0
 11
-182.99999999999989
 21
-72.250000000000057
 31
0.0
  0
LINE
  8
OUTLINE
  6
CONTINUOUS
 62
     3
 10
-180.99999999999989
 20
-72.250000000000057
 30
0.0
 11
-175.99999999999989
 21
-72.250000000000057
 31
0.0
  0
LINE
  8
OUTLINE
  6
CONTINUOUS
 62
     3
 10
-173.99999999999989
 20
-72.250000000000057
 30
0.0
 11
-61.0
 21
-72.250000000000057
 31
0.0
  0
LINE
  8
OUTLINE
  6
CONTINUOUS
 62
     3
 10
-59.0
 20
-72.250000000000057
 30
0.0
 11
59.0
 21
-72.250000000000057
 31
0.0
  0
LINE
  8
OUTLINE
  6
CONTINUOUS
 62
     3
 10
61.0
 20
-72.250000000000057
 30
0.0
 11
174.0
 21
-72.250000000000057
 31
0.0
  0
LINE
  8
OUTLINE
  6
CONTINUOUS
 62
     3
 10
176.0
 20
-72.250000000000057
 30
0.0
 11
181.0
 21
-72.250000000000057
 31
0.0
  0
LINE
  8
OUTLINE
  6
CONTINUOUS
 62
     3
 10
183.0
 20
-72.250000000000057
 30
0.0
 11
184.0
 21
-72.250000000000057
 31
0.0
  0
LINE
  8
OUTLINE
  6
CONTINUOUS
 62
     3
 10
-183.99999999999989
 20
-70.250000000000057
 30
0.0
 11
-182.99999999999989
 21
-70.250000000000057
 31
0.0
  0
LINE
  8
OUTLINE
  6
CONTINUOUS
 62
     3
 10
-180.99999999999989
 20
-70.250000000000057
 30
0.0
 11
-175.99999999999989
 21
-70.250000000000057
 31
0.0
  0
LINE
  8
OUTLINE
  6
CONTINUOUS
 62
     3
 10
-173.99999999999989
 20
-70.250000000000057
 30
0.0
 11
-61.0
 21
-70.250000000000057
 31
0.0
  0
LINE
  8
OUTLINE
  6
CONTINUOUS
 62
     3
 10
-59.0
 20
-70.250000000000057
 30
0.0
 11
59.0
 21
-70.250000000000057
 31
0.0
  0
LINE
  8
OUTLINE
  6
CONTINUOUS
 62
     3
 10
61.0
 20
-70.250000000000057
 30
0.0
 11
174.0
 21
-70.250000000000057
 31
0.0
  0
LINE
  8
OUTLINE
  6
CONTINUOUS
 62
     3
 10
176.0
 20
-70.250000000000057
 30
0.0
 11
181.0
 21
-70.250000000000057
 31
0.0
  0
LINE
  8
OUTLINE
  6
CONTINUOUS
 62
     3
 10
183.0
 20
-70.250000000000057
 30
0.0
 11
184.0
 21
-70.250000000000057
 31
0.0
  0
LINE
  8
OUTLINE
  6
CONTINUOUS
 62
     3
 10
-61.0
 20
182.0
 30
0.0
 11
-61.0
 21
95.099999999999966
 31
0.0
  0
LINE
  8
OUTLINE
  6
CONTINUOUS
 62
     3
 10
-61.0
 20
93.499999999999943
 30
0.0
 11
-61.0
 21
95.099999999999966
 31
0.0
  0
LINE
  8
OUTLINE
  6
CONTINUOUS
 62
     3
 10
-61.0
 20
93.499999999999943
 30
0.0
 11
-61.0
 21
-182.0
 31
0.0
  0
LINE
  8
OUTLINE
  6
CONTINUOUS
 62
     3
 10
-59.0
 20
182.0
 30
0.0
 11
-59.0
 21
-182.0
 31
0.0
  0
LINE
  8
OUTLINE
  6
CONTINUOUS
 62
     3
 10
-57.0
 20
185.0
 30
0.0
 11
-57.0
 21
183.0
 31
0.0
  0
LINE
  8
OUTLINE
  6
CONTINUOUS
 62
     3
 10
-57.0
 20
-185.0
 30
0.0
 11
-57.0
 21
-183.0
 31
0.0
  0
LINE
  8
OUTLINE
  6
CONTINUOUS
 62
     3
 10
-183.99999999999989
 20
-64.750000000000057
 30
0.0
 11
-182.99999999999989
 21
-64.750000000000057
 31
0.0
  0
LINE
  8
OUTLINE
  6
CONTINUOUS
 62
     3
 10
-180.99999999999989
 20
-64.750000000000057
 30
0.0
 11
-175.99999999999989
 21
-64.750000000000057
 31
0.0
  0
LINE
  8
OUTLINE
  6
CONTINUOUS
 62
     3
 10
-173.99999999999989
 20
-64.750000000000057
 30
0.0
 11
-61.0
 21
-64.750000000000057
 31
0.0
  0
LINE
  8
OUTLINE
  6
CONTINUOUS
 62
     3
 10
-59.0
 20
-64.750000000000057
 30
0.0
 11
59.0
 21
-64.750000000000057
 31
0.0
  0
LINE
  8
OUTLINE
  6
CONTINUOUS
 62
     3
 10
61.0
 20
-64.750000000000057
 30
0.0
 11
174.0
 21
-64.750000000000057
 31
0.0
  0
LINE
  8
OUTLINE
  6
CONTINUOUS
 62
     3
 10
176.0
 20
-64.750000000000057
 30
0.0
 11
181.0
 21
-64.750000000000057
 31
0.0
  0
LINE
  8
OUTLINE
  6
CONTINUOUS
 62
     3
 10
183.0
 20
-64.750000000000057
 30
0.0
 11
184.0
 21
-64.750000000000057
 31
0.0
  0
LINE
  8
OUTLINE
  6
CONTINUOUS
 62
     3
 10
-183.99999999999989
 20
-62.750000000000057
 30
0.0
 11
-182.99999999999989
 21
-62.750000000000057
 31
0.0
  0
LINE
  8
OUTLINE
  6
CONTINUOUS
 62
     3
 10
-180.99999999999989
 20
-62.750000000000057
 30
0.0
 11
-175.99999999999989
 21
-62.750000000000057
 31
0.0
  0
LINE
  8
OUTLINE
  6
CONTINUOUS
 62
     3
 10
-173.99999999999989
 20
-62.750000000000057
 30
0.0
 11
-61.0
 21
-62.750000000000057
 31
0.0
  0
LINE
  8
OUTLINE
  6
CONTINUOUS
 62
     3
 10
-59.0
 20
-62.750000000000057
 30
0.0
 11
59.0
 21
-62.750000000000057
 31
0.0
  0
LINE
  8
OUTLINE
  6
CONTINUOUS
 62
     3
 10
61.0
 20
-62.750000000000057
 30
0.0
 11
174.0
 21
-62.750000000000057
 31
0.0
  0
LINE
  8
OUTLINE
  6
CONTINUOUS
 62
     3
 10
176.0
 20
-62.750000000000057
 30
0.0
 11
181.0
 21
-62.750000000000057
 31
0.0
  0
LINE
  8
OUTLINE
  6
CONTINUOUS
 62
     3
 10
183.0
 20
-62.750000000000057
 30
0.0
 11
184.0
 21
-62.750000000000057
 31
0.0
  0
LINE
  8
OUTLINE
  6
CONTINUOUS
 62
     3
 10
-183.99999999999989
 20
-57.25
 30
0.0
 11
-182.99999999999989
 21
-57.25
 31
0.0
  0
LINE
  8
OUTLINE
  6
CONTINUOUS
 62
     3
 10
-180.99999999999989
 20
-57.25
 30
0.0
 11
-175.99999999999989
 21
-57.25
 31
0.0
  0
LINE
  8
OUTLINE
  6
CONTINUOUS
 62
     3
 10
-173.99999999999989
 20
-57.25
 30
0.0
 11
-61.0
 21
-57.25
 31
0.0
  0
LINE
  8
OUTLINE
  6
CONTINUOUS
 62
     3
 10
-59.0
 20
-57.25
 30
0.0
 11
59.0
 21
-57.25
 31
0.0
  0
LINE
  8
OUTLINE
  6
CONTINUOUS
 62
     3
 10
61.0
 20
-57.25
 30
0.0
 11
174.0
 21
-57.25
 31
0.0
  0
LINE
  8
OUTLINE
  6
CONTINUOUS
 62
     3
 10
176.0
 20
-57.25
 30
0.0
 11
181.0
 21
-57.25
 31
0.0
  0
LINE
  8
OUTLINE
  6
CONTINUOUS
 62
     3
 10
183.0
 20
-57.25
 30
0.0
 11
184.0
 21
-57.25
 31
0.0
  0
LINE
  8
OUTLINE
  6
CONTINUOUS
 62
     3
 10
-183.99999999999989
 20
-55.25
 30
0.0
 11
-182.99999999999989
 21
-55.25
 31
0.0
  0
LINE
  8
OUTLINE
  6
CONTINUOUS
 62
     3
 10
-180.99999999999989
 20
-55.25
 30
0.0
 11
-175.99999999999989
 21
-55.25
 31
0.0
  0
LINE
  8
OUTLINE
  6
CONTINUOUS
 62
     3
 10
-173.99999999999989
 20
-55.25
 30
0.0
 11
-61.0
 21
-55.25
 31
0.0
  0
LINE
  8
OUTLINE
  6
CONTINUOUS
 62
     3
 10
-59.0
 20
-55.25
 30
0.0
 11
59.0
 21
-55.25
 31
0.0
  0
LINE
  8
OUTLINE
  6
CONTINUOUS
 62
     3
 10
61.0
 20
-55.25
 30
0.0
 11
174.0
 21
-55.25
 31
0.0
  0
LINE
  8
OUTLINE
  6
CONTINUOUS
 62
     3
 10
176.0
 20
-55.25
 30
0.0
 11
181.0
 21
-55.25
 31
0.0
  0
LINE
  8
OUTLINE
  6
CONTINUOUS
 62
     3
 10
183.0
 20
-55.25
 30
0.0
 11
184.0
 21
-55.25
 31
0.0
  0
LINE
  8
OUTLINE
  6
CONTINUOUS
 62
     3
 10
-183.99999999999989
 20
-49.75
 30
0.0
 11
-182.99999999999989
 21
-49.75
 31
0.0
  0
LINE
  8
OUTLINE
  6
CONTINUOUS
 62
     3
 10
-180.99999999999989
 20
-49.75
 30
0.0
 11
-175.99999999999989
 21
-49.75
 31
0.0
  0
LINE
  8
OUTLINE
  6
CONTINUOUS
 62
     3
 10
-173.99999999999989
 20
-49.75
 30
0.0
 11
-61.0
 21
-49.75
 31
0.0
  0
LINE
  8
OUTLINE
  6
CONTINUOUS
 62
     3
 10
-59.0
 20
-49.75
 30
0.0
 11
59.0
 21
-49.75
 31
0.0
  0
LINE
  8
OUTLINE
  6
CONTINUOUS
 62
     3
 10
61.0
 20
-49.75
 30
0.0
 11
174.0
 21
-49.75
 31
0.0
  0
LINE
  8
OUTLINE
  6
CONTINUOUS
 62
     3
 10
176.0
 20
-49.75
 30
0.0
 11
181.0
 21
-49.75
 31
0.0
  0
LINE
  8
OUTLINE
  6
CONTINUOUS
 62
     3
 10
183.0
 20
-49.75
 30
0.0
 11
184.0
 21
-49.75
 31
0.0
  0
LINE
  8
OUTLINE
  6
CONTINUOUS
 62
     3
 10
-183.99999999999989
 20
-47.75
 30
0.0
 11
-182.99999999999989
 21
-47.75
 31
0.0
  0
LINE
  8
OUTLINE
  6
CONTINUOUS
 62
     3
 10
-180.99999999999989
 20
-47.75
 30
0.0
 11
-175.99999999999989
 21
-47.75
 31
0.0
  0
LINE
  8
OUTLINE
  6
CONTINUOUS
 62
     3
 10
-173.99999999999989
 20
-47.75
 30
0.0
 11
-61.0
 21
-47.75
 31
0.0
  0
LINE
  8
OUTLINE
  6
CONTINUOUS
 62
     3
 10
-59.0
 20
-47.75
 30
0.0
 11
59.0
 21
-47.75
 31
0.0
  0
LINE
  8
OUTLINE
  6
CONTINUOUS
 62
     3
 10
61.0
 20
-47.75
 30
0.0
 11
174.0
 21
-47.75
 31
0.0
  0
LINE
  8
OUTLINE
  6
CONTINUOUS
 62
     3
 10
176.0
 20
-47.75
 30
0.0
 11
181.0
 21
-47.75
 31
0.0
  0
LINE
  8
OUTLINE
  6
CONTINUOUS
 62
     3
 10
183.0
 20
-47.75
 30
0.0
 11
184.0
 21
-47.75
 31
0.0
  0
LINE
  8
OUTLINE
  6
CONTINUOUS
 62
     3
 10
-183.99999999999989
 20
-42.25
 30
0.0
 11
-182.99999999999989
 21
-42.25
 31
0.0
  0
LINE
  8
OUTLINE
  6
CONTINUOUS
 62
     3
 10
-180.99999999999989
 20
-42.25
 30
0.0
 11
-175.99999999999989
 21
-42.25
 31
0.0
  0
LINE
  8
OUTLINE
  6
CONTINUOUS
 62
     3
 10
-173.99999999999989
 20
-42.25
 30
0.0
 11
-61.0
 21
-42.25
 31
0.0
  0
LINE
  8
OUTLINE
  6
CONTINUOUS
 62
     3
 10
-59.0
 20
-42.25
 30
0.0
 11
59.0
 21
-42.25
 31
0.0
  0
LINE
  8
OUTLINE
  6
CONTINUOUS
 62
     3
 10
61.0
 20
-42.25
 30
0.0
 11
174.0
 21
-42.25
 31
0.0
  0
LINE
  8
OUTLINE
  6
CONTINUOUS
 62
     3
 10
176.0
 20
-42.25
 30
0.0
 11
181.0
 21
-42.25
 31
0.0
  0
LINE
  8
OUTLINE
  6
CONTINUOUS
 62
     3
 10
183.0
 20
-42.25
 30
0.0
 11
184.0
 21
-42.25
 31
0.0
  0
LINE
  8
OUTLINE
  6
CONTINUOUS
 62
     3
 10
-183.99999999999989
 20
-40.250000000000057
 30
0.0
 11
-182.99999999999989
 21
-40.250000000000057
 31
0.0
  0
LINE
  8
OUTLINE
  6
CONTINUOUS
 62
     3
 10
-180.99999999999989
 20
-40.250000000000057
 30
0.0
 11
-175.99999999999989
 21
-40.250000000000057
 31
0.0
  0
LINE
  8
OUTLINE
  6
CONTINUOUS
 62
     3
 10
-173.99999999999989
 20
-40.250000000000057
 30
0.0
 11
-61.0
 21
-40.250000000000057
 31
0.0
  0
LINE
  8
OUTLINE
  6
CONTINUOUS
 62
     3
 10
-59.0
 20
-40.250000000000057
 30
0.0
 11
59.0
 21
-40.250000000000057
 31
0.0
  0
LINE
  8
OUTLINE
  6
CONTINUOUS
 62
     3
 10
61.0
 20
-40.250000000000057
 30
0.0
 11
174.0
 21
-40.250000000000057
 31
0.0
  0
LINE
  8
OUTLINE
  6
CONTINUOUS
 62
     3
 10
176.0
 20
-40.250000000000057
 30
0.0
 11
181.0
 21
-40.250000000000057
 31
0.0
  0
LINE
  8
OUTLINE
  6
CONTINUOUS
 62
     3
 10
183.0
 20
-40.250000000000057
 30
0.0
 11
184.0
 21
-40.250000000000057
 31
0.0
  0
LINE
  8
OUTLINE
  6
CONTINUOUS
 62
     3
 10
-183.99999999999989
 20
-34.750000000000057
 30
0.0
 11
-182.99999999999989
 21
-34.750000000000057
 31
0.0
  0
LINE
  8
OUTLINE
  6
CONTINUOUS
 62
     3
 10
-180.99999999999989
 20
-34.750000000000057
 30
0.0
 11
-175.99999999999989
 21
-34.750000000000057
 31
0.0
  0
LINE
  8
OUTLINE
  6
CONTINUOUS
 62
     3
 10
-173.99999999999989
 20
-34.750000000000057
 30
0.0
 11
-61.0
 21
-34.750000000000057
 31
0.0
  0
LINE
  8
OUTLINE
  6
CONTINUOUS
 62
     3
 10
-59.0
 20
-34.750000000000057
 30
0.0
 11
59.0
 21
-34.750000000000057
 31
0.0
  0
LINE
  8
OUTLINE
  6
CONTINUOUS
 62
     3
 10
61.0
 20
-34.750000000000057
 30
0.0
 11
174.0
 21
-34.750000000000057
 31
0.0
  0
LINE
  8
OUTLINE
  6
CONTINUOUS
 62
     3
 10
176.0
 20
-34.750000000000057
 30
0.0
 11
181.0
 21
-34.750000000000057
 31
0.0
  0
LINE
  8
OUTLINE
  6
CONTINUOUS
 62
     3
 10
183.0
 20
-34.750000000000057
 30
0.0
 11
184.0
 21
-34.750000000000057
 31
0.0
  0
LINE
  8
OUTLINE
  6
CONTINUOUS
 62
     3
 10
-183.99999999999989
 20
-32.750000000000057
 30
0.0
 11
-182.99999999999989
 21
-32.750000000000057
 31
0.0
  0
LINE
  8
OUTLINE
  6
CONTINUOUS
 62
     3
 10
-180.99999999999989
 20
-32.750000000000057
 30
0.0
 11
-175.99999999999989
 21
-32.750000000000057
 31
0.0
  0
LINE
  8
OUTLINE
  6
CONTINUOUS
 62
     3
 10
-173.99999999999989
 20
-32.750000000000057
 30
0.0
 11
-61.0
 21
-32.750000000000057
 31
0.0
  0
LINE
  8
OUTLINE
  6
CONTINUOUS
 62
     3
 10
-59.0
 20
-32.750000000000057
 30
0.0
 11
59.0
 21
-32.750000000000057
 31
0.0
  0
LINE
  8
OUTLINE
  6
CONTINUOUS
 62
     3
 10
61.0
 20
-32.750000000000057
 30
0.0
 11
174.0
 21
-32.750000000000057
 31
0.0
  0
LINE
  8
OUTLINE
  6
CONTINUOUS
 62
     3
 10
176.0
 20
-32.750000000000057
 30
0.0
 11
181.0
 21
-32.750000000000057
 31
0.0
  0
LINE
  8
OUTLINE
  6
CONTINUOUS
 62
     3
 10
183.0
 20
-32.750000000000057
 30
0.0
 11
184.0
 21
-32.750000000000057
 31
0.0
  0
LINE
  8
OUTLINE
  6
CONTINUOUS
 62
     3
 10
-183.99999999999989
 20
-27.25000000000006
 30
0.0
 11
-182.99999999999989
 21
-27.25000000000006
 31
0.0
  0
LINE
  8
OUTLINE
  6
CONTINUOUS
 62
     3
 10
-180.99999999999989
 20
-27.25000000000006
 30
0.0
 11
-175.99999999999989
 21
-27.25000000000006
 31
0.0
  0
LINE
  8
OUTLINE
  6
CONTINUOUS
 62
     3
 10
-173.99999999999989
 20
-27.25000000000006
 30
0.0
 11
-61.0
 21
-27.25000000000006
 31
0.0
  0
LINE
  8
OUTLINE
  6
CONTINUOUS
 62
     3
 10
-59.0
 20
-27.25000000000006
 30
0.0
 11
59.0
 21
-27.25000000000006
 31
0.0
  0
LINE
  8
OUTLINE
  6
CONTINUOUS
 62
     3
 10
61.0
 20
-27.25000000000006
 30
0.0
 11
174.0
 21
-27.25000000000006
 31
0.0
  0
LINE
  8
OUTLINE
  6
CONTINUOUS
 62
     3
 10
176.0
 20
-27.25000000000006
 30
0.0
 11
181.0
 21
-27.25000000000006
 31
0.0
  0
LINE
  8
OUTLINE
  6
CONTINUOUS
 62
     3
 10
183.0
 20
-27.25000000000006
 30
0.0
 11
184.0
 21
-27.25000000000006
 31
0.0
  0
LINE
  8
OUTLINE
  6
CONTINUOUS
 62
     3
 10
-183.99999999999989
 20
-25.25000000000006
 30
0.0
 11
-182.99999999999989
 21
-25.25000000000006
 31
0.0
  0
LINE
  8
OUTLINE
  6
CONTINUOUS
 62
     3
 10
-180.99999999999989
 20
-25.25000000000006
 30
0.0
 11
-175.99999999999989
 21
-25.25000000000006
 31
0.0
  0
LINE
  8
OUTLINE
  6
CONTINUOUS
 62
     3
 10
-173.99999999999989
 20
-25.25000000000006
 30
0.0
 11
-61.0
 21
-25.25000000000006
 31
0.0
  0
LINE
  8
OUTLINE
  6
CONTINUOUS
 62
     3
 10
-59.0
 20
-25.25000000000006
 30
0.0
 11
59.0
 21
-25.25000000000006
 31
0.0
  0
LINE
  8
OUTLINE
  6
CONTINUOUS
 62
     3
 10
61.0
 20
-25.25000000000006
 30
0.0
 11
174.0
 21
-25.25000000000006
 31
0.0
  0
LINE
  8
OUTLINE
  6
CONTINUOUS
 62
     3
 10
176.0
 20
-25.25000000000006
 30
0.0
 11
181.0
 21
-25.25000000000006
 31
0.0
  0
LINE
  8
OUTLINE
  6
CONTINUOUS
 62
     3
 10
183.0
 20
-25.25000000000006
 30
0.0
 11
184.0
 21
-25.25000000000006
 31
0.0
  0
LINE
  8
OUTLINE
  6
CONTINUOUS
 62
     3
 10
-183.99999999999989
 20
-19.75000000000006
 30
0.0
 11
-182.99999999999989
 21
-19.75000000000006
 31
0.0
  0
LINE
  8
OUTLINE
  6
CONTINUOUS
 62
     3
 10
-180.99999999999989
 20
-19.75000000000006
 30
0.0
 11
-175.99999999999989
 21
-19.75000000000006
 31
0.0
  0
LINE
  8
OUTLINE
  6
CONTINUOUS
 62
     3
 10
-173.99999999999989
 20
-19.75000000000006
 30
0.0
 11
-61.0
 21
-19.75000000000006
 31
0.0
  0
LINE
  8
OUTLINE
  6
CONTINUOUS
 62
     3
 10
-59.0
 20
-19.75000000000006
 30
0.0
 11
59.0
 21
-19.75000000000006
 31
0.0
  0
LINE
  8
OUTLINE
  6
CONTINUOUS
 62
     3
 10
61.0
 20
-19.75000000000006
 30
0.0
 11
174.0
 21
-19.75000000000006
 31
0.0
  0
LINE
  8
OUTLINE
  6
CONTINUOUS
 62
     3
 10
176.0
 20
-19.75000000000006
 30
0.0
 11
181.0
 21
-19.75000000000006
 31
0.0
  0
LINE
  8
OUTLINE
  6
CONTINUOUS
 62
     3
 10
183.0
 20
-19.75000000000006
 30
0.0
 11
184.0
 21
-19.75000000000006
 31
0.0
  0
LINE
  8
OUTLINE
  6
CONTINUOUS
 62
     3
 10
-183.99999999999989
 20
-17.75000000000006
 30
0.0
 11
-182.99999999999989
 21
-17.75000000000006
 31
0.0
  0
LINE
  8
OUTLINE
  6
CONTINUOUS
 62
     3
 10
-180.99999999999989
 20
-17.75000000000006
 30
0.0
 11
-175.99999999999989
 21
-17.75000000000006
 31
0.0
  0
LINE
  8
OUTLINE
  6
CONTINUOUS
 62
     3
 10
-173.99999999999989
 20
-17.75000000000006
 30
0.0
 11
-61.0
 21
-17.75000000000006
 31
0.0
  0
LINE
  8
OUTLINE
  6
CONTINUOUS
 62
     3
 10
-59.0
 20
-17.75000000000006
 30
0.0
 11
59.0
 21
-17.75000000000006
 31
0.0
  0
LINE
  8
OUTLINE
  6
CONTINUOUS
 62
     3
 10
61.0
 20
-17.75000000000006
 30
0.0
 11
174.0
 21
-17.75000000000006
 31
0.0
  0
LINE
  8
OUTLINE
  6
CONTINUOUS
 62
     3
 10
176.0
 20
-17.75000000000006
 30
0.0
 11
181.0
 21
-17.75000000000006
 31
0.0
  0
LINE
  8
OUTLINE
  6
CONTINUOUS
 62
     3
 10
183.0
 20
-17.75000000000006
 30
0.0
 11
184.0
 21
-17.75000000000006
 31
0.0
  0
LINE
  8
OUTLINE
  6
CONTINUOUS
 62
     3
 10
-98.999999999999886
 20
75.499999999999943
 30
0.0
 11
-95.999999999999886
 21
72.499999999999943
 31
0.0
  0
LINE
  8
OUTLINE
  6
CONTINUOUS
 62
     3
 10
-183.99999999999989
 20
-12.25000000000006
 30
0.0
 11
-182.99999999999989
 21
-12.25000000000006
 31
0.0
  0
LINE
  8
OUTLINE
  6
CONTINUOUS
 62
     3
 10
-180.99999999999989
 20
-12.25000000000006
 30
0.0
 11
-175.99999999999989
 21
-12.25000000000006
 31
0.0
  0
LINE
  8
OUTLINE
  6
CONTINUOUS
 62
     3
 10
-173.99999999999989
 20
-12.25000000000006
 30
0.0
 11
-61.0
 21
-12.25000000000006
 31
0.0
  0
LINE
  8
OUTLINE
  6
CONTINUOUS
 62
     3
 10
-59.0
 20
-12.25000000000006
 30
0.0
 11
59.0
 21
-12.25000000000006
 31
0.0
  0
LINE
  8
OUTLINE
  6
CONTINUOUS
 62
     3
 10
61.0
 20
-12.25000000000006
 30
0.0
 11
174.0
 21
-12.25000000000006
 31
0.0
  0
LINE
  8
OUTLINE
  6
CONTINUOUS
 62
     3
 10
176.0
 20
-12.25000000000006
 30
0.0
 11
181.0
 21
-12.25000000000006
 31
0.0
  0
LINE
  8
OUTLINE
  6
CONTINUOUS
 62
     3
 10
183.0
 20
-12.25000000000006
 30
0.0
 11
184.0
 21
-12.25000000000006
 31
0.0
  0
LINE
  8
OUTLINE
  6
CONTINUOUS
 62
     3
 10
-183.99999999999989
 20
-10.25000000000006
 30
0.0
 11
-182.99999999999989
 21
-10.25000000000006
 31
0.0
  0
LINE
  8
OUTLINE
  6
CONTINUOUS
 62
     3
 10
-180.99999999999989
 20
-10.25000000000006
 30
0.0
 11
-175.99999999999989
 21
-10.25000000000006
 31
0.0
  0
LINE
  8
OUTLINE
  6
CONTINUOUS
 62
     3
 10
-173.99999999999989
 20
-10.25000000000006
 30
0.0
 11
-61.0
 21
-10.25000000000006
 31
0.0
  0
LINE
  8
OUTLINE
  6
CONTINUOUS
 62
     3
 10
-59.0
 20
-10.25000000000006
 30
0.0
 11
59.0
 21
-10.25000000000006
 31
0.0
  0
LINE
  8
OUTLINE
  6
CONTINUOUS
 62
     3
 10
61.0
 20
-10.25000000000006
 30
0.0
 11
174.0
 21
-10.25000000000006
 31
0.0
  0
LINE
  8
OUTLINE
  6
CONTINUOUS
 62
     3
 10
176.0
 20
-10.25000000000006
 30
0.0
 11
181.0
 21
-10.25000000000006
 31
0.0
  0
LINE
  8
OUTLINE
  6
CONTINUOUS
 62
     3
 10
183.0
 20
-10.25000000000006
 30
0.0
 11
184.0
 21
-10.25000000000006
 31
0.0
  0
LINE
  8
OUTLINE
  6
CONTINUOUS
 62
     3
 10
-183.99999999999989
 20
-4.7500000000000568
 30
0.0
 11
-182.99999999999989
 21
-4.7500000000000568
 31
0.0
  0
LINE
  8
OUTLINE
  6
CONTINUOUS
 62
     3
 10
-180.99999999999989
 20
-4.7500000000000568
 30
0.0
 11
-175.99999999999989
 21
-4.7500000000000568
 31
0.0
  0
LINE
  8
OUTLINE
  6
CONTINUOUS
 62
     3
 10
-173.99999999999989
 20
-4.7500000000000568
 30
0.0
 11
-61.0
 21
-4.7500000000000568
 31
0.0
  0
LINE
  8
OUTLINE
  6
CONTINUOUS
 62
     3
 10
-59.0
 20
-4.7500000000000568
 30
0.0
 11
59.0
 21
-4.7500000000000568
 31
0.0
  0
LINE
  8
OUTLINE
  6
CONTINUOUS
 62
     3
 10
61.0
 20
-4.7500000000000568
 30
0.0
 11
174.0
 21
-4.7500000000000568
 31
0.0
  0
LINE
  8
OUTLINE
  6
CONTINUOUS
 62
     3
 10
176.0
 20
-4.7500000000000568
 30
0.0
 11
181.0
 21
-4.7500000000000568
 31
0.0
  0
LINE
  8
OUTLINE
  6
CONTINUOUS
 62
     3
 10
183.0
 20
-4.7500000000000568
 30
0.0
 11
184.0
 21
-4.7500000000000568
 31
0.0
  0
LINE
  8
OUTLINE
  6
CONTINUOUS
 62
     3
 10
-183.99999999999989
 20
-2.7500000000000568
 30
0.0
 11
-182.99999999999989
 21
-2.7500000000000568
 31
0.0
  0
LINE
  8
OUTLINE
  6
CONTINUOUS
 62
     3
 10
-180.99999999999989
 20
-2.7500000000000568
 30
0.0
 11
-175.99999999999989
 21
-2.7500000000000568
 31
0.0
  0
LINE
  8
OUTLINE
  6
CONTINUOUS
 62
     3
 10
-173.99999999999989
 20
-2.7500000000000568
 30
0.0
 11
-61.0
 21
-2.7500000000000568
 31
0.0
  0
LINE
  8
OUTLINE
  6
CONTINUOUS
 62
     3
 10
-59.0
 20
-2.7500000000000568
 30
0.0
 11
59.0
 21
-2.7500000000000568
 31
0.0
  0
LINE
  8
OUTLINE
  6
CONTINUOUS
 62
     3
 10
61.0
 20
-2.7500000000000568
 30
0.0
 11
174.0
 21
-2.7500000000000568
 31
0.0
  0
LINE
  8
OUTLINE
  6
CONTINUOUS
 62
     3
 10
176.0
 20
-2.7500000000000568
 30
0.0
 11
181.0
 21
-2.7500000000000568
 31
0.0
  0
LINE
  8
OUTLINE
  6
CONTINUOUS
 62
     3
 10
183.0
 20
-2.7500000000000568
 30
0.0
 11
184.0
 21
-2.7500000000000568
 31
0.0
  0
LINE
  8
OUTLINE
  6
CONTINUOUS
 62
     3
 10
-98.999999999999886
 20
93.499999999999943
 30
0.0
 11
-95.999999999999886
 21
90.499999999999943
 31
0.0
  0
LINE
  8
OUTLINE
  6
CONTINUOUS
 62
     3
 10
96.0
 20
90.499999999999943
 30
0.0
 11
99.0
 21
93.499999999999943
 31
0.0
  0
LINE
  8
OUTLINE
  6
CONTINUOUS
 62
     3
 10
96.0
 20
72.499999999999943
 30
0.0
 11
99.0
 21
75.499999999999943
 31
0.0
  0
LINE
  8
OUTLINE
  6
CONTINUOUS
 62
     3
 10
-183.99999999999989
 20
2.7499999999999432
 30
0.0
 11
-182.99999999999989
 21
2.7499999999999432
 31
0.0
  0
LINE
  8
OUTLINE
  6
CONTINUOUS
 62
     3
 10
-180.99999999999989
 20
2.7499999999999432
 30
0.0
 11
-175.99999999999989
 21
2.7499999999999432
 31
0.0
  0
LINE
  8
OUTLINE
  6
CONTINUOUS
 62
     3
 10
-173.99999999999989
 20
2.7499999999999432
 30
0.0
 11
-61.0
 21
2.7499999999999432
 31
0.0
  0
LINE
  8
OUTLINE
  6
CONTINUOUS
 62
     3
 10
-59.0
 20
2.7499999999999432
 30
0.0
 11
59.0
 21
2.7499999999999432
 31
0.0
  0
LINE
  8
OUTLINE
  6
CONTINUOUS
 62
     3
 10
61.0
 20
2.7499999999999432
 30
0.0
 11
174.0
 21
2.7499999999999432
 31
0.0
  0
LINE
  8
OUTLINE
  6
CONTINUOUS
 62
     3
 10
176.0
 20
2.7499999999999432
 30
0.0
 11
181.0
 21
2.7499999999999432
 31
0.0
  0
LINE
  8
OUTLINE
  6
CONTINUOUS
 62
     3
 10
183.0
 20
2.7499999999999432
 30
0.0
 11
184.0
 21
2.7499999999999432
 31
0.0
  0
LINE
  8
OUTLINE
  6
CONTINUOUS
 62
     3
 10
-183.99999999999989
 20
4.7499999999999432
 30
0.0
 11
-182.99999999999989
 21
4.7499999999999432
 31
0.0
  0
LINE
  8
OUTLINE
  6
CONTINUOUS
 62
     3
 10
-180.99999999999989
 20
4.7499999999999432
 30
0.0
 11
-175.99999999999989
 21
4.7499999999999432
 31
0.0
  0
LINE
  8
OUTLINE
  6
CONTINUOUS
 62
     3
 10
-173.99999999999989
 20
4.7499999999999432
 30
0.0
 11
-61.0
 21
4.7499999999999432
 31
0.0
  0
LINE
  8
OUTLINE
  6
CONTINUOUS
 62
     3
 10
-59.0
 20
4.7499999999999432
 30
0.0
 11
59.0
 21
4.7499999999999432
 31
0.0
  0
LINE
  8
OUTLINE
  6
CONTINUOUS
 62
     3
 10
61.0
 20
4.7499999999999432
 30
0.0
 11
174.0
 21
4.7499999999999432
 31
0.0
  0
LINE
  8
OUTLINE
  6
CONTINUOUS
 62
     3
 10
176.0
 20
4.7499999999999432
 30
0.0
 11
181.0
 21
4.7499999999999432
 31
0.0
  0
LINE
  8
OUTLINE
  6
CONTINUOUS
 62
     3
 10
183.0
 20
4.7499999999999432
 30
0.0
 11
184.0
 21
4.7499999999999432
 31
0.0
  0
LINE
  8
OUTLINE
  6
CONTINUOUS
 62
     3
 10
-183.99999999999989
 20
10.24999999999994
 30
0.0
 11
-182.99999999999989
 21
10.24999999999994
 31
0.0
  0
LINE
  8
OUTLINE
  6
CONTINUOUS
 62
     3
 10
-180.99999999999989
 20
10.24999999999994
 30
0.0
 11
-175.99999999999989
 21
10.24999999999994
 31
0.0
  0
LINE
  8
OUTLINE
  6
CONTINUOUS
 62
     3
 10
-173.99999999999989
 20
10.24999999999994
 30
0.0
 11
-61.0
 21
10.24999999999994
 31
0.0
  0
LINE
  8
OUTLINE
  6
CONTINUOUS
 62
     3
 10
-59.0
 20
10.24999999999994
 30
0.0
 11
59.0
 21
10.24999999999994
 31
0.0
  0
LINE
  8
OUTLINE
  6
CONTINUOUS
 62
     3
 10
61.0
 20
10.24999999999994
 30
0.0
 11
174.0
 21
10.24999999999994
 31
0.0
  0
LINE
  8
OUTLINE
  6
CONTINUOUS
 62
     3
 10
176.0
 20
10.24999999999994
 30
0.0
 11
181.0
 21
10.24999999999994
 31
0.0
  0
LINE
  8
OUTLINE
  6
CONTINUOUS
 62
     3
 10
183.0
 20
10.24999999999994
 30
0.0
 11
184.0
 21
10.24999999999994
 31
0.0
  0
LINE
  8
OUTLINE
  6
CONTINUOUS
 62
     3
 10
-183.99999999999989
 20
12.24999999999994
 30
0.0
 11
-182.99999999999989
 21
12.24999999999994
 31
0.0
  0
LINE
  8
OUTLINE
  6
CONTINUOUS
 62
     3
 10
-180.99999999999989
 20
12.24999999999994
 30
0.0
 11
-175.99999999999989
 21
12.24999999999994
 31
0.0
  0
LINE
  8
OUTLINE
  6
CONTINUOUS
 62
     3
 10
-173.99999999999989
 20
12.24999999999994
 30
0.0
 11
-61.0
 21
12.24999999999994
 31
0.0
  0
LINE
  8
OUTLINE
  6
CONTINUOUS
 62
     3
 10
-59.0
 20
12.24999999999994
 30
0.0
 11
59.0
 21
12.24999999999994
 31
0.0
  0
LINE
  8
OUTLINE
  6
CONTINUOUS
 62
     3
 10
61.0
 20
12.24999999999994
 30
0.0
 11
174.0
 21
12.24999999999994
 31
0.0
  0
LINE
  8
OUTLINE
  6
CONTINUOUS
 62
     3
 10
176.0
 20
12.24999999999994
 30
0.0
 11
181.0
 21
12.24999999999994
 31
0.0
  0
LINE
  8
OUTLINE
  6
CONTINUOUS
 62
     3
 10
183.0
 20
12.24999999999994
 30
0.0
 11
184.0
 21
12.24999999999994
 31
0.0
  0
LINE
  8
OUTLINE
  6
CONTINUOUS
 62
     3
 10
-183.99999999999989
 20
17.74999999999994
 30
0.0
 11
-182.99999999999989
 21
17.74999999999994
 31
0.0
  0
LINE
  8
OUTLINE
  6
CONTINUOUS
 62
     3
 10
-180.99999999999989
 20
17.74999999999994
 30
0.0
 11
-175.99999999999989
 21
17.74999999999994
 31
0.0
  0
LINE
  8
OUTLINE
  6
CONTINUOUS
 62
     3
 10
-173.99999999999989
 20
17.74999999999994
 30
0.0
 11
-61.0
 21
17.74999999999994
 31
0.0
  0
LINE
  8
OUTLINE
  6
CONTINUOUS
 62
     3
 10
-59.0
 20
17.74999999999994
 30
0.0
 11
59.0
 21
17.74999999999994
 31
0.0
  0
LINE
  8
OUTLINE
  6
CONTINUOUS
 62
     3
 10
61.0
 20
17.74999999999994
 30
0.0
 11
174.0
 21
17.74999999999994
 31
0.0
  0
LINE
  8
OUTLINE
  6
CONTINUOUS
 62
     3
 10
176.0
 20
17.74999999999994
 30
0.0
 11
181.0
 21
17.74999999999994
 31
0.0
  0
LINE
  8
OUTLINE
  6
CONTINUOUS
 62
     3
 10
183.0
 20
17.74999999999994
 30
0.0
 11
184.0
 21
17.74999999999994
 31
0.0
  0
LINE
  8
OUTLINE
  6
CONTINUOUS
 62
     3
 10
-183.99999999999989
 20
19.74999999999994
 30
0.0
 11
-182.99999999999989
 21
19.74999999999994
 31
0.0
  0
LINE
  8
OUTLINE
  6
CONTINUOUS
 62
     3
 10
-180.99999999999989
 20
19.74999999999994
 30
0.0
 11
-175.99999999999989
 21
19.74999999999994
 31
0.0
  0
LINE
  8
OUTLINE
  6
CONTINUOUS
 62
     3
 10
-173.99999999999989
 20
19.74999999999994
 30
0.0
 11
-61.0
 21
19.74999999999994
 31
0.0
  0
LINE
  8
OUTLINE
  6
CONTINUOUS
 62
     3
 10
-59.0
 20
19.74999999999994
 30
0.0
 11
59.0
 21
19.74999999999994
 31
0.0
  0
LINE
  8
OUTLINE
  6
CONTINUOUS
 62
     3
 10
61.0
 20
19.74999999999994
 30
0.0
 11
174.0
 21
19.74999999999994
 31
0.0
  0
LINE
  8
OUTLINE
  6
CONTINUOUS
 62
     3
 10
176.0
 20
19.74999999999994
 30
0.0
 11
181.0
 21
19.74999999999994
 31
0.0
  0
LINE
  8
OUTLINE
  6
CONTINUOUS
 62
     3
 10
183.0
 20
19.74999999999994
 30
0.0
 11
184.0
 21
19.74999999999994
 31
0.0
  0
LINE
  8
OUTLINE
  6
CONTINUOUS
 62
     3
 10
-183.99999999999989
 20
25.24999999999994
 30
0.0
 11
-182.99999999999989
 21
25.24999999999994
 31
0.0
  0
LINE
  8
OUTLINE
  6
CONTINUOUS
 62
     3
 10
-180.99999999999989
 20
25.24999999999994
 30
0.0
 11
-175.99999999999989
 21
25.24999999999994
 31
0.0
  0
LINE
  8
OUTLINE
  6
CONTINUOUS
 62
     3
 10
-173.99999999999989
 20
25.24999999999994
 30
0.0
 11
-61.0
 21
25.24999999999994
 31
0.0
  0
LINE
  8
OUTLINE
  6
CONTINUOUS
 62
     3
 10
-59.0
 20
25.24999999999994
 30
0.0
 11
59.0
 21
25.24999999999994
 31
0.0
  0
LINE
  8
OUTLINE
  6
CONTINUOUS
 62
     3
 10
61.0
 20
25.24999999999994
 30
0.0
 11
174.0
 21
25.24999999999994
 31
0.0
  0
LINE
  8
OUTLINE
  6
CONTINUOUS
 62
     3
 10
176.0
 20
25.24999999999994
 30
0.0
 11
181.0
 21
25.24999999999994
 31
0.0
  0
LINE
  8
OUTLINE
  6
CONTINUOUS
 62
     3
 10
183.0
 20
25.24999999999994
 30
0.0
 11
184.0
 21
25.24999999999994
 31
0.0
  0
LINE
  8
OUTLINE
  6
CONTINUOUS
 62
     3
 10
-183.99999999999989
 20
27.24999999999994
 30
0.0
 11
-182.99999999999989
 21
27.24999999999994
 31
0.0
  0
LINE
  8
OUTLINE
  6
CONTINUOUS
 62
     3
 10
-180.99999999999989
 20
27.24999999999994
 30
0.0
 11
-175.99999999999989
 21
27.24999999999994
 31
0.0
  0
LINE
  8
OUTLINE
  6
CONTINUOUS
 62
     3
 10
-173.99999999999989
 20
27.24999999999994
 30
0.0
 11
-61.0
 21
27.24999999999994
 31
0.0
  0
LINE
  8
OUTLINE
  6
CONTINUOUS
 62
     3
 10
-59.0
 20
27.24999999999994
 30
0.0
 11
59.0
 21
27.24999999999994
 31
0.0
  0
LINE
  8
OUTLINE
  6
CONTINUOUS
 62
     3
 10
61.0
 20
27.24999999999994
 30
0.0
 11
174.0
 21
27.24999999999994
 31
0.0
  0
LINE
  8
OUTLINE
  6
CONTINUOUS
 62
     3
 10
176.0
 20
27.24999999999994
 30
0.0
 11
181.0
 21
27.24999999999994
 31
0.0
  0
LINE
  8
OUTLINE
  6
CONTINUOUS
 62
     3
 10
183.0
 20
27.24999999999994
 30
0.0
 11
184.0
 21
27.24999999999994
 31
0.0
  0
LINE
  8
OUTLINE
  6
CONTINUOUS
 62
     3
 10
-183.99999999999989
 20
32.749999999999943
 30
0.0
 11
-182.99999999999989
 21
32.749999999999943
 31
0.0
  0
LINE
  8
OUTLINE
  6
CONTINUOUS
 62
     3
 10
-180.99999999999989
 20
32.749999999999943
 30
0.0
 11
-175.99999999999989
 21
32.749999999999943
 31
0.0
  0
LINE
  8
OUTLINE
  6
CONTINUOUS
 62
     3
 10
-173.99999999999989
 20
32.749999999999943
 30
0.0
 11
-61.0
 21
32.749999999999943
 31
0.0
  0
LINE
  8
OUTLINE
  6
CONTINUOUS
 62
     3
 10
-59.0
 20
32.749999999999943
 30
0.0
 11
59.0
 21
32.749999999999943
 31
0.0
  0
LINE
  8
OUTLINE
  6
CONTINUOUS
 62
     3
 10
61.0
 20
32.749999999999943
 30
0.0
 11
174.0
 21
32.749999999999943
 31
0.0
  0
LINE
  8
OUTLINE
  6
CONTINUOUS
 62
     3
 10
176.0
 20
32.749999999999943
 30
0.0
 11
181.0
 21
32.749999999999943
 31
0.0
  0
LINE
  8
OUTLINE
  6
CONTINUOUS
 62
     3
 10
183.0
 20
32.749999999999943
 30
0.0
 11
184.0
 21
32.749999999999943
 31
0.0
  0
LINE
  8
OUTLINE
  6
CONTINUOUS
 62
     3
 10
-183.99999999999989
 20
34.749999999999943
 30
0.0
 11
-182.99999999999989
 21
34.749999999999943
 31
0.0
  0
LINE
  8
OUTLINE
  6
CONTINUOUS
 62
     3
 10
-180.99999999999989
 20
34.749999999999943
 30
0.0
 11
-175.99999999999989
 21
34.749999999999943
 31
0.0
  0
LINE
  8
OUTLINE
  6
CONTINUOUS
 62
     3
 10
-173.99999999999989
 20
34.749999999999943
 30
0.0
 11
-61.0
 21
34.749999999999943
 31
0.0
  0
LINE
  8
OUTLINE
  6
CONTINUOUS
 62
     3
 10
-59.0
 20
34.749999999999943
 30
0.0
 11
59.0
 21
34.749999999999943
 31
0.0
  0
LINE
  8
OUTLINE
  6
CONTINUOUS
 62
     3
 10
61.0
 20
34.749999999999943
 30
0.0
 11
174.0
 21
34.749999999999943
 31
0.0
  0
LINE
  8
OUTLINE
  6
CONTINUOUS
 62
     3
 10
176.0
 20
34.749999999999943
 30
0.0
 11
181.0
 21
34.749999999999943
 31
0.0
  0
LINE
  8
OUTLINE
  6
CONTINUOUS
 62
     3
 10
183.0
 20
34.749999999999943
 30
0.0
 11
184.0
 21
34.749999999999943
 31
0.0
  0
LINE
  8
OUTLINE
  6
CONTINUOUS
 62
     3
 10
-183.99999999999989
 20
40.249999999999943
 30
0.0
 11
-182.99999999999989
 21
40.249999999999943
 31
0.0
  0
LINE
  8
OUTLINE
  6
CONTINUOUS
 62
     3
 10
-180.99999999999989
 20
40.249999999999943
 30
0.0
 11
-175.99999999999989
 21
40.249999999999943
 31
0.0
  0
LINE
  8
OUTLINE
  6
CONTINUOUS
 62
     3
 10
-173.99999999999989
 20
40.249999999999943
 30
0.0
 11
-61.0
 21
40.249999999999943
 31
0.0
  0
LINE
  8
OUTLINE
  6
CONTINUOUS
 62
     3
 10
-59.0
 20
40.249999999999943
 30
0.0
 11
59.0
 21
40.249999999999943
 31
0.0
  0
LINE
  8
OUTLINE
  6
CONTINUOUS
 62
     3
 10
61.0
 20
40.249999999999943
 30
0.0
 11
174.0
 21
40.249999999999943
 31
0.0
  0
LINE
  8
OUTLINE
  6
CONTINUOUS
 62
     3
 10
176.0
 20
40.249999999999943
 30
0.0
 11
181.0
 21
40.249999999999943
 31
0.0
  0
LINE
  8
OUTLINE
  6
CONTINUOUS
 62
     3
 10
183.0
 20
40.249999999999943
 30
0.0
 11
184.0
 21
40.249999999999943
 31
0.0
  0
LINE
  8
OUTLINE
  6
CONTINUOUS
 62
     3
 10
-183.99999999999989
 20
42.249999999999943
 30
0.0
 11
-182.99999999999989
 21
42.249999999999943
 31
0.0
  0
LINE
  8
OUTLINE
  6
CONTINUOUS
 62
     3
 10
-180.99999999999989
 20
42.249999999999943
 30
0.0
 11
-175.99999999999989
 21
42.249999999999943
 31
0.0
  0
LINE
  8
OUTLINE
  6
CONTINUOUS
 62
     3
 10
-173.99999999999989
 20
42.249999999999943
 30
0.0
 11
-61.0
 21
42.249999999999943
 31
0.0
  0
LINE
  8
OUTLINE
  6
CONTINUOUS
 62
     3
 10
-59.0
 20
42.249999999999943
 30
0.0
 11
59.0
 21
42.249999999999943
 31
0.0
  0
LINE
  8
OUTLINE
  6
CONTINUOUS
 62
     3
 10
61.0
 20
42.249999999999943
 30
0.0
 11
174.0
 21
42.249999999999943
 31
0.0
  0
LINE
  8
OUTLINE
  6
CONTINUOUS
 62
     3
 10
176.0
 20
42.249999999999943
 30
0.0
 11
181.0
 21
42.249999999999943
 31
0.0
  0
LINE
  8
OUTLINE
  6
CONTINUOUS
 62
     3
 10
183.0
 20
42.249999999999943
 30
0.0
 11
184.0
 21
42.249999999999943
 31
0.0
  0
LINE
  8
OUTLINE
  6
CONTINUOUS
 62
     3
 10
-183.99999999999989
 20
47.749999999999972
 30
0.0
 11
-182.99999999999989
 21
47.749999999999972
 31
0.0
  0
LINE
  8
OUTLINE
  6
CONTINUOUS
 62
     3
 10
-180.99999999999989
 20
47.749999999999972
 30
0.0
 11
-175.99999999999989
 21
47.749999999999972
 31
0.0
  0
LINE
  8
OUTLINE
  6
CONTINUOUS
 62
     3
 10
-173.99999999999989
 20
47.749999999999972
 30
0.0
 11
-61.0
 21
47.749999999999972
 31
0.0
  0
LINE
  8
OUTLINE
  6
CONTINUOUS
 62
     3
 10
-59.0
 20
47.749999999999972
 30
0.0
 11
59.0
 21
47.749999999999972
 31
0.0
  0
LINE
  8
OUTLINE
  6
CONTINUOUS
 62
     3
 10
61.0
 20
47.749999999999972
 30
0.0
 11
174.0
 21
47.749999999999972
 31
0.0
  0
LINE
  8
OUTLINE
  6
CONTINUOUS
 62
     3
 10
176.0
 20
47.749999999999972
 30
0.0
 11
181.0
 21
47.749999999999972
 31
0.0
  0
LINE
  8
OUTLINE
  6
CONTINUOUS
 62
     3
 10
183.0
 20
47.749999999999972
 30
0.0
 11
184.0
 21
47.749999999999972
 31
0.0
  0
LINE
  8
OUTLINE
  6
CONTINUOUS
 62
     3
 10
-183.99999999999989
 20
49.749999999999972
 30
0.0
 11
-182.99999999999989
 21
49.749999999999972
 31
0.0
  0
LINE
  8
OUTLINE
  6
CONTINUOUS
 62
     3
 10
-180.99999999999989
 20
49.749999999999972
 30
0.0
 11
-175.99999999999989
 21
49.749999999999972
 31
0.0
  0
LINE
  8
OUTLINE
  6
CONTINUOUS
 62
     3
 10
-173.99999999999989
 20
49.749999999999972
 30
0.0
 11
-61.0
 21
49.749999999999972
 31
0.0
  0
LINE
  8
OUTLINE
  6
CONTINUOUS
 62
     3
 10
-59.0
 20
49.749999999999972
 30
0.0
 11
59.0
 21
49.749999999999972
 31
0.0
  0
LINE
  8
OUTLINE
  6
CONTINUOUS
 62
     3
 10
61.0
 20
49.749999999999972
 30
0.0
 11
174.0
 21
49.749999999999972
 31
0.0
  0
LINE
  8
OUTLINE
  6
CONTINUOUS
 62
     3
 10
176.0
 20
49.749999999999972
 30
0.0
 11
181.0
 21
49.749999999999972
 31
0.0
  0
LINE
  8
OUTLINE
  6
CONTINUOUS
 62
     3
 10
183.0
 20
49.749999999999972
 30
0.0
 11
184.0
 21
49.749999999999972
 31
0.0
  0
LINE
  8
OUTLINE
  6
CONTINUOUS
 62
     3
 10
57.0
 20
185.0
 30
0.0
 11
57.0
 21
183.0
 31
0.0
  0
LINE
  8
OUTLINE
  6
CONTINUOUS
 62
     3
 10
57.0
 20
-185.0
 30
0.0
 11
57.0
 21
-183.0
 31
0.0
  0
LINE
  8
OUTLINE
  6
CONTINUOUS
 62
     3
 10
59.0
 20
182.0
 30
0.0
 11
59.0
 21
-182.0
 31
0.0
  0
LINE
  8
OUTLINE
  6
CONTINUOUS
 62
     3
 10
61.0
 20
182.0
 30
0.0
 11
61.0
 21
95.099999999999966
 31
0.0
  0
LINE
  8
OUTLINE
  6
CONTINUOUS
 62
     3
 10
61.0
 20
93.499999999999943
 30
0.0
 11
61.0
 21
95.099999999999966
 31
0.0
  0
LINE
  8
OUTLINE
  6
CONTINUOUS
 62
     3
 10
61.0
 20
93.499999999999943
 30
0.0
 11
61.0
 21
-182.0
 31
0.0
  0
LINE
  8
OUTLINE
  6
CONTINUOUS
 62
     3
 10
-183.99999999999989
 20
55.249999999999972
 30
0.0
 11
-182.99999999999989
 21
55.249999999999972
 31
0.0
  0
LINE
  8
OUTLINE
  6
CONTINUOUS
 62
     3
 10
-180.99999999999989
 20
55.249999999999972
 30
0.0
 11
-175.99999999999989
 21
55.249999999999972
 31
0.0
  0
LINE
  8
OUTLINE
  6
CONTINUOUS
 62
     3
 10
-173.99999999999989
 20
55.249999999999972
 30
0.0
 11
-61.0
 21
55.249999999999972
 31
0.0
  0
LINE
  8
OUTLINE
  6
CONTINUOUS
 62
     3
 10
-59.0
 20
55.249999999999972
 30
0.0
 11
59.0
 21
55.249999999999972
 31
0.0
  0
LINE
  8
OUTLINE
  6
CONTINUOUS
 62
     3
 10
61.0
 20
55.249999999999972
 30
0.0
 11
174.0
 21
55.249999999999972
 31
0.0
  0
LINE
  8
OUTLINE
  6
CONTINUOUS
 62
     3
 10
176.0
 20
55.249999999999972
 30
0.0
 11
181.0
 21
55.249999999999972
 31
0.0
  0
LINE
  8
OUTLINE
  6
CONTINUOUS
 62
     3
 10
183.0
 20
55.249999999999972
 30
0.0
 11
184.0
 21
55.249999999999972
 31
0.0
  0
LINE
  8
OUTLINE
  6
CONTINUOUS
 62
     3
 10
-183.99999999999989
 20
57.249999999999972
 30
0.0
 11
-182.99999999999989
 21
57.249999999999972
 31
0.0
  0
LINE
  8
OUTLINE
  6
CONTINUOUS
 62
     3
 10
-180.99999999999989
 20
57.249999999999972
 30
0.0
 11
-175.99999999999989
 21
57.249999999999972
 31
0.0
  0
LINE
  8
OUTLINE
  6
CONTINUOUS
 62
     3
 10
-173.99999999999989
 20
57.249999999999972
 30
0.0
 11
-61.0
 21
57.249999999999972
 31
0.0
  0
LINE
  8
OUTLINE
  6
CONTINUOUS
 62
     3
 10
-59.0
 20
57.249999999999972
 30
0.0
 11
59.0
 21
57.249999999999972
 31
0.0
  0
LINE
  8
OUTLINE
  6
CONTINUOUS
 62
     3
 10
61.0
 20
57.249999999999972
 30
0.0
 11
174.0
 21
57.249999999999972
 31
0.0
  0
LINE
  8
OUTLINE
  6
CONTINUOUS
 62
     3
 10
176.0
 20
57.249999999999972
 30
0.0
 11
181.0
 21
57.249999999999972
 31
0.0
  0
LINE
  8
OUTLINE
  6
CONTINUOUS
 62
     3
 10
183.0
 20
57.249999999999972
 30
0.0
 11
184.0
 21
57.249999999999972
 31
0.0
  0
LINE
  8
OUTLINE
  6
CONTINUOUS
 62
     3
 10
-183.99999999999989
 20
62.749999999999972
 30
0.0
 11
-182.99999999999989
 21
62.749999999999972
 31
0.0
  0
LINE
  8
OUTLINE
  6
CONTINUOUS
 62
     3
 10
-180.99999999999989
 20
62.749999999999972
 30
0.0
 11
-175.99999999999989
 21
62.749999999999972
 31
0.0
  0
LINE
  8
OUTLINE
  6
CONTINUOUS
 62
     3
 10
-173.99999999999989
 20
62.749999999999972
 30
0.0
 11
-61.0
 21
62.749999999999972
 31
0.0
  0
LINE
  8
OUTLINE
  6
CONTINUOUS
 62
     3
 10
-59.0
 20
62.749999999999972
 30
0.0
 11
59.0
 21
62.749999999999972
 31
0.0
  0
LINE
  8
OUTLINE
  6
CONTINUOUS
 62
     3
 10
61.0
 20
62.749999999999972
 30
0.0
 11
174.0
 21
62.749999999999972
 31
0.0
  0
LINE
  8
OUTLINE
  6
CONTINUOUS
 62
     3
 10
176.0
 20
62.749999999999972
 30
0.0
 11
181.0
 21
62.749999999999972
 31
0.0
  0
LINE
  8
OUTLINE
  6
CONTINUOUS
 62
     3
 10
183.0
 20
62.749999999999972
 30
0.0
 11
184.0
 21
62.749999999999972
 31
0.0
  0
LINE
  8
OUTLINE
  6
CONTINUOUS
 62
     3
 10
-183.99999999999989
 20
64.749999999999972
 30
0.0
 11
-182.99999999999989
 21
64.749999999999972
 31
0.0
  0
LINE
  8
OUTLINE
  6
CONTINUOUS
 62
     3
 10
-180.99999999999989
 20
64.749999999999972
 30
0.0
 11
-175.99999999999989
 21
64.749999999999972
 31
0.0
  0
LINE
  8
OUTLINE
  6
CONTINUOUS
 62
     3
 10
-173.99999999999989
 20
64.749999999999972
 30
0.0
 11
-61.0
 21
64.749999999999972
 31
0.0
  0
LINE
  8
OUTLINE
  6
CONTINUOUS
 62
     3
 10
-59.0
 20
64.749999999999972
 30
0.0
 11
59.0
 21
64.749999999999972
 31
0.0
  0
LINE
  8
OUTLINE
  6
CONTINUOUS
 62
     3
 10
61.0
 20
64.749999999999972
 30
0.0
 11
174.0
 21
64.749999999999972
 31
0.0
  0
LINE
  8
OUTLINE
  6
CONTINUOUS
 62
     3
 10
176.0
 20
64.749999999999972
 30
0.0
 11
181.0
 21
64.749999999999972
 31
0.0
  0
LINE
  8
OUTLINE
  6
CONTINUOUS
 62
     3
 10
183.0
 20
64.749999999999972
 30
0.0
 11
184.0
 21
64.749999999999972
 31
0.0
  0
LINE
  8
OUTLINE
  6
CONTINUOUS
 62
     3
 10
-183.99999999999989
 20
70.249999999999943
 30
0.0
 11
-182.99999999999989
 21
70.249999999999943
 31
0.0
  0
LINE
  8
OUTLINE
  6
CONTINUOUS
 62
     3
 10
-180.99999999999989
 20
70.249999999999943
 30
0.0
 11
-175.99999999999989
 21
70.249999999999943
 31
0.0
  0
LINE
  8
OUTLINE
  6
CONTINUOUS
 62
     3
 10
-173.99999999999989
 20
70.249999999999943
 30
0.0
 11
-61.0
 21
70.249999999999943
 31
0.0
  0
LINE
  8
OUTLINE
  6
CONTINUOUS
 62
     3
 10
-59.0
 20
70.249999999999943
 30
0.0
 11
59.0
 21
70.249999999999943
 31
0.0
  0
LINE
  8
OUTLINE
  6
CONTINUOUS
 62
     3
 10
61.0
 20
70.249999999999943
 30
0.0
 11
174.0
 21
70.249999999999943
 31
0.0
  0
LINE
  8
OUTLINE
  6
CONTINUOUS
 62
     3
 10
176.0
 20
70.249999999999943
 30
0.0
 11
181.0
 21
70.249999999999943
 31
0.0
  0
LINE
  8
OUTLINE
  6
CONTINUOUS
 62
     3
 10
183.0
 20
70.249999999999943
 30
0.0
 11
184.0
 21
70.249999999999943
 31
0.0
  0
LINE
  8
OUTLINE
  6
CONTINUOUS
 62
     3
 10
77.200000000000045
 20
82.499999999999943
 30
0.0
 11
77.200000000000045
 21
79.999999999999943
 31
0.0
  0
LINE
  8
OUTLINE
  6
CONTINUOUS
 62
     3
 10
82.800000000000068
 20
79.999999999999943
 30
0.0
 11
82.800000000000068
 21
82.499999999999943
 31
0.0
  0
LINE
  8
OUTLINE
  6
CONTINUOUS
 62
     3
 10
-183.99999999999989
 20
72.249999999999943
 30
0.0
 11
-182.99999999999989
 21
72.249999999999943
 31
0.0
  0
LINE
  8
OUTLINE
  6
CONTINUOUS
 62
     3
 10
-180.99999999999989
 20
72.249999999999943
 30
0.0
 11
-175.99999999999989
 21
72.249999999999943
 31
0.0
  0
LINE
  8
OUTLINE
  6
CONTINUOUS
 62
     3
 10
-173.99999999999989
 20
72.249999999999943
 30
0.0
 11
-61.0
 21
72.249999999999943
 31
0.0
  0
LINE
  8
OUTLINE
  6
CONTINUOUS
 62
     3
 10
-59.0
 20
72.249999999999943
 30
0.0
 11
59.0
 21
72.249999999999943
 31
0.0
  0
LINE
  8
OUTLINE
  6
CONTINUOUS
 62
     3
 10
61.0
 20
72.249999999999943
 30
0.0
 11
174.0
 21
72.249999999999943
 31
0.0
  0
LINE
  8
OUTLINE
  6
CONTINUOUS
 62
     3
 10
176.0
 20
72.249999999999943
 30
0.0
 11
181.0
 21
72.249999999999943
 31
0.0
  0
LINE
  8
OUTLINE
  6
CONTINUOUS
 62
     3
 10
183.0
 20
72.249999999999943
 30
0.0
 11
184.0
 21
72.249999999999943
 31
0.0
  0
LINE
  8
OUTLINE
  6
CONTINUOUS
 62
     3
 10
-95.999999999999886
 20
72.499999999999943
 30
0.0
 11
-64.0
 21
72.499999999999943
 31
0.0
  0
LINE
  8
OUTLINE
  6
CONTINUOUS
 62
     3
 10
64.0
 20
72.499999999999943
 30
0.0
 11
96.0
 21
72.499999999999943
 31
0.0
  0
LINE
  8
OUTLINE
  6
CONTINUOUS
 62
     3
 10
-183.99999999999989
 20
77.749999999999943
 30
0.0
 11
-182.99999999999989
 21
77.749999999999943
 31
0.0
  0
LINE
  8
OUTLINE
  6
CONTINUOUS
 62
     3
 10
-180.99999999999989
 20
77.749999999999943
 30
0.0
 11
-175.99999999999989
 21
77.749999999999943
 31
0.0
  0
LINE
  8
OUTLINE
  6
CONTINUOUS
 62
     3
 10
-173.99999999999989
 20
77.749999999999943
 30
0.0
 11
-61.0
 21
77.749999999999943
 31
0.0
  0
LINE
  8
OUTLINE
  6
CONTINUOUS
 62
     3
 10
-59.0
 20
77.749999999999943
 30
0.0
 11
59.0
 21
77.749999999999943
 31
0.0
  0
LINE
  8
OUTLINE
  6
CONTINUOUS
 62
     3
 10
61.0
 20
77.749999999999943
 30
0.0
 11
174.0
 21
77.749999999999943
 31
0.0
  0
LINE
  8
OUTLINE
  6
CONTINUOUS
 62
     3
 10
176.0
 20
77.749999999999943
 30
0.0
 11
181.0
 21
77.749999999999943
 31
0.0
  0
LINE
  8
OUTLINE
  6
CONTINUOUS
 62
     3
 10
183.0
 20
77.749999999999943
 30
0.0
 11
184.0
 21
77.749999999999943
 31
0.0
  0
LINE
  8
OUTLINE
  6
CONTINUOUS
 62
     3
 10
-183.99999999999989
 20
79.749999999999943
 30
0.0
 11
-182.99999999999989
 21
79.749999999999943
 31
0.0
  0
LINE
  8
OUTLINE
  6
CONTINUOUS
 62
     3
 10
-180.99999999999989
 20
79.749999999999943
 30
0.0
 11
-175.99999999999989
 21
79.749999999999943
 31
0.0
  0
LINE
  8
OUTLINE
  6
CONTINUOUS
 62
     3
 10
-173.99999999999989
 20
79.749999999999943
 30
0.0
 11
-61.0
 21
79.749999999999943
 31
0.0
  0
LINE
  8
OUTLINE
  6
CONTINUOUS
 62
     3
 10
-59.0
 20
79.749999999999943
 30
0.0
 11
59.0
 21
79.749999999999943
 31
0.0
  0
LINE
  8
OUTLINE
  6
CONTINUOUS
 62
     3
 10
61.0
 20
79.749999999999943
 30
0.0
 11
174.0
 21
79.749999999999943
 31
0.0
  0
LINE
  8
OUTLINE
  6
CONTINUOUS
 62
     3
 10
176.0
 20
79.749999999999943
 30
0.0
 11
181.0
 21
79.749999999999943
 31
0.0
  0
LINE
  8
OUTLINE
  6
CONTINUOUS
 62
     3
 10
183.0
 20
79.749999999999943
 30
0.0
 11
184.0
 21
79.749999999999943
 31
0.0
  0
LINE
  8
OUTLINE
  6
CONTINUOUS
 62
     3
 10
-183.99999999999989
 20
85.249999999999943
 30
0.0
 11
-182.99999999999989
 21
85.249999999999943
 31
0.0
  0
LINE
  8
OUTLINE
  6
CONTINUOUS
 62
     3
 10
-180.99999999999989
 20
85.249999999999943
 30
0.0
 11
-175.99999999999989
 21
85.249999999999943
 31
0.0
  0
LINE
  8
OUTLINE
  6
CONTINUOUS
 62
     3
 10
-173.99999999999989
 20
85.249999999999943
 30
0.0
 11
-61.0
 21
85.249999999999943
 31
0.0
  0
LINE
  8
OUTLINE
  6
CONTINUOUS
 62
     3
 10
-59.0
 20
85.249999999999943
 30
0.0
 11
59.0
 21
85.249999999999943
 31
0.0
  0
LINE
  8
OUTLINE
  6
CONTINUOUS
 62
     3
 10
61.0
 20
85.249999999999943
 30
0.0
 11
174.0
 21
85.249999999999943
 31
0.0
  0
LINE
  8
OUTLINE
  6
CONTINUOUS
 62
     3
 10
176.0
 20
85.249999999999943
 30
0.0
 11
181.0
 21
85.249999999999943
 31
0.0
  0
LINE
  8
OUTLINE
  6
CONTINUOUS
 62
     3
 10
183.0
 20
85.249999999999943
 30
0.0
 11
184.0
 21
85.249999999999943
 31
0.0
  0
LINE
  8
OUTLINE
  6
CONTINUOUS
 62
     3
 10
-183.99999999999989
 20
87.249999999999943
 30
0.0
 11
-182.99999999999989
 21
87.249999999999943
 31
0.0
  0
LINE
  8
OUTLINE
  6
CONTINUOUS
 62
     3
 10
-180.99999999999989
 20
87.249999999999943
 30
0.0
 11
-175.99999999999989
 21
87.249999999999943
 31
0.0
  0
LINE
  8
OUTLINE
  6
CONTINUOUS
 62
     3
 10
-173.99999999999989
 20
87.249999999999943
 30
0.0
 11
-61.0
 21
87.249999999999943
 31
0.0
  0
LINE
  8
OUTLINE
  6
CONTINUOUS
 62
     3
 10
-59.0
 20
87.249999999999943
 30
0.0
 11
59.0
 21
87.249999999999943
 31
0.0
  0
LINE
  8
OUTLINE
  6
CONTINUOUS
 62
     3
 10
61.0
 20
87.249999999999943
 30
0.0
 11
174.0
 21
87.249999999999943
 31
0.0
  0
LINE
  8
OUTLINE
  6
CONTINUOUS
 62
     3
 10
176.0
 20
87.249999999999943
 30
0.0
 11
181.0
 21
87.249999999999943
 31
0.0
  0
LINE
  8
OUTLINE
  6
CONTINUOUS
 62
     3
 10
183.0
 20
87.249999999999943
 30
0.0
 11
184.0
 21
87.249999999999943
 31
0.0
  0
LINE
  8
OUTLINE
  6
CONTINUOUS
 62
     3
 10
99.0
 20
75.499999999999943
 30
0.0
 11
99.0
 21
77.749999999999943
 31
0.0
  0
LINE
  8
OUTLINE
  6
CONTINUOUS
 62
     3
 10
99.0
 20
79.749999999999943
 30
0.0
 11
99.0
 21
85.249999999999943
 31
0.0
  0
LINE
  8
OUTLINE
  6
CONTINUOUS
 62
     3
 10
99.0
 20
87.249999999999943
 30
0.0
 11
99.0
 21
92.749999999999943
 31
0.0
  0
LINE
  8
OUTLINE
  6
CONTINUOUS
 62
     3
 10
99.0
 20
93.499999999999943
 30
0.0
 11
99.0
 21
95.099999999999966
 31
0.0
  0
LINE
  8
OUTLINE
  6
CONTINUOUS
 62
     3
 10
96.0
 20
90.499999999999943
 30
0.0
 11
64.0
 21
90.499999999999943
 31
0.0
  0
LINE
  8
OUTLINE
  6
CONTINUOUS
 62
     3
 10
-64.0
 20
90.499999999999943
 30
0.0
 11
-95.999999999999886
 21
90.499999999999943
 31
0.0
  0
LINE
  8
OUTLINE
  6
CONTINUOUS
 62
     3
 10
-183.99999999999989
 20
92.749999999999943
 30
0.0
 11
-182.99999999999989
 21
92.749999999999943
 31
0.0
  0
LINE
  8
OUTLINE
  6
CONTINUOUS
 62
     3
 10
-180.99999999999989
 20
92.749999999999943
 30
0.0
 11
-175.99999999999989
 21
92.749999999999943
 31
0.0
  0
LINE
  8
OUTLINE
  6
CONTINUOUS
 62
     3
 10
-173.99999999999989
 20
92.749999999999943
 30
0.0
 11
-98.249999999999886
 21
92.749999999999943
 31
0.0
  0
LINE
  8
OUTLINE
  6
CONTINUOUS
 62
     3
 10
-61.75
 20
92.749999999999943
 30
0.0
 11
-61.0
 21
92.749999999999943
 31
0.0
  0
LINE
  8
OUTLINE
  6
CONTINUOUS
 62
     3
 10
-59.0
 20
92.749999999999943
 30
0.0
 11
59.0
 21
92.749999999999943
 31
0.0
  0
LINE
  8
OUTLINE
  6
CONTINUOUS
 62
     3
 10
61.0
 20
92.749999999999943
 30
0.0
 11
61.75
 21
92.749999999999943
 31
0.0
  0
LINE
  8
OUTLINE
  6
CONTINUOUS
 62
     3
 10
98.25
 20
92.749999999999943
 30
0.0
 11
174.0
 21
92.749999999999943
 31
0.0
  0
LINE
  8
OUTLINE
  6
CONTINUOUS
 62
     3
 10
176.0
 20
92.749999999999943
 30
0.0
 11
181.0
 21
92.749999999999943
 31
0.0
  0
LINE
  8
OUTLINE
  6
CONTINUOUS
 62
     3
 10
183.0
 20
92.749999999999943
 30
0.0
 11
184.0
 21
92.749999999999943
 31
0.0
  0
LINE
  8
OUTLINE
  6
CONTINUOUS
 62
     3
 10
-183.99999999999989
 20
94.749999999999943
 30
0.0
 11
-182.99999999999989
 21
94.749999999999943
 31
0.0
  0
LINE
  8
OUTLINE
  6
CONTINUOUS
 62
     3
 10
-180.99999999999989
 20
94.749999999999943
 30
0.0
 11
-175.99999999999989
 21
94.749999999999943
 31
0.0
  0
LINE
  8
OUTLINE
  6
CONTINUOUS
 62
     3
 10
-173.99999999999989
 20
94.749999999999943
 30
0.0
 11
-98.999999999999886
 21
94.749999999999943
 31
0.0
  0
LINE
  8
OUTLINE
  6
CONTINUOUS
 62
     3
 10
-59.0
 20
94.749999999999943
 30
0.0
 11
59.0
 21
94.749999999999943
 31
0.0
  0
LINE
  8
OUTLINE
  6
CONTINUOUS
 62
     3
 10
99.0
 20
94.749999999999943
 30
0.0
 11
174.0
 21
94.749999999999943
 31
0.0
  0
LINE
  8
OUTLINE
  6
CONTINUOUS
 62
     3
 10
176.0
 20
94.749999999999943
 30
0.0
 11
181.0
 21
94.749999999999943
 31
0.0
  0
LINE
  8
OUTLINE
  6
CONTINUOUS
 62
     3
 10
183.0
 20
94.749999999999943
 30
0.0
 11
184.0
 21
94.749999999999943
 31
0.0
  0
LINE
  8
OUTLINE
  6
CONTINUOUS
 62
     3
 10
99.0
 20
95.099999999999966
 30
0.0
 11
61.0
 21
95.099999999999966
 31
0.0
  0
LINE
  8
OUTLINE
  6
CONTINUOUS
 62
     3
 10
-61.0
 20
95.099999999999966
 30
0.0
 11
-98.999999999999886
 21
95.099999999999966
 31
0.0
  0
LINE
  8
OUTLINE
  6
CONTINUOUS
 62
     3
 10
-183.99999999999989
 20
100.2499999999999
 30
0.0
 11
-182.99999999999989
 21
100.2499999999999
 31
0.0
  0
LINE
  8
OUTLINE
  6
CONTINUOUS
 62
     3
 10
-180.99999999999989
 20
100.2499999999999
 30
0.0
 11
-175.99999999999989
 21
100.2499999999999
 31
0.0
  0
LINE
  8
OUTLINE
  6
CONTINUOUS
 62
     3
 10
-173.99999999999989
 20
100.2499999999999
 30
0.0
 11
-61.0
 21
100.2499999999999
 31
0.0
  0
LINE
  8
OUTLINE
  6
CONTINUOUS
 62
     3
 10
-59.0
 20
100.2499999999999
 30
0.0
 11
59.0
 21
100.2499999999999
 31
0.0
  0
LINE
  8
OUTLINE
  6
CONTINUOUS
 62
     3
 10
61.0
 20
100.2499999999999
 30
0.0
 11
174.0
 21
100.2499999999999
 31
0.0
  0
LINE
  8
OUTLINE
  6
CONTINUOUS
 62
     3
 10
176.0
 20
100.2499999999999
 30
0.0
 11
181.0
 21
100.2499999999999
 31
0.0
  0
LINE
  8
OUTLINE
  6
CONTINUOUS
 62
     3
 10
183.0
 20
100.2499999999999
 30
0.0
 11
184.0
 21
100.2499999999999
 31
0.0
  0
LINE
  8
OUTLINE
  6
CONTINUOUS
 62
     3
 10
-183.99999999999989
 20
102.2499999999999
 30
0.0
 11
-182.99999999999989
 21
102.2499999999999
 31
0.0
  0
LINE
  8
OUTLINE
  6
CONTINUOUS
 62
     3
 10
-180.99999999999989
 20
102.2499999999999
 30
0.0
 11
-175.99999999999989
 21
102.2499999999999
 31
0.0
  0
LINE
  8
OUTLINE
  6
CONTINUOUS
 62
     3
 10
-173.99999999999989
 20
102.2499999999999
 30
0.0
 11
-61.0
 21
102.2499999999999
 31
0.0
  0
LINE
  8
OUTLINE
  6
CONTINUOUS
 62
     3
 10
-59.0
 20
102.2499999999999
 30
0.0
 11
59.0
 21
102.2499999999999
 31
0.0
  0
LINE
  8
OUTLINE
  6
CONTINUOUS
 62
     3
 10
61.0
 20
102.2499999999999
 30
0.0
 11
174.0
 21
102.2499999999999
 31
0.0
  0
LINE
  8
OUTLINE
  6
CONTINUOUS
 62
     3
 10
176.0
 20
102.2499999999999
 30
0.0
 11
181.0
 21
102.2499999999999
 31
0.0
  0
LINE
  8
OUTLINE
  6
CONTINUOUS
 62
     3
 10
183.0
 20
102.2499999999999
 30
0.0
 11
184.0
 21
102.2499999999999
 31
0.0
  0
LINE
  8
OUTLINE
  6
CONTINUOUS
 62
     3
 10
61.0
 20
75.499999999999943
 30
0.0
 11
64.0
 21
72.499999999999943
 31
0.0
  0
LINE
  8
OUTLINE
  6
CONTINUOUS
 62
     3
 10
-183.99999999999989
 20
107.7499999999999
 30
0.0
 11
-182.99999999999989
 21
107.7499999999999
 31
0.0
  0
LINE
  8
OUTLINE
  6
CONTINUOUS
 62
     3
 10
-180.99999999999989
 20
107.7499999999999
 30
0.0
 11
-175.99999999999989
 21
107.7499999999999
 31
0.0
  0
LINE
  8
OUTLINE
  6
CONTINUOUS
 62
     3
 10
-173.99999999999989
 20
107.7499999999999
 30
0.0
 11
-61.0
 21
107.7499999999999
 31
0.0
  0
LINE
  8
OUTLINE
  6
CONTINUOUS
 62
     3
 10
-59.0
 20
107.7499999999999
 30
0.0
 11
59.0
 21
107.7499999999999
 31
0.0
  0
LINE
  8
OUTLINE
  6
CONTINUOUS
 62
     3
 10
61.0
 20
107.7499999999999
 30
0.0
 11
174.0
 21
107.7499999999999
 31
0.0
  0
LINE
  8
OUTLINE
  6
CONTINUOUS
 62
     3
 10
176.0
 20
107.7499999999999
 30
0.0
 11
181.0
 21
107.7499999999999
 31
0.0
  0
LINE
  8
OUTLINE
  6
CONTINUOUS
 62
     3
 10
183.0
 20
107.7499999999999
 30
0.0
 11
184.0
 21
107.7499999999999
 31
0.0
  0
LINE
  8
OUTLINE
  6
CONTINUOUS
 62
     3
 10
-183.99999999999989
 20
109.7499999999999
 30
0.0
 11
-182.99999999999989
 21
109.7499999999999
 31
0.0
  0
LINE
  8
OUTLINE
  6
CONTINUOUS
 62
     3
 10
-180.99999999999989
 20
109.7499999999999
 30
0.0
 11
-175.99999999999989
 21
109.7499999999999
 31
0.0
  0
LINE
  8
OUTLINE
  6
CONTINUOUS
 62
     3
 10
-173.99999999999989
 20
109.7499999999999
 30
0.0
 11
-61.0
 21
109.7499999999999
 31
0.0
  0
LINE
  8
OUTLINE
  6
CONTINUOUS
 62
     3
 10
-59.0
 20
109.7499999999999
 30
0.0
 11
59.0
 21
109.7499999999999
 31
0.0
  0
LINE
  8
OUTLINE
  6
CONTINUOUS
 62
     3
 10
61.0
 20
109.7499999999999
 30
0.0
 11
174.0
 21
109.7499999999999
 31
0.0
  0
LINE
  8
OUTLINE
  6
CONTINUOUS
 62
     3
 10
176.0
 20
109.7499999999999
 30
0.0
 11
181.0
 21
109.7499999999999
 31
0.0
  0
LINE
  8
OUTLINE
  6
CONTINUOUS
 62
     3
 10
183.0
 20
109.7499999999999
 30
0.0
 11
184.0
 21
109.7499999999999
 31
0.0
  0
LINE
  8
OUTLINE
  6
CONTINUOUS
 62
     3
 10
-183.99999999999989
 20
115.2499999999999
 30
0.0
 11
-182.99999999999989
 21
115.2499999999999
 31
0.0
  0
LINE
  8
OUTLINE
  6
CONTINUOUS
 62
     3
 10
-180.99999999999989
 20
115.2499999999999
 30
0.0
 11
-175.99999999999989
 21
115.2499999999999
 31
0.0
  0
LINE
  8
OUTLINE
  6
CONTINUOUS
 62
     3
 10
-173.99999999999989
 20
115.2499999999999
 30
0.0
 11
-61.0
 21
115.2499999999999
 31
0.0
  0
LINE
  8
OUTLINE
  6
CONTINUOUS
 62
     3
 10
-59.0
 20
115.2499999999999
 30
0.0
 11
59.0
 21
115.2499999999999
 31
0.0
  0
LINE
  8
OUTLINE
  6
CONTINUOUS
 62
     3
 10
61.0
 20
115.2499999999999
 30
0.0
 11
174.0
 21
115.2499999999999
 31
0.0
  0
LINE
  8
OUTLINE
  6
CONTINUOUS
 62
     3
 10
176.0
 20
115.2499999999999
 30
0.0
 11
181.0
 21
115.2499999999999
 31
0.0
  0
LINE
  8
OUTLINE
  6
CONTINUOUS
 62
     3
 10
183.0
 20
115.2499999999999
 30
0.0
 11
184.0
 21
115.2499999999999
 31
0.0
  0
LINE
  8
OUTLINE
  6
CONTINUOUS
 62
     3
 10
-183.99999999999989
 20
117.2499999999999
 30
0.0
 11
-182.99999999999989
 21
117.2499999999999
 31
0.0
  0
LINE
  8
OUTLINE
  6
CONTINUOUS
 62
     3
 10
-180.99999999999989
 20
117.2499999999999
 30
0.0
 11
-175.99999999999989
 21
117.2499999999999
 31
0.0
  0
LINE
  8
OUTLINE
  6
CONTINUOUS
 62
     3
 10
-173.99999999999989
 20
117.2499999999999
 30
0.0
 11
-61.0
 21
117.2499999999999
 31
0.0
  0
LINE
  8
OUTLINE
  6
CONTINUOUS
 62
     3
 10
-59.0
 20
117.2499999999999
 30
0.0
 11
59.0
 21
117.2499999999999
 31
0.0
  0
LINE
  8
OUTLINE
  6
CONTINUOUS
 62
     3
 10
61.0
 20
117.2499999999999
 30
0.0
 11
174.0
 21
117.2499999999999
 31
0.0
  0
LINE
  8
OUTLINE
  6
CONTINUOUS
 62
     3
 10
176.0
 20
117.2499999999999
 30
0.0
 11
181.0
 21
117.2499999999999
 31
0.0
  0
LINE
  8
OUTLINE
  6
CONTINUOUS
 62
     3
 10
183.0
 20
117.2499999999999
 30
0.0
 11
184.0
 21
117.2499999999999
 31
0.0
  0
LINE
  8
OUTLINE
  6
CONTINUOUS
 62
     3
 10
-183.99999999999989
 20
122.7499999999999
 30
0.0
 11
-182.99999999999989
 21
122.7499999999999
 31
0.0
  0
LINE
  8
OUTLINE
  6
CONTINUOUS
 62
     3
 10
-180.99999999999989
 20
122.7499999999999
 30
0.0
 11
-175.99999999999989
 21
122.7499999999999
 31
0.0
  0
LINE
  8
OUTLINE
  6
CONTINUOUS
 62
     3
 10
-173.99999999999989
 20
122.7499999999999
 30
0.0
 11
-61.0
 21
122.7499999999999
 31
0.0
  0
LINE
  8
OUTLINE
  6
CONTINUOUS
 62
     3
 10
-59.0
 20
122.7499999999999
 30
0.0
 11
59.0
 21
122.7499999999999
 31
0.0
  0
LINE
  8
OUTLINE
  6
CONTINUOUS
 62
     3
 10
61.0
 20
122.7499999999999
 30
0.0
 11
174.0
 21
122.7499999999999
 31
0.0
  0
LINE
  8
OUTLINE
  6
CONTINUOUS
 62
     3
 10
176.0
 20
122.7499999999999
 30
0.0
 11
181.0
 21
122.7499999999999
 31
0.0
  0
LINE
  8
OUTLINE
  6
CONTINUOUS
 62
     3
 10
183.0
 20
122.7499999999999
 30
0.0
 11
184.0
 21
122.7499999999999
 31
0.0
  0
LINE
  8
OUTLINE
  6
CONTINUOUS
 62
     3
 10
61.0
 20
93.499999999999943
 30
0.0
 11
64.0
 21
90.499999999999943
 31
0.0
  0
LINE
  8
OUTLINE
  6
CONTINUOUS
 62
     3
 10
-183.99999999999989
 20
124.7499999999999
 30
0.0
 11
-182.99999999999989
 21
124.7499999999999
 31
0.0
  0
LINE
  8
OUTLINE
  6
CONTINUOUS
 62
     3
 10
-180.99999999999989
 20
124.7499999999999
 30
0.0
 11
-175.99999999999989
 21
124.7499999999999
 31
0.0
  0
LINE
  8
OUTLINE
  6
CONTINUOUS
 62
     3
 10
-173.99999999999989
 20
124.7499999999999
 30
0.0
 11
-61.0
 21
124.7499999999999
 31
0.0
  0
LINE
  8
OUTLINE
  6
CONTINUOUS
 62
     3
 10
-59.0
 20
124.7499999999999
 30
0.0
 11
59.0
 21
124.7499999999999
 31
0.0
  0
LINE
  8
OUTLINE
  6
CONTINUOUS
 62
     3
 10
61.0
 20
124.7499999999999
 30
0.0
 11
174.0
 21
124.7499999999999
 31
0.0
  0
LINE
  8
OUTLINE
  6
CONTINUOUS
 62
     3
 10
176.0
 20
124.7499999999999
 30
0.0
 11
181.0
 21
124.7499999999999
 31
0.0
  0
LINE
  8
OUTLINE
  6
CONTINUOUS
 62
     3
 10
183.0
 20
124.7499999999999
 30
0.0
 11
184.0
 21
124.7499999999999
 31
0.0
  0
LINE
  8
OUTLINE
  6
CONTINUOUS
 62
     3
 10
-183.99999999999989
 20
130.25
 30
0.0
 11
-182.99999999999989
 21
130.25
 31
0.0
  0
LINE
  8
OUTLINE
  6
CONTINUOUS
 62
     3
 10
-180.99999999999989
 20
130.25
 30
0.0
 11
-175.99999999999989
 21
130.25
 31
0.0
  0
LINE
  8
OUTLINE
  6
CONTINUOUS
 62
     3
 10
-173.99999999999989
 20
130.25
 30
0.0
 11
-61.0
 21
130.25
 31
0.0
  0
LINE
  8
OUTLINE
  6
CONTINUOUS
 62
     3
 10
-59.0
 20
130.25
 30
0.0
 11
59.0
 21
130.25
 31
0.0
  0
LINE
  8
OUTLINE
  6
CONTINUOUS
 62
     3
 10
61.0
 20
130.25
 30
0.0
 11
174.0
 21
130.25
 31
0.0
  0
LINE
  8
OUTLINE
  6
CONTINUOUS
 62
     3
 10
176.0
 20
130.25
 30
0.0
 11
181.0
 21
130.25
 31
0.0
  0
LINE
  8
OUTLINE
  6
CONTINUOUS
 62
     3
 10
183.0
 20
130.25
 30
0.0
 11
184.0
 21
130.25
 31
0.0
  0
LINE
  8
OUTLINE
  6
CONTINUOUS
 62
     3
 10
-183.99999999999989
 20
132.25
 30
0.0
 11
-182.99999999999989
 21
132.25
 31
0.0
  0
LINE
  8
OUTLINE
  6
CONTINUOUS
 62
     3
 10
-180.99999999999989
 20
132.25
 30
0.0
 11
-175.99999999999989
 21
132.25
 31
0.0
  0
LINE
  8
OUTLINE
  6
CONTINUOUS
 62
     3
 10
-173.99999999999989
 20
132.25
 30
0.0
 11
-61.0
 21
132.25
 31
0.0
  0
LINE
  8
OUTLINE
  6
CONTINUOUS
 62
     3
 10
-59.0
 20
132.25
 30
0.0
 11
59.0
 21
132.25
 31
0.0
  0
LINE
  8
OUTLINE
  6
CONTINUOUS
 62
     3
 10
61.0
 20
132.25
 30
0.0
 11
174.0
 21
132.25
 31
0.0
  0
LINE
  8
OUTLINE
  6
CONTINUOUS
 62
     3
 10
176.0
 20
132.25
 30
0.0
 11
181.0
 21
132.25
 31
0.0
  0
LINE
  8
OUTLINE
  6
CONTINUOUS
 62
     3
 10
183.0
 20
132.25
 30
0.0
 11
184.0
 21
132.25
 31
0.0
  0
LINE
  8
OUTLINE
  6
CONTINUOUS
 62
     3
 10
-183.99999999999989
 20
137.75
 30
0.0
 11
-182.99999999999989
 21
137.75
 31
0.0
  0
LINE
  8
OUTLINE
  6
CONTINUOUS
 62
     3
 10
-180.99999999999989
 20
137.75
 30
0.0
 11
-175.99999999999989
 21
137.75
 31
0.0
  0
LINE
  8
OUTLINE
  6
CONTINUOUS
 62
     3
 10
-173.99999999999989
 20
137.75
 30
0.0
 11
-61.0
 21
137.75
 31
0.0
  0
LINE
  8
OUTLINE
  6
CONTINUOUS
 62
     3
 10
-59.0
 20
137.75
 30
0.0
 11
59.0
 21
137.75
 31
0.0
  0
LINE
  8
OUTLINE
  6
CONTINUOUS
 62
     3
 10
61.0
 20
137.75
 30
0.0
 11
174.0
 21
137.75
 31
0.0
  0
LINE
  8
OUTLINE
  6
CONTINUOUS
 62
     3
 10
176.0
 20
137.75
 30
0.0
 11
181.0
 21
137.75
 31
0.0
  0
LINE
  8
OUTLINE
  6
CONTINUOUS
 62
     3
 10
183.0
 20
137.75
 30
0.0
 11
184.0
 21
137.75
 31
0.0
  0
LINE
  8
OUTLINE
  6
CONTINUOUS
 62
     3
 10
-183.99999999999989
 20
139.75
 30
0.0
 11
-182.99999999999989
 21
139.75
 31
0.0
  0
LINE
  8
OUTLINE
  6
CONTINUOUS
 62
     3
 10
-180.99999999999989
 20
139.75
 30
0.0
 11
-175.99999999999989
 21
139.75
 31
0.0
  0
LINE
  8
OUTLINE
  6
CONTINUOUS
 62
     3
 10
-173.99999999999989
 20
139.75
 30
0.0
 11
-61.0
 21
139.75
 31
0.0
  0
LINE
  8
OUTLINE
  6
CONTINUOUS
 62
     3
 10
-59.0
 20
139.75
 30
0.0
 11
59.0
 21
139.75
 31
0.0
  0
LINE
  8
OUTLINE
  6
CONTINUOUS
 62
     3
 10
61.0
 20
139.75
 30
0.0
 11
174.0
 21
139.75
 31
0.0
  0
LINE
  8
OUTLINE
  6
CONTINUOUS
 62
     3
 10
176.0
 20
139.75
 30
0.0
 11
181.0
 21
139.75
 31
0.0
  0
LINE
  8
OUTLINE
  6
CONTINUOUS
 62
     3
 10
183.0
 20
139.75
 30
0.0
 11
184.0
 21
139.75
 31
0.0
  0
LINE
  8
OUTLINE
  6
CONTINUOUS
 62
     3
 10
-183.99999999999989
 20
145.25
 30
0.0
 11
-182.99999999999989
 21
145.25
 31
0.0
  0
LINE
  8
OUTLINE
  6
CONTINUOUS
 62
     3
 10
-180.99999999999989
 20
145.25
 30
0.0
 11
-175.99999999999989
 21
145.25
 31
0.0
  0
LINE
  8
OUTLINE
  6
CONTINUOUS
 62
     3
 10
-173.99999999999989
 20
145.25
 30
0.0
 11
-61.0
 21
145.25
 31
0.0
  0
LINE
  8
OUTLINE
  6
CONTINUOUS
 62
     3
 10
-59.0
 20
145.25
 30
0.0
 11
59.0
 21
145.25
 31
0.0
  0
LINE
  8
OUTLINE
  6
CONTINUOUS
 62
     3
 10
61.0
 20
145.25
 30
0.0
 11
174.0
 21
145.25
 31
0.0
  0
LINE
  8
OUTLINE
  6
CONTINUOUS
 62
     3
 10
176.0
 20
145.25
 30
0.0
 11
181.0
 21
145.25
 31
0.0
  0
LINE
  8
OUTLINE
  6
CONTINUOUS
 62
     3
 10
183.0
 20
145.25
 30
0.0
 11
184.0
 21
145.25
 31
0.0
  0
LINE
  8
OUTLINE
  6
CONTINUOUS
 62
     3
 10
-183.99999999999989
 20
147.25
 30
0.0
 11
-182.99999999999989
 21
147.25
 31
0.0
  0
LINE
  8
OUTLINE
  6
CONTINUOUS
 62
     3
 10
-180.99999999999989
 20
147.25
 30
0.0
 11
-175.99999999999989
 21
147.25
 31
0.0
  0
LINE
  8
OUTLINE
  6
CONTINUOUS
 62
     3
 10
-173.99999999999989
 20
147.25
 30
0.0
 11
-61.0
 21
147.25
 31
0.0
  0
LINE
  8
OUTLINE
  6
CONTINUOUS
 62
     3
 10
-59.0
 20
147.25
 30
0.0
 11
59.0
 21
147.25
 31
0.0
  0
LINE
  8
OUTLINE
  6
CONTINUOUS
 62
     3
 10
61.0
 20
147.25
 30
0.0
 11
174.0
 21
147.25
 31
0.0
  0
LINE
  8
OUTLINE
  6
CONTINUOUS
 62
     3
 10
176.0
 20
147.25
 30
0.0
 11
181.0
 21
147.25
 31
0.0
  0
LINE
  8
OUTLINE
  6
CONTINUOUS
 62
     3
 10
183.0
 20
147.25
 30
0.0
 11
184.0
 21
147.25
 31
0.0
  0
LINE
  8
OUTLINE
  6
CONTINUOUS
 62
     3
 10
-183.99999999999989
 20
152.75
 30
0.0
 11
-182.99999999999989
 21
152.75
 31
0.0
  0
LINE
  8
OUTLINE
  6
CONTINUOUS
 62
     3
 10
-180.99999999999989
 20
152.75
 30
0.0
 11
-175.99999999999989
 21
152.75
 31
0.0
  0
LINE
  8
OUTLINE
  6
CONTINUOUS
 62
     3
 10
-173.99999999999989
 20
152.75
 30
0.0
 11
-61.0
 21
152.75
 31
0.0
  0
LINE
  8
OUTLINE
  6
CONTINUOUS
 62
     3
 10
-59.0
 20
152.75
 30
0.0
 11
59.0
 21
152.75
 31
0.0
  0
LINE
  8
OUTLINE
  6
CONTINUOUS
 62
     3
 10
61.0
 20
152.75
 30
0.0
 11
174.0
 21
152.75
 31
0.0
  0
LINE
  8
OUTLINE
  6
CONTINUOUS
 62
     3
 10
176.0
 20
152.75
 30
0.0
 11
181.0
 21
152.75
 31
0.0
  0
LINE
  8
OUTLINE
  6
CONTINUOUS
 62
     3
 10
183.0
 20
152.75
 30
0.0
 11
184.0
 21
152.75
 31
0.0
  0
LINE
  8
OUTLINE
  6
CONTINUOUS
 62
     3
 10
-183.99999999999989
 20
154.75
 30
0.0
 11
-182.99999999999989
 21
154.75
 31
0.0
  0
LINE
  8
OUTLINE
  6
CONTINUOUS
 62
     3
 10
-180.99999999999989
 20
154.75
 30
0.0
 11
-175.99999999999989
 21
154.75
 31
0.0
  0
LINE
  8
OUTLINE
  6
CONTINUOUS
 62
     3
 10
-173.99999999999989
 20
154.75
 30
0.0
 11
-61.0
 21
154.75
 31
0.0
  0
LINE
  8
OUTLINE
  6
CONTINUOUS
 62
     3
 10
-59.0
 20
154.75
 30
0.0
 11
59.0
 21
154.75
 31
0.0
  0
LINE
  8
OUTLINE
  6
CONTINUOUS
 62
     3
 10
61.0
 20
154.75
 30
0.0
 11
174.0
 21
154.75
 31
0.0
  0
LINE
  8
OUTLINE
  6
CONTINUOUS
 62
     3
 10
176.0
 20
154.75
 30
0.0
 11
181.0
 21
154.75
 31
0.0
  0
LINE
  8
OUTLINE
  6
CONTINUOUS
 62
     3
 10
183.0
 20
154.75
 30
0.0
 11
184.0
 21
154.75
 31
0.0
  0
LINE
  8
OUTLINE
  6
CONTINUOUS
 62
     3
 10
174.0
 20
182.0
 30
0.0
 11
174.0
 21
-182.0
 31
0.0
  0
LINE
  8
OUTLINE
  6
CONTINUOUS
 62
     3
 10
176.0
 20
182.0
 30
0.0
 11
176.0
 21
-182.0
 31
0.0
  0
LINE
  8
OUTLINE
  6
CONTINUOUS
 62
     3
 10
-183.99999999999989
 20
160.25
 30
0.0
 11
-182.99999999999989
 21
160.25
 31
0.0
  0
LINE
  8
OUTLINE
  6
CONTINUOUS
 62
     3
 10
-180.99999999999989
 20
160.25
 30
0.0
 11
-175.99999999999989
 21
160.25
 31
0.0
  0
LINE
  8
OUTLINE
  6
CONTINUOUS
 62
     3
 10
-173.99999999999989
 20
160.25
 30
0.0
 11
-61.0
 21
160.25
 31
0.0
  0
LINE
  8
OUTLINE
  6
CONTINUOUS
 62
     3
 10
-59.0
 20
160.25
 30
0.0
 11
59.0
 21
160.25
 31
0.0
  0
LINE
  8
OUTLINE
  6
CONTINUOUS
 62
     3
 10
61.0
 20
160.25
 30
0.0
 11
174.0
 21
160.25
 31
0.0
  0
LINE
  8
OUTLINE
  6
CONTINUOUS
 62
     3
 10
176.0
 20
160.25
 30
0.0
 11
181.0
 21
160.25
 31
0.0
  0
LINE
  8
OUTLINE
  6
CONTINUOUS
 62
     3
 10
183.0
 20
160.25
 30
0.0
 11
184.0
 21
160.25
 31
0.0
  0
LINE
  8
OUTLINE
  6
CONTINUOUS
 62
     3
 10
-183.99999999999989
 20
162.25
 30
0.0
 11
-182.99999999999989
 21
162.25
 31
0.0
  0
LINE
  8
OUTLINE
  6
CONTINUOUS
 62
     3
 10
-180.99999999999989
 20
162.25
 30
0.0
 11
-175.99999999999989
 21
162.25
 31
0.0
  0
LINE
  8
OUTLINE
  6
CONTINUOUS
 62
     3
 10
-173.99999999999989
 20
162.25
 30
0.0
 11
-61.0
 21
162.25
 31
0.0
  0
LINE
  8
OUTLINE
  6
CONTINUOUS
 62
     3
 10
-59.0
 20
162.25
 30
0.0
 11
59.0
 21
162.25
 31
0.0
  0
LINE
  8
OUTLINE
  6
CONTINUOUS
 62
     3
 10
61.0
 20
162.25
 30
0.0
 11
174.0
 21
162.25
 31
0.0
  0
LINE
  8
OUTLINE
  6
CONTINUOUS
 62
     3
 10
176.0
 20
162.25
 30
0.0
 11
181.0
 21
162.25
 31
0.0
  0
LINE
  8
OUTLINE
  6
CONTINUOUS
 62
     3
 10
183.0
 20
162.25
 30
0.0
 11
184.0
 21
162.25
 31
0.0
  0
LINE
  8
OUTLINE
  6
CONTINUOUS
 62
     3
 10
-183.99999999999989
 20
167.75
 30
0.0
 11
-182.99999999999989
 21
167.75
 31
0.0
  0
LINE
  8
OUTLINE
  6
CONTINUOUS
 62
     3
 10
-180.99999999999989
 20
167.75
 30
0.0
 11
-175.99999999999989
 21
167.75
 31
0.0
  0
LINE
  8
OUTLINE
  6
CONTINUOUS
 62
     3
 10
-173.99999999999989
 20
167.75
 30
0.0
 11
-61.0
 21
167.75
 31
0.0
  0
LINE
  8
OUTLINE
  6
CONTINUOUS
 62
     3
 10
-59.0
 20
167.75
 30
0.0
 11
59.0
 21
167.75
 31
0.0
  0
LINE
  8
OUTLINE
  6
CONTINUOUS
 62
     3
 10
61.0
 20
167.75
 30
0.0
 11
174.0
 21
167.75
 31
0.0
  0
LINE
  8
OUTLINE
  6
CONTINUOUS
 62
     3
 10
176.0
 20
167.75
 30
0.0
 11
181.0
 21
167.75
 31
0.0
  0
LINE
  8
OUTLINE
  6
CONTINUOUS
 62
     3
 10
183.0
 20
167.75
 30
0.0
 11
184.0
 21
167.75
 31
0.0
  0
LINE
  8
OUTLINE
  6
CONTINUOUS
 62
     3
 10
-183.99999999999989
 20
169.75
 30
0.0
 11
-182.99999999999989
 21
169.75
 31
0.0
  0
LINE
  8
OUTLINE
  6
CONTINUOUS
 62
     3
 10
-180.99999999999989
 20
169.75
 30
0.0
 11
-175.99999999999989
 21
169.75
 31
0.0
  0
LINE
  8
OUTLINE
  6
CONTINUOUS
 62
     3
 10
-173.99999999999989
 20
169.75
 30
0.0
 11
-61.0
 21
169.75
 31
0.0
  0
LINE
  8
OUTLINE
  6
CONTINUOUS
 62
     3
 10
-59.0
 20
169.75
 30
0.0
 11
59.0
 21
169.75
 31
0.0
  0
LINE
  8
OUTLINE
  6
CONTINUOUS
 62
     3
 10
61.0
 20
169.75
 30
0.0
 11
174.0
 21
169.75
 31
0.0
  0
LINE
  8
OUTLINE
  6
CONTINUOUS
 62
     3
 10
176.0
 20
169.75
 30
0.0
 11
181.0
 21
169.75
 31
0.0
  0
LINE
  8
OUTLINE
  6
CONTINUOUS
 62
     3
 10
183.0
 20
169.75
 30
0.0
 11
184.0
 21
169.75
 31
0.0
  0
LINE
  8
OUTLINE
  6
CONTINUOUS
 62
     3
 10
-183.99999999999989
 20
175.25
 30
0.0
 11
-182.99999999999989
 21
175.25
 31
0.0
  0
LINE
  8
OUTLINE
  6
CONTINUOUS
 62
     3
 10
-180.99999999999989
 20
175.25
 30
0.0
 11
-175.99999999999989
 21
175.25
 31
0.0
  0
LINE
  8
OUTLINE
  6
CONTINUOUS
 62
     3
 10
-173.99999999999989
 20
175.25
 30
0.0
 11
-61.0
 21
175.25
 31
0.0
  0
LINE
  8
OUTLINE
  6
CONTINUOUS
 62
     3
 10
-59.0
 20
175.25
 30
0.0
 11
59.0
 21
175.25
 31
0.0
  0
LINE
  8
OUTLINE
  6
CONTINUOUS
 62
     3
 10
61.0
 20
175.25
 30
0.0
 11
174.0
 21
175.25
 31
0.0
  0
LINE
  8
OUTLINE
  6
CONTINUOUS
 62
     3
 10
176.0
 20
175.25
 30
0.0
 11
181.0
 21
175.25
 31
0.0
  0
LINE
  8
OUTLINE
  6
CONTINUOUS
 62
     3
 10
183.0
 20
175.25
 30
0.0
 11
184.0
 21
175.25
 31
0.0
  0
LINE
  8
OUTLINE
  6
CONTINUOUS
 62
     3
 10
181.0
 20
181.0
 30
0.0
 11
181.0
 21
-181.0
 31
0.0
  0
LINE
  8
OUTLINE
  6
CONTINUOUS
 62
     3
 10
183.0
 20
181.0
 30
0.0
 11
183.0
 21
-181.0
 31
0.0
  0
LINE
  8
OUTLINE
  6
CONTINUOUS
 62
     3
 10
-183.99999999999989
 20
177.25
 30
0.0
 11
-182.99999999999989
 21
177.25
 31
0.0
  0
LINE
  8
OUTLINE
  6
CONTINUOUS
 62
     3
 10
-180.99999999999989
 20
177.25
 30
0.0
 11
-175.99999999999989
 21
177.25
 31
0.0
  0
LINE
  8
OUTLINE
  6
CONTINUOUS
 62
     3
 10
-173.99999999999989
 20
177.25
 30
0.0
 11
-61.0
 21
177.25
 31
0.0
  0
LINE
  8
OUTLINE
  6
CONTINUOUS
 62
     3
 10
-59.0
 20
177.25
 30
0.0
 11
59.0
 21
177.25
 31
0.0
  0
LINE
  8
OUTLINE
  6
CONTINUOUS
 62
     3
 10
61.0
 20
177.25
 30
0.0
 11
174.0
 21
177.25
 31
0.0
  0
LINE
  8
OUTLINE
  6
CONTINUOUS
 62
     3
 10
176.0
 20
177.25
 30
0.0
 11
181.0
 21
177.25
 31
0.0
  0
LINE
  8
OUTLINE
  6
CONTINUOUS
 62
     3
 10
183.0
 20
177.25
 30
0.0
 11
184.0
 21
177.25
 31
0.0
  0
LINE
  8
OUTLINE
  6
CONTINUOUS
 62
     3
 10
-178.99999999999989
 20
183.0
 30
0.0
 11
179.0
 21
183.0
 31
0.0
  0
LINE
  8
OUTLINE
  6
CONTINUOUS
 62
     3
 10
-178.99999999999989
 20
185.0
 30
0.0
 11
179.0
 21
185.0
 31
0.0
  0
ARC
  8
OUTLINE
  6
CONTINUOUS
 62
     3
 10
-178.99999999999989
 20
-181.0
 30
0.0
 40
4.0
 50
180.0
 51
270.0
  0
ARC
  8
OUTLINE
  6
CONTINUOUS
 62
     3
 10
-178.99999999999989
 20
-181.0
 30
0.0
 40
2.0
 50
180.0
 51
270.0
  0
CIRCLE
  8
OUTLINE
  6
CONTINUOUS
 62
     3
 10
-174.99999999999989
 20
-182.0
 30
0.0
 40
1.0
  0
CIRCLE
  8
OUTLINE
  6
CONTINUOUS
 62
     3
 10
-183.99999999999989
 20
-101.2500000000001
 30
0.0
 40
1.0
  0
CIRCLE
  8
OUTLINE
  6
CONTINUOUS
 62
     3
 10
-183.99999999999989
 20
-108.7500000000001
 30
0.0
 40
1.0
  0
CIRCLE
  8
OUTLINE
  6
CONTINUOUS
 62
     3
 10
-183.99999999999989
 20
-116.2500000000001
 30
0.0
 40
1.0
  0
CIRCLE
  8
OUTLINE
  6
CONTINUOUS
 62
     3
 10
-183.99999999999989
 20
-123.7500000000001
 30
0.0
 40
1.0
  0
CIRCLE
  8
OUTLINE
  6
CONTINUOUS
 62
     3
 10
-183.99999999999989
 20
-131.25
 30
0.0
 40
1.0
  0
CIRCLE
  8
OUTLINE
  6
CONTINUOUS
 62
     3
 10
-183.99999999999989
 20
-138.75
 30
0.0
 40
1.0
  0
CIRCLE
  8
OUTLINE
  6
CONTINUOUS
 62
     3
 10
-183.99999999999989
 20
-146.25
 30
0.0
 40
1.0
  0
CIRCLE
  8
OUTLINE
  6
CONTINUOUS
 62
     3
 10
-183.99999999999989
 20
-153.75
 30
0.0
 40
1.0
  0
CIRCLE
  8
OUTLINE
  6
CONTINUOUS
 62
     3
 10
-183.99999999999989
 20
-161.25
 30
0.0
 40
1.0
  0
CIRCLE
  8
OUTLINE
  6
CONTINUOUS
 62
     3
 10
-183.99999999999989
 20
-168.75
 30
0.0
 40
1.0
  0
CIRCLE
  8
OUTLINE
  6
CONTINUOUS
 62
     3
 10
-183.99999999999989
 20
-176.25
 30
0.0
 40
1.0
  0
CIRCLE
  8
OUTLINE
  6
CONTINUOUS
 62
     3
 10
-183.99999999999989
 20
-93.750000000000057
 30
0.0
 40
1.0
  0
CIRCLE
  8
OUTLINE
  6
CONTINUOUS
 62
     3
 10
-183.99999999999989
 20
-41.25
 30
0.0
 40
1.0
  0
CIRCLE
  8
OUTLINE
  6
CONTINUOUS
 62
     3
 10
-183.99999999999989
 20
-48.75
 30
0.0
 40
1.0
  0
CIRCLE
  8
OUTLINE
  6
CONTINUOUS
 62
     3
 10
-183.99999999999989
 20
-3.7500000000000568
 30
0.0
 40
1.0
  0
CIRCLE
  8
OUTLINE
  6
CONTINUOUS
 62
     3
 10
-183.99999999999989
 20
-18.75000000000006
 30
0.0
 40
1.0
  0
CIRCLE
  8
OUTLINE
  6
CONTINUOUS
 62
     3
 10
-183.99999999999989
 20
-11.25000000000006
 30
0.0
 40
1.0
  0
CIRCLE
  8
OUTLINE
  6
CONTINUOUS
 62
     3
 10
-183.99999999999989
 20
-26.25000000000006
 30
0.0
 40
1.0
  0
CIRCLE
  8
OUTLINE
  6
CONTINUOUS
 62
     3
 10
-183.99999999999989
 20
-33.750000000000057
 30
0.0
 40
1.0
  0
CIRCLE
  8
OUTLINE
  6
CONTINUOUS
 62
     3
 10
-183.99999999999989
 20
-56.25
 30
0.0
 40
1.0
  0
CIRCLE
  8
OUTLINE
  6
CONTINUOUS
 62
     3
 10
-183.99999999999989
 20
-63.750000000000057
 30
0.0
 40
1.0
  0
CIRCLE
  8
OUTLINE
  6
CONTINUOUS
 62
     3
 10
-183.99999999999989
 20
-71.250000000000057
 30
0.0
 40
1.0
  0
CIRCLE
  8
OUTLINE
  6
CONTINUOUS
 62
     3
 10
-183.99999999999989
 20
-78.750000000000057
 30
0.0
 40
1.0
  0
CIRCLE
  8
OUTLINE
  6
CONTINUOUS
 62
     3
 10
-183.99999999999989
 20
-86.250000000000057
 30
0.0
 40
1.0
  0
CIRCLE
  8
OUTLINE
  6
CONTINUOUS
 62
     3
 10
-60.0
 20
-182.0
 30
0.0
 40
1.0
  0
CIRCLE
  8
OUTLINE
  6
CONTINUOUS
 62
     3
 10
-183.99999999999989
 20
3.7499999999999432
 30
0.0
 40
1.0
  0
CIRCLE
  8
OUTLINE
  6
CONTINUOUS
 62
     3
 10
-183.99999999999989
 20
11.24999999999994
 30
0.0
 40
1.0
  0
CIRCLE
  8
OUTLINE
  6
CONTINUOUS
 62
     3
 10
-183.99999999999989
 20
63.749999999999972
 30
0.0
 40
1.0
  0
CIRCLE
  8
OUTLINE
  6
CONTINUOUS
 62
     3
 10
-183.99999999999989
 20
71.249999999999943
 30
0.0
 40
1.0
  0
CIRCLE
  8
OUTLINE
  6
CONTINUOUS
 62
     3
 10
-183.99999999999989
 20
78.749999999999943
 30
0.0
 40
1.0
  0
CIRCLE
  8
OUTLINE
  6
CONTINUOUS
 62
     3
 10
-183.99999999999989
 20
86.249999999999943
 30
0.0
 40
1.0
  0
CIRCLE
  8
OUTLINE
  6
CONTINUOUS
 62
     3
 10
-183.99999999999989
 20
18.74999999999994
 30
0.0
 40
1.0
  0
CIRCLE
  8
OUTLINE
  6
CONTINUOUS
 62
     3
 10
-183.99999999999989
 20
26.24999999999994
 30
0.0
 40
1.0
  0
CIRCLE
  8
OUTLINE
  6
CONTINUOUS
 62
     3
 10
-183.99999999999989
 20
33.749999999999943
 30
0.0
 40
1.0
  0
CIRCLE
  8
OUTLINE
  6
CONTINUOUS
 62
     3
 10
-183.99999999999989
 20
41.249999999999943
 30
0.0
 40
1.0
  0
CIRCLE
  8
OUTLINE
  6
CONTINUOUS
 62
     3
 10
-183.99999999999989
 20
56.249999999999972
 30
0.0
 40
1.0
  0
CIRCLE
  8
OUTLINE
  6
CONTINUOUS
 62
     3
 10
-183.99999999999989
 20
48.749999999999972
 30
0.0
 40
1.0
  0
ARC
  8
OUTLINE
  6
CONTINUOUS
 62
     3
 10
-178.99999999999989
 20
181.0
 30
0.0
 40
4.0
 50
90.0
 51
180.0
  0
ARC
  8
OUTLINE
  6
CONTINUOUS
 62
     3
 10
-178.99999999999989
 20
181.0
 30
0.0
 40
2.0
 50
90.0
 51
180.0
  0
CIRCLE
  8
OUTLINE
  6
CONTINUOUS
 62
     3
 10
-174.99999999999989
 20
182.0
 30
0.0
 40
1.0
  0
CIRCLE
  8
OUTLINE
  6
CONTINUOUS
 62
     3
 10
-183.99999999999989
 20
93.749999999999943
 30
0.0
 40
1.0
  0
CIRCLE
  8
OUTLINE
  6
CONTINUOUS
 62
     3
 10
-183.99999999999989
 20
101.2499999999999
 30
0.0
 40
1.0
  0
CIRCLE
  8
OUTLINE
  6
CONTINUOUS
 62
     3
 10
-183.99999999999989
 20
108.7499999999999
 30
0.0
 40
1.0
  0
CIRCLE
  8
OUTLINE
  6
CONTINUOUS
 62
     3
 10
-183.99999999999989
 20
116.2499999999999
 30
0.0
 40
1.0
  0
CIRCLE
  8
OUTLINE
  6
CONTINUOUS
 62
     3
 10
-183.99999999999989
 20
123.7499999999999
 30
0.0
 40
1.0
  0
CIRCLE
  8
OUTLINE
  6
CONTINUOUS
 62
     3
 10
-183.99999999999989
 20
131.25
 30
0.0
 40
1.0
  0
CIRCLE
  8
OUTLINE
  6
CONTINUOUS
 62
     3
 10
-183.99999999999989
 20
138.75
 30
0.0
 40
1.0
  0
CIRCLE
  8
OUTLINE
  6
CONTINUOUS
 62
     3
 10
-183.99999999999989
 20
146.25
 30
0.0
 40
1.0
  0
CIRCLE
  8
OUTLINE
  6
CONTINUOUS
 62
     3
 10
-183.99999999999989
 20
153.75
 30
0.0
 40
1.0
  0
CIRCLE
  8
OUTLINE
  6
CONTINUOUS
 62
     3
 10
-183.99999999999989
 20
161.25
 30
0.0
 40
1.0
  0
CIRCLE
  8
OUTLINE
  6
CONTINUOUS
 62
     3
 10
-183.99999999999989
 20
168.75
 30
0.0
 40
1.0
  0
CIRCLE
  8
OUTLINE
  6
CONTINUOUS
 62
     3
 10
-183.99999999999989
 20
176.25
 30
0.0
 40
1.0
  0
ARC
  8
OUTLINE
  6
CONTINUOUS
 62
     3
 10
-79.999999999999886
 20
82.499999999999943
 30
0.0
 40
2.7999999999999998
 50
100.22702930439689
 51
180.0
  0
ARC
  8
OUTLINE
  6
CONTINUOUS
 62
     3
 10
-79.999999999999886
 20
82.499999999999943
 30
0.0
 40
2.7999999999999998
 50
0.0
 51
79.772970695603121
  0
ARC
  8
OUTLINE
  6
CONTINUOUS
 62
     3
 10
-79.999999999999886
 20
79.999999999999943
 30
0.0
 40
2.7999999999999998
 50
354.84907425609788
 51
0.0
  0
ARC
  8
OUTLINE
  6
CONTINUOUS
 62
     3
 10
-79.999999999999886
 20
79.999999999999943
 30
0.0
 40
2.7999999999999998
 50
233.56821977879861
 51
306.43178022120139
  0
ARC
  8
OUTLINE
  6
CONTINUOUS
 62
     3
 10
-79.999999999999886
 20
79.999999999999943
 30
0.0
 40
2.7999999999999998
 50
180.0
 51
185.15092574390209
  0
CIRCLE
  8
OUTLINE
  6
CONTINUOUS
 62
     3
 10
-60.0
 20
182.0
 30
0.0
 40
1.0
  0
CIRCLE
  8
OUTLINE
  6
CONTINUOUS
 62
     3
 10
60.0
 20
-182.0
 30
0.0
 40
1.0
  0
ARC
  8
OUTLINE
  6
CONTINUOUS
 62
     3
 10
179.0
 20
-181.0
 30
0.0
 40
4.0
 50
270.0
 51
0.0
  0
ARC
  8
OUTLINE
  6
CONTINUOUS
 62
     3
 10
179.0
 20
-181.0
 30
0.0
 40
2.0
 50
270.0
 51
0.0
  0
CIRCLE
  8
OUTLINE
  6
CONTINUOUS
 62
     3
 10
175.0
 20
-182.0
 30
0.0
 40
1.0
  0
CIRCLE
  8
OUTLINE
  6
CONTINUOUS
 62
     3
 10
184.0
 20
-101.2500000000001
 30
0.0
 40
1.0
  0
CIRCLE
  8
OUTLINE
  6
CONTINUOUS
 62
     3
 10
184.0
 20
-108.7500000000001
 30
0.0
 40
1.0
  0
CIRCLE
  8
OUTLINE
  6
CONTINUOUS
 62
     3
 10
184.0
 20
-116.2500000000001
 30
0.0
 40
1.0
  0
CIRCLE
  8
OUTLINE
  6
CONTINUOUS
 62
     3
 10
184.0
 20
-123.7500000000001
 30
0.0
 40
1.0
  0
CIRCLE
  8
OUTLINE
  6
CONTINUOUS
 62
     3
 10
184.0
 20
-131.25
 30
0.0
 40
1.0
  0
CIRCLE
  8
OUTLINE
  6
CONTINUOUS
 62
     3
 10
184.0
 20
-138.75
 30
0.0
 40
1.0
  0
CIRCLE
  8
OUTLINE
  6
CONTINUOUS
 62
     3
 10
184.0
 20
-146.25
 30
0.0
 40
1.0
  0
CIRCLE
  8
OUTLINE
  6
CONTINUOUS
 62
     3
 10
184.0
 20
-153.75
 30
0.0
 40
1.0
  0
CIRCLE
  8
OUTLINE
  6
CONTINUOUS
 62
     3
 10
184.0
 20
-161.25
 30
0.0
 40
1.0
  0
CIRCLE
  8
OUTLINE
  6
CONTINUOUS
 62
     3
 10
184.0
 20
-168.75
 30
0.0
 40
1.0
  0
CIRCLE
  8
OUTLINE
  6
CONTINUOUS
 62
     3
 10
184.0
 20
-176.25
 30
0.0
 40
1.0
  0
CIRCLE
  8
OUTLINE
  6
CONTINUOUS
 62
     3
 10
184.0
 20
-93.750000000000057
 30
0.0
 40
1.0
  0
CIRCLE
  8
OUTLINE
  6
CONTINUOUS
 62
     3
 10
184.0
 20
-41.25
 30
0.0
 40
1.0
  0
CIRCLE
  8
OUTLINE
  6
CONTINUOUS
 62
     3
 10
184.0
 20
-48.75
 30
0.0
 40
1.0
  0
CIRCLE
  8
OUTLINE
  6
CONTINUOUS
 62
     3
 10
184.0
 20
-3.7500000000000568
 30
0.0
 40
1.0
  0
CIRCLE
  8
OUTLINE
  6
CONTINUOUS
 62
     3
 10
184.0
 20
-18.75000000000006
 30
0.0
 40
1.0
  0
CIRCLE
  8
OUTLINE
  6
CONTINUOUS
 62
     3
 10
184.0
 20
-11.25000000000006
 30
0.0
 40
1.0
  0
CIRCLE
  8
OUTLINE
  6
CONTINUOUS
 62
     3
 10
184.0
 20
-26.25000000000006
 30
0.0
 40
1.0
  0
CIRCLE
  8
OUTLINE
  6
CONTINUOUS
 62
     3
 10
184.0
 20
-33.750000000000057
 30
0.0
 40
1.0
  0
CIRCLE
  8
OUTLINE
  6
CONTINUOUS
 62
     3
 10
184.0
 20
-56.25
 30
0.0
 40
1.0
  0
CIRCLE
  8
OUTLINE
  6
CONTINUOUS
 62
     3
 10
184.0
 20
-63.750000000000057
 30
0.0
 40
1.0
  0
CIRCLE
  8
OUTLINE
  6
CONTINUOUS
 62
     3
 10
184.0
 20
-71.250000000000057
 30
0.0
 40
1.0
  0
CIRCLE
  8
OUTLINE
  6
CONTINUOUS
 62
     3
 10
184.0
 20
-78.750000000000057
 30
0.0
 40
1.0
  0
CIRCLE
  8
OUTLINE
  6
CONTINUOUS
 62
     3
 10
184.0
 20
-86.250000000000057
 30
0.0
 40
1.0
  0
ARC
  8
OUTLINE
  6
CONTINUOUS
 62
     3
 10
80.0
 20
82.499999999999943
 30
0.0
 40
2.7999999999999998
 50
100.22702930439689
 51
180.0
  0
ARC
  8
OUTLINE
  6
CONTINUOUS
 62
     3
 10
80.0
 20
82.499999999999943
 30
0.0
 40
2.7999999999999998
 50
0.0
 51
79.772970695603121
  0
ARC
  8
OUTLINE
  6
CONTINUOUS
 62
     3
 10
80.0
 20
79.999999999999943
 30
0.0
 40
2.7999999999999998
 50
354.84907425609788
 51
0.0
  0
ARC
  8
OUTLINE
  6
CONTINUOUS
 62
     3
 10
80.0
 20
79.999999999999943
 30
0.0
 40
2.7999999999999998
 50
233.56821977879861
 51
306.43178022120139
  0
ARC
  8
OUTLINE
  6
CONTINUOUS
 62
     3
 10
80.0
 20
79.999999999999943
 30
0.0
 40
2.7999999999999998
 50
180.0
 51
185.15092574390209
  0
CIRCLE
  8
OUTLINE
  6
CONTINUOUS
 62
     3
 10
60.0
 20
182.0
 30
0.0
 40
1.0
  0
CIRCLE
  8
OUTLINE
  6
CONTINUOUS
 62
     3
 10
184.0
 20
3.7499999999999432
 30
0.0
 40
1.0
  0
CIRCLE
  8
OUTLINE
  6
CONTINUOUS
 62
     3
 10
184.0
 20
11.24999999999994
 30
0.0
 40
1.0
  0
CIRCLE
  8
OUTLINE
  6
CONTINUOUS
 62
     3
 10
184.0
 20
63.749999999999972
 30
0.0
 40
1.0
  0
CIRCLE
  8
OUTLINE
  6
CONTINUOUS
 62
     3
 10
184.0
 20
71.249999999999943
 30
0.0
 40
1.0
  0
CIRCLE
  8
OUTLINE
  6
CONTINUOUS
 62
     3
 10
184.0
 20
78.749999999999943
 30
0.0
 40
1.0
  0
CIRCLE
  8
OUTLINE
  6
CONTINUOUS
 62
     3
 10
184.0
 20
86.249999999999943
 30
0.0
 40
1.0
  0
CIRCLE
  8
OUTLINE
  6
CONTINUOUS
 62
     3
 10
184.0
 20
18.74999999999994
 30
0.0
 40
1.0
  0
CIRCLE
  8
OUTLINE
  6
CONTINUOUS
 62
     3
 10
184.0
 20
26.24999999999994
 30
0.0
 40
1.0
  0
CIRCLE
  8
OUTLINE
  6
CONTINUOUS
 62
     3
 10
184.0
 20
33.749999999999943
 30
0.0
 40
1.0
  0
CIRCLE
  8
OUTLINE
  6
CONTINUOUS
 62
     3
 10
184.0
 20
41.249999999999943
 30
0.0
 40
1.0
  0
CIRCLE
  8
OUTLINE
  6
CONTINUOUS
 62
     3
 10
184.0
 20
56.249999999999972
 30
0.0
 40
1.0
  0
CIRCLE
  8
OUTLINE
  6
CONTINUOUS
 62
     3
 10
184.0
 20
48.749999999999972
 30
0.0
 40
1.0
  0
ARC
  8
OUTLINE
  6
CONTINUOUS
 62
     3
 10
179.0
 20
181.0
 30
0.0
 40
4.0
 50
0.0
 51
90.0
  0
ARC
  8
OUTLINE
  6
CONTINUOUS
 62
     3
 10
179.0
 20
181.0
 30
0.0
 40
2.0
 50
0.0
 51
90.0
  0
CIRCLE
  8
OUTLINE
  6
CONTINUOUS
 62
     3
 10
175.0
 20
182.0
 30
0.0
 40
1.0
  0
CIRCLE
  8
OUTLINE
  6
CONTINUOUS
 62
     3
 10
184.0
 20
93.749999999999943
 30
0.0
 40
1.0
  0
CIRCLE
  8
OUTLINE
  6
CONTINUOUS
 62
     3
 10
184.0
 20
101.2499999999999
 30
0.0
 40
1.0
  0
CIRCLE
  8
OUTLINE
  6
CONTINUOUS
 62
     3
 10
184.0
 20
108.7499999999999
 30
0.0
 40
1.0
  0
CIRCLE
  8
OUTLINE
  6
CONTINUOUS
 62
     3
 10
184.0
 20
116.2499999999999
 30
0.0
 40
1.0
  0
CIRCLE
  8
OUTLINE
  6
CONTINUOUS
 62
     3
 10
184.0
 20
123.7499999999999
 30
0.0
 40
1.0
  0
CIRCLE
  8
OUTLINE
  6
CONTINUOUS
 62
     3
 10
184.0
 20
131.25
 30
0.0
 40
1.0
  0
CIRCLE
  8
OUTLINE
  6
CONTINUOUS
 62
     3
 10
184.0
 20
138.75
 30
0.0
 40
1.0
  0
CIRCLE
  8
OUTLINE
  6
CONTINUOUS
 62
     3
 10
184.0
 20
146.25
 30
0.0
 40
1.0
  0
CIRCLE
  8
OUTLINE
  6
CONTINUOUS
 62
     3
 10
184.0
 20
153.75
 30
0.0
 40
1.0
  0
CIRCLE
  8
OUTLINE
  6
CONTINUOUS
 62
     3
 10
184.0
 20
161.25
 30
0.0
 40
1.0
  0
CIRCLE
  8
OUTLINE
  6
CONTINUOUS
 62
     3
 10
184.0
 20
168.75
 30
0.0
 40
1.0
  0
CIRCLE
  8
OUTLINE
  6
CONTINUOUS
 62
     3
 10
184.0
 20
176.25
 30
0.0
 40
1.0
  0
LINE
  8
DETAIL
  6
CONTINUOUS
 62
     5
 10
-182.99999999999989
 20
-181.0
 30
0.0
 11
-182.99999999999989
 21
181.0
 31
0.0
  0
LINE
  8
DETAIL
  6
CONTINUOUS
 62
     5
 10
-180.99999999999989
 20
-181.0
 30
0.0
 11
-180.99999999999989
 21
181.0
 31
0.0
  0
LINE
  8
DETAIL
  6
CONTINUOUS
 62
     5
 10
-175.99999999999989
 20
182.0
 30
0.0
 11
-175.99999999999989
 21
-182.0
 31
0.0
  0
LINE
  8
DETAIL
  6
CONTINUOUS
 62
     5
 10
-173.99999999999989
 20
182.0
 30
0.0
 11
-173.99999999999989
 21
-182.0
 31
0.0
  0
LINE
  8
DETAIL
  6
CONTINUOUS
 62
     5
 10
179.0
 20
-185.0
 30
0.0
 11
-178.99999999999989
 21
-185.0
 31
0.0
  0
LINE
  8
DETAIL
  6
CONTINUOUS
 62
     5
 10
179.0
 20
-183.0
 30
0.0
 11
-178.99999999999989
 21
-183.0
 31
0.0
  0
LINE
  8
DETAIL
  6
CONTINUOUS
 62
     5
 10
-183.99999999999989
 20
-177.25
 30
0.0
 11
-182.99999999999989
 21
-177.25
 31
0.0
  0
LINE
  8
DETAIL
  6
CONTINUOUS
 62
     5
 10
-180.99999999999989
 20
-177.25
 30
0.0
 11
-175.99999999999989
 21
-177.25
 31
0.0
  0
LINE
  8
DETAIL
  6
CONTINUOUS
 62
     5
 10
-173.99999999999989
 20
-177.25
 30
0.0
 11
-61.0
 21
-177.25
 31
0.0
  0
LINE
  8
DETAIL
  6
CONTINUOUS
 62
     5
 10
-59.0
 20
-177.25
 30
0.0
 11
59.0
 21
-177.25
 31
0.0
  0
LINE
  8
DETAIL
  6
CONTINUOUS
 62
     5
 10
61.0
 20
-177.25
 30
0.0
 11
174.0
 21
-177.25
 31
0.0
  0
LINE
  8
DETAIL
  6
CONTINUOUS
 62
     5
 10
176.0
 20
-177.25
 30
0.0
 11
181.0
 21
-177.25
 31
0.0
  0
LINE
  8
DETAIL
  6
CONTINUOUS
 62
     5
 10
183.0
 20
-177.25
 30
0.0
 11
184.0
 21
-177.25
 31
0.0
  0
LINE
  8
DETAIL
  6
CONTINUOUS
 62
     5
 10
-183.99999999999989
 20
-175.25
 30
0.0
 11
-182.99999999999989
 21
-175.25
 31
0.0
  0
LINE
  8
DETAIL
  6
CONTINUOUS
 62
     5
 10
-180.99999999999989
 20
-175.25
 30
0.0
 11
-175.99999999999989
 21
-175.25
 31
0.0
  0
LINE
  8
DETAIL
  6
CONTINUOUS
 62
     5
 10
-173.99999999999989
 20
-175.25
 30
0.0
 11
-61.0
 21
-175.25
 31
0.0
  0
LINE
  8
DETAIL
  6
CONTINUOUS
 62
     5
 10
-59.0
 20
-175.25
 30
0.0
 11
59.0
 21
-175.25
 31
0.0
  0
LINE
  8
DETAIL
  6
CONTINUOUS
 62
     5
 10
61.0
 20
-175.25
 30
0.0
 11
174.0
 21
-175.25
 31
0.0
  0
LINE
  8
DETAIL
  6
CONTINUOUS
 62
     5
 10
176.0
 20
-175.25
 30
0.0
 11
181.0
 21
-175.25
 31
0.0
  0
LINE
  8
DETAIL
  6
CONTINUOUS
 62
     5
 10
183.0
 20
-175.25
 30
0.0
 11
184.0
 21
-175.25
 31
0.0
  0
LINE
  8
DETAIL
  6
CONTINUOUS
 62
     5
 10
-183.99999999999989
 20
-169.75
 30
0.0
 11
-182.99999999999989
 21
-169.75
 31
0.0
  0
LINE
  8
DETAIL
  6
CONTINUOUS
 62
     5
 10
-180.99999999999989
 20
-169.75
 30
0.0
 11
-175.99999999999989
 21
-169.75
 31
0.0
  0
LINE
  8
DETAIL
  6
CONTINUOUS
 62
     5
 10
-173.99999999999989
 20
-169.75
 30
0.0
 11
-61.0
 21
-169.75
 31
0.0
  0
LINE
  8
DETAIL
  6
CONTINUOUS
 62
     5
 10
-59.0
 20
-169.75
 30
0.0
 11
59.0
 21
-169.75
 31
0.0
  0
LINE
  8
DETAIL
  6
CONTINUOUS
 62
     5
 10
61.0
 20
-169.75
 30
0.0
 11
174.0
 21
-169.75
 31
0.0
  0
LINE
  8
DETAIL
  6
CONTINUOUS
 62
     5
 10
176.0
 20
-169.75
 30
0.0
 11
181.0
 21
-169.75
 31
0.0
  0
LINE
  8
DETAIL
  6
CONTINUOUS
 62
     5
 10
183.0
 20
-169.75
 30
0.0
 11
184.0
 21
-169.75
 31
0.0
  0
LINE
  8
DETAIL
  6
CONTINUOUS
 62
     5
 10
-183.99999999999989
 20
-167.75
 30
0.0
 11
-182.99999999999989
 21
-167.75
 31
0.0
  0
LINE
  8
DETAIL
  6
CONTINUOUS
 62
     5
 10
-180.99999999999989
 20
-167.75
 30
0.0
 11
-175.99999999999989
 21
-167.75
 31
0.0
  0
LINE
  8
DETAIL
  6
CONTINUOUS
 62
     5
 10
-173.99999999999989
 20
-167.75
 30
0.0
 11
-61.0
 21
-167.75
 31
0.0
  0
LINE
  8
DETAIL
  6
CONTINUOUS
 62
     5
 10
-59.0
 20
-167.75
 30
0.0
 11
59.0
 21
-167.75
 31
0.0
  0
LINE
  8
DETAIL
  6
CONTINUOUS
 62
     5
 10
61.0
 20
-167.75
 30
0.0
 11
174.0
 21
-167.75
 31
0.0
  0
LINE
  8
DETAIL
  6
CONTINUOUS
 62
     5
 10
176.0
 20
-167.75
 30
0.0
 11
181.0
 21
-167.75
 31
0.0
  0
LINE
  8
DETAIL
  6
CONTINUOUS
 62
     5
 10
183.0
 20
-167.75
 30
0.0
 11
184.0
 21
-167.75
 31
0.0
  0
LINE
  8
DETAIL
  6
CONTINUOUS
 62
     5
 10
-183.99999999999989
 20
-162.25
 30
0.0
 11
-182.99999999999989
 21
-162.25
 31
0.0
  0
LINE
  8
DETAIL
  6
CONTINUOUS
 62
     5
 10
-180.99999999999989
 20
-162.25
 30
0.0
 11
-175.99999999999989
 21
-162.25
 31
0.0
  0
LINE
  8
DETAIL
  6
CONTINUOUS
 62
     5
 10
-173.99999999999989
 20
-162.25
 30
0.0
 11
-61.0
 21
-162.25
 31
0.0
  0
LINE
  8
DETAIL
  6
CONTINUOUS
 62
     5
 10
-59.0
 20
-162.25
 30
0.0
 11
59.0
 21
-162.25
 31
0.0
  0
LINE
  8
DETAIL
  6
CONTINUOUS
 62
     5
 10
61.0
 20
-162.25
 30
0.0
 11
174.0
 21
-162.25
 31
0.0
  0
LINE
  8
DETAIL
  6
CONTINUOUS
 62
     5
 10
176.0
 20
-162.25
 30
0.0
 11
181.0
 21
-162.25
 31
0.0
  0
LINE
  8
DETAIL
  6
CONTINUOUS
 62
     5
 10
183.0
 20
-162.25
 30
0.0
 11
184.0
 21
-162.25
 31
0.0
  0
LINE
  8
DETAIL
  6
CONTINUOUS
 62
     5
 10
-183.99999999999989
 20
-160.25
 30
0.0
 11
-182.99999999999989
 21
-160.25
 31
0.0
  0
LINE
  8
DETAIL
  6
CONTINUOUS
 62
     5
 10
-180.99999999999989
 20
-160.25
 30
0.0
 11
-175.99999999999989
 21
-160.25
 31
0.0
  0
LINE
  8
DETAIL
  6
CONTINUOUS
 62
     5
 10
-173.99999999999989
 20
-160.25
 30
0.0
 11
-61.0
 21
-160.25
 31
0.0
  0
LINE
  8
DETAIL
  6
CONTINUOUS
 62
     5
 10
-59.0
 20
-160.25
 30
0.0
 11
59.0
 21
-160.25
 31
0.0
  0
LINE
  8
DETAIL
  6
CONTINUOUS
 62
     5
 10
61.0
 20
-160.25
 30
0.0
 11
174.0
 21
-160.25
 31
0.0
  0
LINE
  8
DETAIL
  6
CONTINUOUS
 62
     5
 10
176.0
 20
-160.25
 30
0.0
 11
181.0
 21
-160.25
 31
0.0
  0
LINE
  8
DETAIL
  6
CONTINUOUS
 62
     5
 10
183.0
 20
-160.25
 30
0.0
 11
184.0
 21
-160.25
 31
0.0
  0
LINE
  8
DETAIL
  6
CONTINUOUS
 62
     5
 10
-183.99999999999989
 20
-154.75
 30
0.0
 11
-182.99999999999989
 21
-154.75
 31
0.0
  0
LINE
  8
DETAIL
  6
CONTINUOUS
 62
     5
 10
-180.99999999999989
 20
-154.75
 30
0.0
 11
-175.99999999999989
 21
-154.75
 31
0.0
  0
LINE
  8
DETAIL
  6
CONTINUOUS
 62
     5
 10
-173.99999999999989
 20
-154.75
 30
0.0
 11
-61.0
 21
-154.75
 31
0.0
  0
LINE
  8
DETAIL
  6
CONTINUOUS
 62
     5
 10
-59.0
 20
-154.75
 30
0.0
 11
59.0
 21
-154.75
 31
0.0
  0
LINE
  8
DETAIL
  6
CONTINUOUS
 62
     5
 10
61.0
 20
-154.75
 30
0.0
 11
174.0
 21
-154.75
 31
0.0
  0
LINE
  8
DETAIL
  6
CONTINUOUS
 62
     5
 10
176.0
 20
-154.75
 30
0.0
 11
181.0
 21
-154.75
 31
0.0
  0
LINE
  8
DETAIL
  6
CONTINUOUS
 62
     5
 10
183.0
 20
-154.75
 30
0.0
 11
184.0
 21
-154.75
 31
0.0
  0
LINE
  8
DETAIL
  6
CONTINUOUS
 62
     5
 10
-183.99999999999989
 20
-152.75
 30
0.0
 11
-182.99999999999989
 21
-152.75
 31
0.0
  0
LINE
  8
DETAIL
  6
CONTINUOUS
 62
     5
 10
-180.99999999999989
 20
-152.75
 30
0.0
 11
-175.99999999999989
 21
-152.75
 31
0.0
  0
LINE
  8
DETAIL
  6
CONTINUOUS
 62
     5
 10
-173.99999999999989
 20
-152.75
 30
0.0
 11
-61.0
 21
-152.75
 31
0.0
  0
LINE
  8
DETAIL
  6
CONTINUOUS
 62
     5
 10
-59.0
 20
-152.75
 30
0.0
 11
59.0
 21
-152.75
 31
0.0
  0
LINE
  8
DETAIL
  6
CONTINUOUS
 62
     5
 10
61.0
 20
-152.75
 30
0.0
 11
174.0
 21
-152.75
 31
0.0
  0
LINE
  8
DETAIL
  6
CONTINUOUS
 62
     5
 10
176.0
 20
-152.75
 30
0.0
 11
181.0
 21
-152.75
 31
0.0
  0
LINE
  8
DETAIL
  6
CONTINUOUS
 62
     5
 10
183.0
 20
-152.75
 30
0.0
 11
184.0
 21
-152.75
 31
0.0
  0
LINE
  8
DETAIL
  6
CONTINUOUS
 62
     5
 10
-183.99999999999989
 20
-147.25
 30
0.0
 11
-182.99999999999989
 21
-147.25
 31
0.0
  0
LINE
  8
DETAIL
  6
CONTINUOUS
 62
     5
 10
-180.99999999999989
 20
-147.25
 30
0.0
 11
-175.99999999999989
 21
-147.25
 31
0.0
  0
LINE
  8
DETAIL
  6
CONTINUOUS
 62
     5
 10
-173.99999999999989
 20
-147.25
 30
0.0
 11
-61.0
 21
-147.25
 31
0.0
  0
LINE
  8
DETAIL
  6
CONTINUOUS
 62
     5
 10
-59.0
 20
-147.25
 30
0.0
 11
59.0
 21
-147.25
 31
0.0
  0
LINE
  8
DETAIL
  6
CONTINUOUS
 62
     5
 10
61.0
 20
-147.25
 30
0.0
 11
174.0
 21
-147.25
 31
0.0
  0
LINE
  8
DETAIL
  6
CONTINUOUS
 62
     5
 10
176.0
 20
-147.25
 30
0.0
 11
181.0
 21
-147.25
 31
0.0
  0
LINE
  8
DETAIL
  6
CONTINUOUS
 62
     5
 10
183.0
 20
-147.25
 30
0.0
 11
184.0
 21
-147.25
 31
0.0
  0
LINE
  8
DETAIL
  6
CONTINUOUS
 62
     5
 10
-183.99999999999989
 20
-145.25
 30
0.0
 11
-182.99999999999989
 21
-145.25
 31
0.0
  0
LINE
  8
DETAIL
  6
CONTINUOUS
 62
     5
 10
-180.99999999999989
 20
-145.25
 30
0.0
 11
-175.99999999999989
 21
-145.25
 31
0.0
  0
LINE
  8
DETAIL
  6
CONTINUOUS
 62
     5
 10
-173.99999999999989
 20
-145.25
 30
0.0
 11
-61.0
 21
-145.25
 31
0.0
  0
LINE
  8
DETAIL
  6
CONTINUOUS
 62
     5
 10
-59.0
 20
-145.25
 30
0.0
 11
59.0
 21
-145.25
 31
0.0
  0
LINE
  8
DETAIL
  6
CONTINUOUS
 62
     5
 10
61.0
 20
-145.25
 30
0.0
 11
174.0
 21
-145.25
 31
0.0
  0
LINE
  8
DETAIL
  6
CONTINUOUS
 62
     5
 10
176.0
 20
-145.25
 30
0.0
 11
181.0
 21
-145.25
 31
0.0
  0
LINE
  8
DETAIL
  6
CONTINUOUS
 62
     5
 10
183.0
 20
-145.25
 30
0.0
 11
184.0
 21
-145.25
 31
0.0
  0
LINE
  8
DETAIL
  6
CONTINUOUS
 62
     5
 10
-183.99999999999989
 20
-139.75
 30
0.0
 11
-182.99999999999989
 21
-139.75
 31
0.0
  0
LINE
  8
DETAIL
  6
CONTINUOUS
 62
     5
 10
-180.99999999999989
 20
-139.75
 30
0.0
 11
-175.99999999999989
 21
-139.75
 31
0.0
  0
LINE
  8
DETAIL
  6
CONTINUOUS
 62
     5
 10
-173.99999999999989
 20
-139.75
 30
0.0
 11
-61.0
 21
-139.75
 31
0.0
  0
LINE
  8
DETAIL
  6
CONTINUOUS
 62
     5
 10
-59.0
 20
-139.75
 30
0.0
 11
59.0
 21
-139.75
 31
0.0
  0
LINE
  8
DETAIL
  6
CONTINUOUS
 62
     5
 10
61.0
 20
-139.75
 30
0.0
 11
174.0
 21
-139.75
 31
0.0
  0
LINE
  8
DETAIL
  6
CONTINUOUS
 62
     5
 10
176.0
 20
-139.75
 30
0.0
 11
181.0
 21
-139.75
 31
0.0
  0
LINE
  8
DETAIL
  6
CONTINUOUS
 62
     5
 10
183.0
 20
-139.75
 30
0.0
 11
184.0
 21
-139.75
 31
0.0
  0
LINE
  8
DETAIL
  6
CONTINUOUS
 62
     5
 10
-183.99999999999989
 20
-137.75
 30
0.0
 11
-182.99999999999989
 21
-137.75
 31
0.0
  0
LINE
  8
DETAIL
  6
CONTINUOUS
 62
     5
 10
-180.99999999999989
 20
-137.75
 30
0.0
 11
-175.99999999999989
 21
-137.75
 31
0.0
  0
LINE
  8
DETAIL
  6
CONTINUOUS
 62
     5
 10
-173.99999999999989
 20
-137.75
 30
0.0
 11
-61.0
 21
-137.75
 31
0.0
  0
LINE
  8
DETAIL
  6
CONTINUOUS
 62
     5
 10
-59.0
 20
-137.75
 30
0.0
 11
59.0
 21
-137.75
 31
0.0
  0
LINE
  8
DETAIL
  6
CONTINUOUS
 62
     5
 10
61.0
 20
-137.75
 30
0.0
 11
174.0
 21
-137.75
 31
0.0
  0
LINE
  8
DETAIL
  6
CONTINUOUS
 62
     5
 10
176.0
 20
-137.75
 30
0.0
 11
181.0
 21
-137.75
 31
0.0
  0
LINE
  8
DETAIL
  6
CONTINUOUS
 62
     5
 10
183.0
 20
-137.75
 30
0.0
 11
184.0
 21
-137.75
 31
0.0
  0
LINE
  8
DETAIL
  6
CONTINUOUS
 62
     5
 10
-183.99999999999989
 20
-132.25
 30
0.0
 11
-182.99999999999989
 21
-132.25
 31
0.0
  0
LINE
  8
DETAIL
  6
CONTINUOUS
 62
     5
 10
-180.99999999999989
 20
-132.25
 30
0.0
 11
-175.99999999999989
 21
-132.25
 31
0.0
  0
LINE
  8
DETAIL
  6
CONTINUOUS
 62
     5
 10
-173.99999999999989
 20
-132.25
 30
0.0
 11
-61.0
 21
-132.25
 31
0.0
  0
LINE
  8
DETAIL
  6
CONTINUOUS
 62
     5
 10
-59.0
 20
-132.25
 30
0.0
 11
59.0
 21
-132.25
 31
0.0
  0
LINE
  8
DETAIL
  6
CONTINUOUS
 62
     5
 10
61.0
 20
-132.25
 30
0.0
 11
174.0
 21
-132.25
 31
0.0
  0
LINE
  8
DETAIL
  6
CONTINUOUS
 62
     5
 10
176.0
 20
-132.25
 30
0.0
 11
181.0
 21
-132.25
 31
0.0
  0
LINE
  8
DETAIL
  6
CONTINUOUS
 62
     5
 10
183.0
 20
-132.25
 30
0.0
 11
184.0
 21
-132.25
 31
0.0
  0
LINE
  8
DETAIL
  6
CONTINUOUS
 62
     5
 10
-183.99999999999989
 20
-130.25
 30
0.0
 11
-182.99999999999989
 21
-130.25
 31
0.0
  0
LINE
  8
DETAIL
  6
CONTINUOUS
 62
     5
 10
-180.99999999999989
 20
-130.25
 30
0.0
 11
-175.99999999999989
 21
-130.25
 31
0.0
  0
LINE
  8
DETAIL
  6
CONTINUOUS
 62
     5
 10
-173.99999999999989
 20
-130.25
 30
0.0
 11
-61.0
 21
-130.25
 31
0.0
  0
LINE
  8
DETAIL
  6
CONTINUOUS
 62
     5
 10
-59.0
 20
-130.25
 30
0.0
 11
59.0
 21
-130.25
 31
0.0
  0
LINE
  8
DETAIL
  6
CONTINUOUS
 62
     5
 10
61.0
 20
-130.25
 30
0.0
 11
174.0
 21
-130.25
 31
0.0
  0
LINE
  8
DETAIL
  6
CONTINUOUS
 62
     5
 10
176.0
 20
-130.25
 30
0.0
 11
181.0
 21
-130.25
 31
0.0
  0
LINE
  8
DETAIL
  6
CONTINUOUS
 62
     5
 10
183.0
 20
-130.25
 30
0.0
 11
184.0
 21
-130.25
 31
0.0
  0
LINE
  8
DETAIL
  6
CONTINUOUS
 62
     5
 10
-183.99999999999989
 20
-124.75
 30
0.0
 11
-182.99999999999989
 21
-124.75
 31
0.0
  0
LINE
  8
DETAIL
  6
CONTINUOUS
 62
     5
 10
-180.99999999999989
 20
-124.75
 30
0.0
 11
-175.99999999999989
 21
-124.75
 31
0.0
  0
LINE
  8
DETAIL
  6
CONTINUOUS
 62
     5
 10
-173.99999999999989
 20
-124.75
 30
0.0
 11
-61.0
 21
-124.75
 31
0.0
  0
LINE
  8
DETAIL
  6
CONTINUOUS
 62
     5
 10
-59.0
 20
-124.75
 30
0.0
 11
59.0
 21
-124.75
 31
0.0
  0
LINE
  8
DETAIL
  6
CONTINUOUS
 62
     5
 10
61.0
 20
-124.75
 30
0.0
 11
174.0
 21
-124.75
 31
0.0
  0
LINE
  8
DETAIL
  6
CONTINUOUS
 62
     5
 10
176.0
 20
-124.75
 30
0.0
 11
181.0
 21
-124.75
 31
0.0
  0
LINE
  8
DETAIL
  6
CONTINUOUS
 62
     5
 10
183.0
 20
-124.75
 30
0.0
 11
184.0
 21
-124.75
 31
0.0
  0
LINE
  8
DETAIL
  6
CONTINUOUS
 62
     5
 10
-183.99999999999989
 20
-122.75
 30
0.0
 11
-182.99999999999989
 21
-122.75
 31
0.0
  0
LINE
  8
DETAIL
  6
CONTINUOUS
 62
     5
 10
-180.99999999999989
 20
-122.75
 30
0.0
 11
-175.99999999999989
 21
-122.75
 31
0.0
  0
LINE
  8
DETAIL
  6
CONTINUOUS
 62
     5
 10
-173.99999999999989
 20
-122.75
 30
0.0
 11
-61.0
 21
-122.75
 31
0.0
  0
LINE
  8
DETAIL
  6
CONTINUOUS
 62
     5
 10
-59.0
 20
-122.75
 30
0.0
 11
59.0
 21
-122.75
 31
0.0
  0
LINE
  8
DETAIL
  6
CONTINUOUS
 62
     5
 10
61.0
 20
-122.75
 30
0.0
 11
174.0
 21
-122.75
 31
0.0
  0
LINE
  8
DETAIL
  6
CONTINUOUS
 62
     5
 10
176.0
 20
-122.75
 30
0.0
 11
181.0
 21
-122.75
 31
0.0
  0
LINE
  8
DETAIL
  6
CONTINUOUS
 62
     5
 10
183.0
 20
-122.75
 30
0.0
 11
184.0
 21
-122.75
 31
0.0
  0
LINE
  8
DETAIL
  6
CONTINUOUS
 62
     5
 10
-64.0
 20
90.5
 30
0.0
 11
-61.0
 21
93.5
 31
0.0
  0
LINE
  8
DETAIL
  6
CONTINUOUS
 62
     5
 10
-183.99999999999989
 20
-117.25
 30
0.0
 11
-182.99999999999989
 21
-117.25
 31
0.0
  0
LINE
  8
DETAIL
  6
CONTINUOUS
 62
     5
 10
-180.99999999999989
 20
-117.25
 30
0.0
 11
-175.99999999999989
 21
-117.25
 31
0.0
  0
LINE
  8
DETAIL
  6
CONTINUOUS
 62
     5
 10
-173.99999999999989
 20
-117.25
 30
0.0
 11
-61.0
 21
-117.25
 31
0.0
  0
LINE
  8
DETAIL
  6
CONTINUOUS
 62
     5
 10
-59.0
 20
-117.25
 30
0.0
 11
59.0
 21
-117.25
 31
0.0
  0
LINE
  8
DETAIL
  6
CONTINUOUS
 62
     5
 10
61.0
 20
-117.25
 30
0.0
 11
174.0
 21
-117.25
 31
0.0
  0
LINE
  8
DETAIL
  6
CONTINUOUS
 62
     5
 10
176.0
 20
-117.25
 30
0.0
 11
181.0
 21
-117.25
 31
0.0
  0
LINE
  8
DETAIL
  6
CONTINUOUS
 62
     5
 10
183.0
 20
-117.25
 30
0.0
 11
184.0
 21
-117.25
 31
0.0
  0
LINE
  8
DETAIL
  6
CONTINUOUS
 62
     5
 10
-183.99999999999989
 20
-115.25
 30
0.0
 11
-182.99999999999989
 21
-115.25
 31
0.0
  0
LINE
  8
DETAIL
  6
CONTINUOUS
 62
     5
 10
-180.99999999999989
 20
-115.25
 30
0.0
 11
-175.99999999999989
 21
-115.25
 31
0.0
  0
LINE
  8
DETAIL
  6
CONTINUOUS
 62
     5
 10
-173.99999999999989
 20
-115.25
 30
0.0
 11
-61.0
 21
-115.25
 31
0.0
  0
LINE
  8
DETAIL
  6
CONTINUOUS
 62
     5
 10
-59.0
 20
-115.25
 30
0.0
 11
59.0
 21
-115.25
 31
0.0
  0
LINE
  8
DETAIL
  6
CONTINUOUS
 62
     5
 10
61.0
 20
-115.25
 30
0.0
 11
174.0
 21
-115.25
 31
0.0
  0
LINE
  8
DETAIL
  6
CONTINUOUS
 62
     5
 10
176.0
 20
-115.25
 30
0.0
 11
181.0
 21
-115.25
 31
0.0
  0
LINE
  8
DETAIL
  6
CONTINUOUS
 62
     5
 10
183.0
 20
-115.25
 30
0.0
 11
184.0
 21
-115.25
 31
0.0
  0
LINE
  8
DETAIL
  6
CONTINUOUS
 62
     5
 10
-183.99999999999989
 20
-109.75
 30
0.0
 11
-182.99999999999989
 21
-109.75
 31
0.0
  0
LINE
  8
DETAIL
  6
CONTINUOUS
 62
     5
 10
-180.99999999999989
 20
-109.75
 30
0.0
 11
-175.99999999999989
 21
-109.75
 31
0.0
  0
LINE
  8
DETAIL
  6
CONTINUOUS
 62
     5
 10
-173.99999999999989
 20
-109.75
 30
0.0
 11
-61.0
 21
-109.75
 31
0.0
  0
LINE
  8
DETAIL
  6
CONTINUOUS
 62
     5
 10
-59.0
 20
-109.75
 30
0.0
 11
59.0
 21
-109.75
 31
0.0
  0
LINE
  8
DETAIL
  6
CONTINUOUS
 62
     5
 10
61.0
 20
-109.75
 30
0.0
 11
174.0
 21
-109.75
 31
0.0
  0
LINE
  8
DETAIL
  6
CONTINUOUS
 62
     5
 10
176.0
 20
-109.75
 30
0.0
 11
181.0
 21
-109.75
 31
0.0
  0
LINE
  8
DETAIL
  6
CONTINUOUS
 62
     5
 10
183.0
 20
-109.75
 30
0.0
 11
184.0
 21
-109.75
 31
0.0
  0
LINE
  8
DETAIL
  6
CONTINUOUS
 62
     5
 10
-183.99999999999989
 20
-107.75
 30
0.0
 11
-182.99999999999989
 21
-107.75
 31
0.0
  0
LINE
  8
DETAIL
  6
CONTINUOUS
 62
     5
 10
-180.99999999999989
 20
-107.75
 30
0.0
 11
-175.99999999999989
 21
-107.75
 31
0.0
  0
LINE
  8
DETAIL
  6
CONTINUOUS
 62
     5
 10
-173.99999999999989
 20
-107.75
 30
0.0
 11
-61.0
 21
-107.75
 31
0.0
  0
LINE
  8
DETAIL
  6
CONTINUOUS
 62
     5
 10
-59.0
 20
-107.75
 30
0.0
 11
59.0
 21
-107.75
 31
0.0
  0
LINE
  8
DETAIL
  6
CONTINUOUS
 62
     5
 10
61.0
 20
-107.75
 30
0.0
 11
174.0
 21
-107.75
 31
0.0
  0
LINE
  8
DETAIL
  6
CONTINUOUS
 62
     5
 10
176.0
 20
-107.75
 30
0.0
 11
181.0
 21
-107.75
 31
0.0
  0
LINE
  8
DETAIL
  6
CONTINUOUS
 62
     5
 10
183.0
 20
-107.75
 30
0.0
 11
184.0
 21
-107.75
 31
0.0
  0
LINE
  8
DETAIL
  6
CONTINUOUS
 62
     5
 10
-98.999999999999886
 20
92.75
 30
0.0
 11
-98.999999999999886
 21
87.25
 31
0.0
  0
LINE
  8
DETAIL
  6
CONTINUOUS
 62
     5
 10
-98.999999999999886
 20
85.25
 30
0.0
 11
-98.999999999999886
 21
79.75
 31
0.0
  0
LINE
  8
DETAIL
  6
CONTINUOUS
 62
     5
 10
-98.999999999999886
 20
77.75
 30
0.0
 11
-98.999999999999886
 21
75.5
 31
0.0
  0
LINE
  8
DETAIL
  6
CONTINUOUS
 62
     5
 10
-98.999999999999886
 20
93.5
 30
0.0
 11
-98.999999999999886
 21
95.099999999999909
 31
0.0
  0
LINE
  8
DETAIL
  6
CONTINUOUS
 62
     5
 10
-64.0
 20
72.5
 30
0.0
 11
-61.0
 21
75.5
 31
0.0
  0
LINE
  8
DETAIL
  6
CONTINUOUS
 62
     5
 10
-183.99999999999989
 20
-102.25
 30
0.0
 11
-182.99999999999989
 21
-102.25
 31
0.0
  0
LINE
  8
DETAIL
  6
CONTINUOUS
 62
     5
 10
-180.99999999999989
 20
-102.25
 30
0.0
 11
-175.99999999999989
 21
-102.25
 31
0.0
  0
LINE
  8
DETAIL
  6
CONTINUOUS
 62
     5
 10
-173.99999999999989
 20
-102.25
 30
0.0
 11
-61.0
 21
-102.25
 31
0.0
  0
LINE
  8
DETAIL
  6
CONTINUOUS
 62
     5
 10
-59.0
 20
-102.25
 30
0.0
 11
59.0
 21
-102.25
 31
0.0
  0
LINE
  8
DETAIL
  6
CONTINUOUS
 62
     5
 10
61.0
 20
-102.25
 30
0.0
 11
174.0
 21
-102.25
 31
0.0
  0
LINE
  8
DETAIL
  6
CONTINUOUS
 62
     5
 10
176.0
 20
-102.25
 30
0.0
 11
181.0
 21
-102.25
 31
0.0
  0
LINE
  8
DETAIL
  6
CONTINUOUS
 62
     5
 10
183.0
 20
-102.25
 30
0.0
 11
184.0
 21
-102.25
 31
0.0
  0
LINE
  8
DETAIL
  6
CONTINUOUS
 62
     5
 10
-183.99999999999989
 20
-100.25
 30
0.0
 11
-182.99999999999989
 21
-100.25
 31
0.0
  0
LINE
  8
DETAIL
  6
CONTINUOUS
 62
     5
 10
-180.99999999999989
 20
-100.25
 30
0.0
 11
-175.99999999999989
 21
-100.25
 31
0.0
  0
LINE
  8
DETAIL
  6
CONTINUOUS
 62
     5
 10
-173.99999999999989
 20
-100.25
 30
0.0
 11
-61.0
 21
-100.25
 31
0.0
  0
LINE
  8
DETAIL
  6
CONTINUOUS
 62
     5
 10
-59.0
 20
-100.25
 30
0.0
 11
59.0
 21
-100.25
 31
0.0
  0
LINE
  8
DETAIL
  6
CONTINUOUS
 62
     5
 10
61.0
 20
-100.25
 30
0.0
 11
174.0
 21
-100.25
 31
0.0
  0
LINE
  8
DETAIL
  6
CONTINUOUS
 62
     5
 10
176.0
 20
-100.25
 30
0.0
 11
181.0
 21
-100.25
 31
0.0
  0
LINE
  8
DETAIL
  6
CONTINUOUS
 62
     5
 10
183.0
 20
-100.25
 30
0.0
 11
184.0
 21
-100.25
 31
0.0
  0
LINE
  8
DETAIL
  6
CONTINUOUS
 62
     5
 10
-183.99999999999989
 20
-94.75
 30
0.0
 11
-182.99999999999989
 21
-94.75
 31
0.0
  0
LINE
  8
DETAIL
  6
CONTINUOUS
 62
     5
 10
-180.99999999999989
 20
-94.75
 30
0.0
 11
-175.99999999999989
 21
-94.75
 31
0.0
  0
LINE
  8
DETAIL
  6
CONTINUOUS
 62
     5
 10
-173.99999999999989
 20
-94.75
 30
0.0
 11
-61.0
 21
-94.75
 31
0.0
  0
LINE
  8
DETAIL
  6
CONTINUOUS
 62
     5
 10
-59.0
 20
-94.75
 30
0.0
 11
59.0
 21
-94.75
 31
0.0
  0
LINE
  8
DETAIL
  6
CONTINUOUS
 62
     5
 10
61.0
 20
-94.75
 30
0.0
 11
174.0
 21
-94.75
 31
0.0
  0
LINE
  8
DETAIL
  6
CONTINUOUS
 62
     5
 10
176.0
 20
-94.75
 30
0.0
 11
181.0
 21
-94.75
 31
0.0
  0
LINE
  8
DETAIL
  6
CONTINUOUS
 62
     5
 10
183.0
 20
-94.75
 30
0.0
 11
184.0
 21
-94.75
 31
0.0
  0
LINE
  8
DETAIL
  6
CONTINUOUS
 62
     5
 10
-183.99999999999989
 20
-92.75
 30
0.0
 11
-182.99999999999989
 21
-92.75
 31
0.0
  0
LINE
  8
DETAIL
  6
CONTINUOUS
 62
     5
 10
-180.99999999999989
 20
-92.75
 30
0.0
 11
-175.99999999999989
 21
-92.75
 31
0.0
  0
LINE
  8
DETAIL
  6
CONTINUOUS
 62
     5
 10
-173.99999999999989
 20
-92.75
 30
0.0
 11
-61.0
 21
-92.75
 31
0.0
  0
LINE
  8
DETAIL
  6
CONTINUOUS
 62
     5
 10
-59.0
 20
-92.75
 30
0.0
 11
59.0
 21
-92.75
 31
0.0
  0
LINE
  8
DETAIL
  6
CONTINUOUS
 62
     5
 10
61.0
 20
-92.75
 30
0.0
 11
174.0
 21
-92.75
 31
0.0
  0
LINE
  8
DETAIL
  6
CONTINUOUS
 62
     5
 10
176.0
 20
-92.75
 30
0.0
 11
181.0
 21
-92.75
 31
0.0
  0
LINE
  8
DETAIL
  6
CONTINUOUS
 62
     5
 10
183.0
 20
-92.75
 30
0.0
 11
184.0
 21
-92.75
 31
0.0
  0
LINE
  8
DETAIL
  6
CONTINUOUS
 62
     5
 10
-183.99999999999989
 20
-87.25
 30
0.0
 11
-182.99999999999989
 21
-87.25
 31
0.0
  0
LINE
  8
DETAIL
  6
CONTINUOUS
 62
     5
 10
-180.99999999999989
 20
-87.25
 30
0.0
 11
-175.99999999999989
 21
-87.25
 31
0.0
  0
LINE
  8
DETAIL
  6
CONTINUOUS
 62
     5
 10
-173.99999999999989
 20
-87.25
 30
0.0
 11
-61.0
 21
-87.25
 31
0.0
  0
LINE
  8
DETAIL
  6
CONTINUOUS
 62
     5
 10
-59.0
 20
-87.25
 30
0.0
 11
59.0
 21
-87.25
 31
0.0
  0
LINE
  8
DETAIL
  6
CONTINUOUS
 62
     5
 10
61.0
 20
-87.25
 30
0.0
 11
174.0
 21
-87.25
 31
0.0
  0
LINE
  8
DETAIL
  6
CONTINUOUS
 62
     5
 10
176.0
 20
-87.25
 30
0.0
 11
181.0
 21
-87.25
 31
0.0
  0
LINE
  8
DETAIL
  6
CONTINUOUS
 62
     5
 10
183.0
 20
-87.25
 30
0.0
 11
184.0
 21
-87.25
 31
0.0
  0
LINE
  8
DETAIL
  6
CONTINUOUS
 62
     5
 10
-183.99999999999989
 20
-85.25
 30
0.0
 11
-182.99999999999989
 21
-85.25
 31
0.0
  0
LINE
  8
DETAIL
  6
CONTINUOUS
 62
     5
 10
-180.99999999999989
 20
-85.25
 30
0.0
 11
-175.99999999999989
 21
-85.25
 31
0.0
  0
LINE
  8
DETAIL
  6
CONTINUOUS
 62
     5
 10
-173.99999999999989
 20
-85.25
 30
0.0
 11
-61.0
 21
-85.25
 31
0.0
  0
LINE
  8
DETAIL
  6
CONTINUOUS
 62
     5
 10
-59.0
 20
-85.25
 30
0.0
 11
59.0
 21
-85.25
 31
0.0
  0
LINE
  8
DETAIL
  6
CONTINUOUS
 62
     5
 10
61.0
 20
-85.25
 30
0.0
 11
174.0
 21
-85.25
 31
0.0
  0
LINE
  8
DETAIL
  6
CONTINUOUS
 62
     5
 10
176.0
 20
-85.25
 30
0.0
 11
181.0
 21
-85.25
 31
0.0
  0
LINE
  8
DETAIL
  6
CONTINUOUS
 62
     5
 10
183.0
 20
-85.25
 30
0.0
 11
184.0
 21
-85.25
 31
0.0
  0
LINE
  8
DETAIL
  6
CONTINUOUS
 62
     5
 10
-82.799999999999841
 20
82.5
 30
0.0
 11
-82.799999999999841
 21
80.0
 31
0.0
  0
LINE
  8
DETAIL
  6
CONTINUOUS
 62
     5
 10
-77.199999999999932
 20
80.0
 30
0.0
 11
-77.199999999999932
 21
82.5
 31
0.0
  0
LINE
  8
DETAIL
  6
CONTINUOUS
 62
     5
 10
-183.99999999999989
 20
-79.75
 30
0.0
 11
-182.99999999999989
 21
-79.75
 31
0.0
  0
LINE
  8
DETAIL
  6
CONTINUOUS
 62
     5
 10
-180.99999999999989
 20
-79.75
 30
0.0
 11
-175.99999999999989
 21
-79.75
 31
0.0
  0
LINE
  8
DETAIL
  6
CONTINUOUS
 62
     5
 10
-173.99999999999989
 20
-79.75
 30
0.0
 11
-61.0
 21
-79.75
 31
0.0
  0
LINE
  8
DETAIL
  6
CONTINUOUS
 62
     5
 10
-59.0
 20
-79.75
 30
0.0
 11
59.0
 21
-79.75
 31
0.0
  0
LINE
  8
DETAIL
  6
CONTINUOUS
 62
     5
 10
61.0
 20
-79.75
 30
0.0
 11
174.0
 21
-79.75
 31
0.0
  0
LINE
  8
DETAIL
  6
CONTINUOUS
 62
     5
 10
176.0
 20
-79.75
 30
0.0
 11
181.0
 21
-79.75
 31
0.0
  0
LINE
  8
DETAIL
  6
CONTINUOUS
 62
     5
 10
183.0
 20
-79.75
 30
0.0
 11
184.0
 21
-79.75
 31
0.0
  0
LINE
  8
DETAIL
  6
CONTINUOUS
 62
     5
 10
-183.99999999999989
 20
-77.75
 30
0.0
 11
-182.99999999999989
 21
-77.75
 31
0.0
  0
LINE
  8
DETAIL
  6
CONTINUOUS
 62
     5
 10
-180.99999999999989
 20
-77.75
 30
0.0
 11
-175.99999999999989
 21
-77.75
 31
0.0
  0
LINE
  8
DETAIL
  6
CONTINUOUS
 62
     5
 10
-173.99999999999989
 20
-77.75
 30
0.0
 11
-61.0
 21
-77.75
 31
0.0
  0
LINE
  8
DETAIL
  6
CONTINUOUS
 62
     5
 10
-59.0
 20
-77.75
 30
0.0
 11
59.0
 21
-77.75
 31
0.0
  0
LINE
  8
DETAIL
  6
CONTINUOUS
 62
     5
 10
61.0
 20
-77.75
 30
0.0
 11
174.0
 21
-77.75
 31
0.0
  0
LINE
  8
DETAIL
  6
CONTINUOUS
 62
     5
 10
176.0
 20
-77.75
 30
0.0
 11
181.0
 21
-77.75
 31
0.0
  0
LINE
  8
DETAIL
  6
CONTINUOUS
 62
     5
 10
183.0
 20
-77.75
 30
0.0
 11
184.0
 21
-77.75
 31
0.0
  0
LINE
  8
DETAIL
  6
CONTINUOUS
 62
     5
 10
-183.99999999999989
 20
-72.25
 30
0.0
 11
-182.99999999999989
 21
-72.25
 31
0.0
  0
LINE
  8
DETAIL
  6
CONTINUOUS
 62
     5
 10
-180.99999999999989
 20
-72.25
 30
0.0
 11
-175.99999999999989
 21
-72.25
 31
0.0
  0
LINE
  8
DETAIL
  6
CONTINUOUS
 62
     5
 10
-173.99999999999989
 20
-72.25
 30
0.0
 11
-61.0
 21
-72.25
 31
0.0
  0
LINE
  8
DETAIL
  6
CONTINUOUS
 62
     5
 10
-59.0
 20
-72.25
 30
0.0
 11
59.0
 21
-72.25
 31
0.0
  0
LINE
  8
DETAIL
  6
CONTINUOUS
 62
     5
 10
61.0
 20
-72.25
 30
0.0
 11
174.0
 21
-72.25
 31
0.0
  0
LINE
  8
DETAIL
  6
CONTINUOUS
 62
     5
 10
176.0
 20
-72.25
 30
0.0
 11
181.0
 21
-72.25
 31
0.0
  0
LINE
  8
DETAIL
  6
CONTINUOUS
 62
     5
 10
183.0
 20
-72.25
 30
0.0
 11
184.0
 21
-72.25
 31
0.0
  0
LINE
  8
DETAIL
  6
CONTINUOUS
 62
     5
 10
-183.99999999999989
 20
-70.25
 30
0.0
 11
-182.99999999999989
 21
-70.25
 31
0.0
  0
LINE
  8
DETAIL
  6
CONTINUOUS
 62
     5
 10
-180.99999999999989
 20
-70.25
 30
0.0
 11
-175.99999999999989
 21
-70.25
 31
0.0
  0
LINE
  8
DETAIL
  6
CONTINUOUS
 62
     5
 10
-173.99999999999989
 20
-70.25
 30
0.0
 11
-61.0
 21
-70.25
 31
0.0
  0
LINE
  8
DETAIL
  6
CONTINUOUS
 62
     5
 10
-59.0
 20
-70.25
 30
0.0
 11
59.0
 21
-70.25
 31
0.0
  0
LINE
  8
DETAIL
  6
CONTINUOUS
 62
     5
 10
61.0
 20
-70.25
 30
0.0
 11
174.0
 21
-70.25
 31
0.0
  0
LINE
  8
DETAIL
  6
CONTINUOUS
 62
     5
 10
176.0
 20
-70.25
 30
0.0
 11
181.0
 21
-70.25
 31
0.0
  0
LINE
  8
DETAIL
  6
CONTINUOUS
 62
     5
 10
183.0
 20
-70.25
 30
0.0
 11
184.0
 21
-70.25
 31
0.0
  0
LINE
  8
DETAIL
  6
CONTINUOUS
 62
     5
 10
-61.0
 20
182.0
 30
0.0
 11
-61.0
 21
95.099999999999909
 31
0.0
  0
LINE
  8
DETAIL
  6
CONTINUOUS
 62
     5
 10
-61.0
 20
93.5
 30
0.0
 11
-61.0
 21
95.099999999999909
 31
0.0
  0
LINE
  8
DETAIL
  6
CONTINUOUS
 62
     5
 10
-61.0
 20
93.5
 30
0.0
 11
-61.0
 21
-182.0
 31
0.0
  0
LINE
  8
DETAIL
  6
CONTINUOUS
 62
     5
 10
-59.0
 20
182.0
 30
0.0
 11
-59.0
 21
-182.0
 31
0.0
  0
LINE
  8
DETAIL
  6
CONTINUOUS
 62
     5
 10
-57.0
 20
185.0
 30
0.0
 11
-57.0
 21
183.0
 31
0.0
  0
LINE
  8
DETAIL
  6
CONTINUOUS
 62
     5
 10
-57.0
 20
-185.0
 30
0.0
 11
-57.0
 21
-183.0
 31
0.0
  0
LINE
  8
DETAIL
  6
CONTINUOUS
 62
     5
 10
-183.99999999999989
 20
-64.75
 30
0.0
 11
-182.99999999999989
 21
-64.75
 31
0.0
  0
LINE
  8
DETAIL
  6
CONTINUOUS
 62
     5
 10
-180.99999999999989
 20
-64.75
 30
0.0
 11
-175.99999999999989
 21
-64.75
 31
0.0
  0
LINE
  8
DETAIL
  6
CONTINUOUS
 62
     5
 10
-173.99999999999989
 20
-64.75
 30
0.0
 11
-61.0
 21
-64.75
 31
0.0
  0
LINE
  8
DETAIL
  6
CONTINUOUS
 62
     5
 10
-59.0
 20
-64.75
 30
0.0
 11
59.0
 21
-64.75
 31
0.0
  0
LINE
  8
DETAIL
  6
CONTINUOUS
 62
     5
 10
61.0
 20
-64.75
 30
0.0
 11
174.0
 21
-64.75
 31
0.0
  0
LINE
  8
DETAIL
  6
CONTINUOUS
 62
     5
 10
176.0
 20
-64.75
 30
0.0
 11
181.0
 21
-64.75
 31
0.0
  0
LINE
  8
DETAIL
  6
CONTINUOUS
 62
     5
 10
183.0
 20
-64.75
 30
0.0
 11
184.0
 21
-64.75
 31
0.0
  0
LINE
  8
DETAIL
  6
CONTINUOUS
 62
     5
 10
-183.99999999999989
 20
-62.75
 30
0.0
 11
-182.99999999999989
 21
-62.75
 31
0.0
  0
LINE
  8
DETAIL
  6
CONTINUOUS
 62
     5
 10
-180.99999999999989
 20
-62.75
 30
0.0
 11
-175.99999999999989
 21
-62.75
 31
0.0
  0
LINE
  8
DETAIL
  6
CONTINUOUS
 62
     5
 10
-173.99999999999989
 20
-62.75
 30
0.0
 11
-61.0
 21
-62.75
 31
0.0
  0
LINE
  8
DETAIL
  6
CONTINUOUS
 62
     5
 10
-59.0
 20
-62.75
 30
0.0
 11
59.0
 21
-62.75
 31
0.0
  0
LINE
  8
DETAIL
  6
CONTINUOUS
 62
     5
 10
61.0
 20
-62.75
 30
0.0
 11
174.0
 21
-62.75
 31
0.0
  0
LINE
  8
DETAIL
  6
CONTINUOUS
 62
     5
 10
176.0
 20
-62.75
 30
0.0
 11
181.0
 21
-62.75
 31
0.0
  0
LINE
  8
DETAIL
  6
CONTINUOUS
 62
     5
 10
183.0
 20
-62.75
 30
0.0
 11
184.0
 21
-62.75
 31
0.0
  0
LINE
  8
DETAIL
  6
CONTINUOUS
 62
     5
 10
-183.99999999999989
 20
-57.25
 30
0.0
 11
-182.99999999999989
 21
-57.25
 31
0.0
  0
LINE
  8
DETAIL
  6
CONTINUOUS
 62
     5
 10
-180.99999999999989
 20
-57.25
 30
0.0
 11
-175.99999999999989
 21
-57.25
 31
0.0
  0
LINE
  8
DETAIL
  6
CONTINUOUS
 62
     5
 10
-173.99999999999989
 20
-57.25
 30
0.0
 11
-61.0
 21
-57.25
 31
0.0
  0
LINE
  8
DETAIL
  6
CONTINUOUS
 62
     5
 10
-59.0
 20
-57.25
 30
0.0
 11
59.0
 21
-57.25
 31
0.0
  0
LINE
  8
DETAIL
  6
CONTINUOUS
 62
     5
 10
61.0
 20
-57.25
 30
0.0
 11
174.0
 21
-57.25
 31
0.0
  0
LINE
  8
DETAIL
  6
CONTINUOUS
 62
     5
 10
176.0
 20
-57.25
 30
0.0
 11
181.0
 21
-57.25
 31
0.0
  0
LINE
  8
DETAIL
  6
CONTINUOUS
 62
     5
 10
183.0
 20
-57.25
 30
0.0
 11
184.0
 21
-57.25
 31
0.0
  0
LINE
  8
DETAIL
  6
CONTINUOUS
 62
     5
 10
-183.99999999999989
 20
-55.25
 30
0.0
 11
-182.99999999999989
 21
-55.25
 31
0.0
  0
LINE
  8
DETAIL
  6
CONTINUOUS
 62
     5
 10
-180.99999999999989
 20
-55.25
 30
0.0
 11
-175.99999999999989
 21
-55.25
 31
0.0
  0
LINE
  8
DETAIL
  6
CONTINUOUS
 62
     5
 10
-173.99999999999989
 20
-55.25
 30
0.0
 11
-61.0
 21
-55.25
 31
0.0
  0
LINE
  8
DETAIL
  6
CONTINUOUS
 62
     5
 10
-59.0
 20
-55.25
 30
0.0
 11
59.0
 21
-55.25
 31
0.0
  0
LINE
  8
DETAIL
  6
CONTINUOUS
 62
     5
 10
61.0
 20
-55.25
 30
0.0
 11
174.0
 21
-55.25
 31
0.0
  0
LINE
  8
DETAIL
  6
CONTINUOUS
 62
     5
 10
176.0
 20
-55.25
 30
0.0
 11
181.0
 21
-55.25
 31
0.0
  0
LINE
  8
DETAIL
  6
CONTINUOUS
 62
     5
 10
183.0
 20
-55.25
 30
0.0
 11
184.0
 21
-55.25
 31
0.0
  0
LINE
  8
DETAIL
  6
CONTINUOUS
 62
     5
 10
-183.99999999999989
 20
-49.75
 30
0.0
 11
-182.99999999999989
 21
-49.75
 31
0.0
  0
LINE
  8
DETAIL
  6
CONTINUOUS
 62
     5
 10
-180.99999999999989
 20
-49.75
 30
0.0
 11
-175.99999999999989
 21
-49.75
 31
0.0
  0
LINE
  8
DETAIL
  6
CONTINUOUS
 62
     5
 10
-173.99999999999989
 20
-49.75
 30
0.0
 11
-61.0
 21
-49.75
 31
0.0
  0
LINE
  8
DETAIL
  6
CONTINUOUS
 62
     5
 10
-59.0
 20
-49.75
 30
0.0
 11
59.0
 21
-49.75
 31
0.0
  0
LINE
  8
DETAIL
  6
CONTINUOUS
 62
     5
 10
61.0
 20
-49.75
 30
0.0
 11
174.0
 21
-49.75
 31
0.0
  0
LINE
  8
DETAIL
  6
CONTINUOUS
 62
     5
 10
176.0
 20
-49.75
 30
0.0
 11
181.0
 21
-49.75
 31
0.0
  0
LINE
  8
DETAIL
  6
CONTINUOUS
 62
     5
 10
183.0
 20
-49.75
 30
0.0
 11
184.0
 21
-49.75
 31
0.0
  0
LINE
  8
DETAIL
  6
CONTINUOUS
 62
     5
 10
-183.99999999999989
 20
-47.75
 30
0.0
 11
-182.99999999999989
 21
-47.75
 31
0.0
  0
LINE
  8
DETAIL
  6
CONTINUOUS
 62
     5
 10
-180.99999999999989
 20
-47.75
 30
0.0
 11
-175.99999999999989
 21
-47.75
 31
0.0
  0
LINE
  8
DETAIL
  6
CONTINUOUS
 62
     5
 10
-173.99999999999989
 20
-47.75
 30
0.0
 11
-61.0
 21
-47.75
 31
0.0
  0
LINE
  8
DETAIL
  6
CONTINUOUS
 62
     5
 10
-59.0
 20
-47.75
 30
0.0
 11
59.0
 21
-47.75
 31
0.0
  0
LINE
  8
DETAIL
  6
CONTINUOUS
 62
     5
 10
61.0
 20
-47.75
 30
0.0
 11
174.0
 21
-47.75
 31
0.0
  0
LINE
  8
DETAIL
  6
CONTINUOUS
 62
     5
 10
176.0
 20
-47.75
 30
0.0
 11
181.0
 21
-47.75
 31
0.0
  0
LINE
  8
DETAIL
  6
CONTINUOUS
 62
     5
 10
183.0
 20
-47.75
 30
0.0
 11
184.0
 21
-47.75
 31
0.0
  0
LINE
  8
DETAIL
  6
CONTINUOUS
 62
     5
 10
-183.99999999999989
 20
-42.25
 30
0.0
 11
-182.99999999999989
 21
-42.25
 31
0.0
  0
LINE
  8
DETAIL
  6
CONTINUOUS
 62
     5
 10
-180.99999999999989
 20
-42.25
 30
0.0
 11
-175.99999999999989
 21
-42.25
 31
0.0
  0
LINE
  8
DETAIL
  6
CONTINUOUS
 62
     5
 10
-173.99999999999989
 20
-42.25
 30
0.0
 11
-61.0
 21
-42.25
 31
0.0
  0
LINE
  8
DETAIL
  6
CONTINUOUS
 62
     5
 10
-59.0
 20
-42.25
 30
0.0
 11
59.0
 21
-42.25
 31
0.0
  0
LINE
  8
DETAIL
  6
CONTINUOUS
 62
     5
 10
61.0
 20
-42.25
 30
0.0
 11
174.0
 21
-42.25
 31
0.0
  0
LINE
  8
DETAIL
  6
CONTINUOUS
 62
     5
 10
176.0
 20
-42.25
 30
0.0
 11
181.0
 21
-42.25
 31
0.0
  0
LINE
  8
DETAIL
  6
CONTINUOUS
 62
     5
 10
183.0
 20
-42.25
 30
0.0
 11
184.0
 21
-42.25
 31
0.0
  0
LINE
  8
DETAIL
  6
CONTINUOUS
 62
     5
 10
-183.99999999999989
 20
-40.25
 30
0.0
 11
-182.99999999999989
 21
-40.25
 31
0.0
  0
LINE
  8
DETAIL
  6
CONTINUOUS
 62
     5
 10
-180.99999999999989
 20
-40.25
 30
0.0
 11
-175.99999999999989
 21
-40.25
 31
0.0
  0
LINE
  8
DETAIL
  6
CONTINUOUS
 62
     5
 10
-173.99999999999989
 20
-40.25
 30
0.0
 11
-61.0
 21
-40.25
 31
0.0
  0
LINE
  8
DETAIL
  6
CONTINUOUS
 62
     5
 10
-59.0
 20
-40.25
 30
0.0
 11
59.0
 21
-40.25
 31
0.0
  0
LINE
  8
DETAIL
  6
CONTINUOUS
 62
     5
 10
61.0
 20
-40.25
 30
0.0
 11
174.0
 21
-40.25
 31
0.0
  0
LINE
  8
DETAIL
  6
CONTINUOUS
 62
     5
 10
176.0
 20
-40.25
 30
0.0
 11
181.0
 21
-40.25
 31
0.0
  0
LINE
  8
DETAIL
  6
CONTINUOUS
 62
     5
 10
183.0
 20
-40.25
 30
0.0
 11
184.0
 21
-40.25
 31
0.0
  0
LINE
  8
DETAIL
  6
CONTINUOUS
 62
     5
 10
-183.99999999999989
 20
-34.75
 30
0.0
 11
-182.99999999999989
 21
-34.75
 31
0.0
  0
LINE
  8
DETAIL
  6
CONTINUOUS
 62
     5
 10
-180.99999999999989
 20
-34.75
 30
0.0
 11
-175.99999999999989
 21
-34.75
 31
0.0
  0
LINE
  8
DETAIL
  6
CONTINUOUS
 62
     5
 10
-173.99999999999989
 20
-34.75
 30
0.0
 11
-61.0
 21
-34.75
 31
0.0
  0
LINE
  8
DETAIL
  6
CONTINUOUS
 62
     5
 10
-59.0
 20
-34.75
 30
0.0
 11
59.0
 21
-34.75
 31
0.0
  0
LINE
  8
DETAIL
  6
CONTINUOUS
 62
     5
 10
61.0
 20
-34.75
 30
0.0
 11
174.0
 21
-34.75
 31
0.0
  0
LINE
  8
DETAIL
  6
CONTINUOUS
 62
     5
 10
176.0
 20
-34.75
 30
0.0
 11
181.0
 21
-34.75
 31
0.0
  0
LINE
  8
DETAIL
  6
CONTINUOUS
 62
     5
 10
183.0
 20
-34.75
 30
0.0
 11
184.0
 21
-34.75
 31
0.0
  0
LINE
  8
DETAIL
  6
CONTINUOUS
 62
     5
 10
-183.99999999999989
 20
-32.75
 30
0.0
 11
-182.99999999999989
 21
-32.75
 31
0.0
  0
LINE
  8
DETAIL
  6
CONTINUOUS
 62
     5
 10
-180.99999999999989
 20
-32.75
 30
0.0
 11
-175.99999999999989
 21
-32.75
 31
0.0
  0
LINE
  8
DETAIL
  6
CONTINUOUS
 62
     5
 10
-173.99999999999989
 20
-32.75
 30
0.0
 11
-61.0
 21
-32.75
 31
0.0
  0
LINE
  8
DETAIL
  6
CONTINUOUS
 62
     5
 10
-59.0
 20
-32.75
 30
0.0
 11
59.0
 21
-32.75
 31
0.0
  0
LINE
  8
DETAIL
  6
CONTINUOUS
 62
     5
 10
61.0
 20
-32.75
 30
0.0
 11
174.0
 21
-32.75
 31
0.0
  0
LINE
  8
DETAIL
  6
CONTINUOUS
 62
     5
 10
176.0
 20
-32.75
 30
0.0
 11
181.0
 21
-32.75
 31
0.0
  0
LINE
  8
DETAIL
  6
CONTINUOUS
 62
     5
 10
183.0
 20
-32.75
 30
0.0
 11
184.0
 21
-32.75
 31
0.0
  0
LINE
  8
DETAIL
  6
CONTINUOUS
 62
     5
 10
-183.99999999999989
 20
-27.25
 30
0.0
 11
-182.99999999999989
 21
-27.25
 31
0.0
  0
LINE
  8
DETAIL
  6
CONTINUOUS
 62
     5
 10
-180.99999999999989
 20
-27.25
 30
0.0
 11
-175.99999999999989
 21
-27.25
 31
0.0
  0
LINE
  8
DETAIL
  6
CONTINUOUS
 62
     5
 10
-173.99999999999989
 20
-27.25
 30
0.0
 11
-61.0
 21
-27.25
 31
0.0
  0
LINE
  8
DETAIL
  6
CONTINUOUS
 62
     5
 10
-59.0
 20
-27.25
 30
0.0
 11
59.0
 21
-27.25
 31
0.0
  0
LINE
  8
DETAIL
  6
CONTINUOUS
 62
     5
 10
61.0
 20
-27.25
 30
0.0
 11
174.0
 21
-27.25
 31
0.0
  0
LINE
  8
DETAIL
  6
CONTINUOUS
 62
     5
 10
176.0
 20
-27.25
 30
0.0
 11
181.0
 21
-27.25
 31
0.0
  0
LINE
  8
DETAIL
  6
CONTINUOUS
 62
     5
 10
183.0
 20
-27.25
 30
0.0
 11
184.0
 21
-27.25
 31
0.0
  0
LINE
  8
DETAIL
  6
CONTINUOUS
 62
     5
 10
-183.99999999999989
 20
-25.25
 30
0.0
 11
-182.99999999999989
 21
-25.25
 31
0.0
  0
LINE
  8
DETAIL
  6
CONTINUOUS
 62
     5
 10
-180.99999999999989
 20
-25.25
 30
0.0
 11
-175.99999999999989
 21
-25.25
 31
0.0
  0
LINE
  8
DETAIL
  6
CONTINUOUS
 62
     5
 10
-173.99999999999989
 20
-25.25
 30
0.0
 11
-61.0
 21
-25.25
 31
0.0
  0
LINE
  8
DETAIL
  6
CONTINUOUS
 62
     5
 10
-59.0
 20
-25.25
 30
0.0
 11
59.0
 21
-25.25
 31
0.0
  0
LINE
  8
DETAIL
  6
CONTINUOUS
 62
     5
 10
61.0
 20
-25.25
 30
0.0
 11
174.0
 21
-25.25
 31
0.0
  0
LINE
  8
DETAIL
  6
CONTINUOUS
 62
     5
 10
176.0
 20
-25.25
 30
0.0
 11
181.0
 21
-25.25
 31
0.0
  0
LINE
  8
DETAIL
  6
CONTINUOUS
 62
     5
 10
183.0
 20
-25.25
 30
0.0
 11
184.0
 21
-25.25
 31
0.0
  0
LINE
  8
DETAIL
  6
CONTINUOUS
 62
     5
 10
-183.99999999999989
 20
-19.75
 30
0.0
 11
-182.99999999999989
 21
-19.75
 31
0.0
  0
LINE
  8
DETAIL
  6
CONTINUOUS
 62
     5
 10
-180.99999999999989
 20
-19.75
 30
0.0
 11
-175.99999999999989
 21
-19.75
 31
0.0
  0
LINE
  8
DETAIL
  6
CONTINUOUS
 62
     5
 10
-173.99999999999989
 20
-19.75
 30
0.0
 11
-61.0
 21
-19.75
 31
0.0
  0
LINE
  8
DETAIL
  6
CONTINUOUS
 62
     5
 10
-59.0
 20
-19.75
 30
0.0
 11
59.0
 21
-19.75
 31
0.0
  0
LINE
  8
DETAIL
  6
CONTINUOUS
 62
     5
 10
61.0
 20
-19.75
 30
0.0
 11
174.0
 21
-19.75
 31
0.0
  0
LINE
  8
DETAIL
  6
CONTINUOUS
 62
     5
 10
176.0
 20
-19.75
 30
0.0
 11
181.0
 21
-19.75
 31
0.0
  0
LINE
  8
DETAIL
  6
CONTINUOUS
 62
     5
 10
183.0
 20
-19.75
 30
0.0
 11
184.0
 21
-19.75
 31
0.0
  0
LINE
  8
DETAIL
  6
CONTINUOUS
 62
     5
 10
-183.99999999999989
 20
-17.75
 30
0.0
 11
-182.99999999999989
 21
-17.75
 31
0.0
  0
LINE
  8
DETAIL
  6
CONTINUOUS
 62
     5
 10
-180.99999999999989
 20
-17.75
 30
0.0
 11
-175.99999999999989
 21
-17.75
 31
0.0
  0
LINE
  8
DETAIL
  6
CONTINUOUS
 62
     5
 10
-173.99999999999989
 20
-17.75
 30
0.0
 11
-61.0
 21
-17.75
 31
0.0
  0
LINE
  8
DETAIL
  6
CONTINUOUS
 62
     5
 10
-59.0
 20
-17.75
 30
0.0
 11
59.0
 21
-17.75
 31
0.0
  0
LINE
  8
DETAIL
  6
CONTINUOUS
 62
     5
 10
61.0
 20
-17.75
 30
0.0
 11
174.0
 21
-17.75
 31
0.0
  0
LINE
  8
DETAIL
  6
CONTINUOUS
 62
     5
 10
176.0
 20
-17.75
 30
0.0
 11
181.0
 21
-17.75
 31
0.0
  0
LINE
  8
DETAIL
  6
CONTINUOUS
 62
     5
 10
183.0
 20
-17.75
 30
0.0
 11
184.0
 21
-17.75
 31
0.0
  0
LINE
  8
DETAIL
  6
CONTINUOUS
 62
     5
 10
-98.999999999999886
 20
75.5
 30
0.0
 11
-95.999999999999886
 21
72.5
 31
0.0
  0
LINE
  8
DETAIL
  6
CONTINUOUS
 62
     5
 10
-183.99999999999989
 20
-12.25
 30
0.0
 11
-182.99999999999989
 21
-12.25
 31
0.0
  0
LINE
  8
DETAIL
  6
CONTINUOUS
 62
     5
 10
-180.99999999999989
 20
-12.25
 30
0.0
 11
-175.99999999999989
 21
-12.25
 31
0.0
  0
LINE
  8
DETAIL
  6
CONTINUOUS
 62
     5
 10
-173.99999999999989
 20
-12.25
 30
0.0
 11
-61.0
 21
-12.25
 31
0.0
  0
LINE
  8
DETAIL
  6
CONTINUOUS
 62
     5
 10
-59.0
 20
-12.25
 30
0.0
 11
59.0
 21
-12.25
 31
0.0
  0
LINE
  8
DETAIL
  6
CONTINUOUS
 62
     5
 10
61.0
 20
-12.25
 30
0.0
 11
174.0
 21
-12.25
 31
0.0
  0
LINE
  8
DETAIL
  6
CONTINUOUS
 62
     5
 10
176.0
 20
-12.25
 30
0.0
 11
181.0
 21
-12.25
 31
0.0
  0
LINE
  8
DETAIL
  6
CONTINUOUS
 62
     5
 10
183.0
 20
-12.25
 30
0.0
 11
184.0
 21
-12.25
 31
0.0
  0
LINE
  8
DETAIL
  6
CONTINUOUS
 62
     5
 10
-183.99999999999989
 20
-10.25
 30
0.0
 11
-182.99999999999989
 21
-10.25
 31
0.0
  0
LINE
  8
DETAIL
  6
CONTINUOUS
 62
     5
 10
-180.99999999999989
 20
-10.25
 30
0.0
 11
-175.99999999999989
 21
-10.25
 31
0.0
  0
LINE
  8
DETAIL
  6
CONTINUOUS
 62
     5
 10
-173.99999999999989
 20
-10.25
 30
0.0
 11
-61.0
 21
-10.25
 31
0.0
  0
LINE
  8
DETAIL
  6
CONTINUOUS
 62
     5
 10
-59.0
 20
-10.25
 30
0.0
 11
59.0
 21
-10.25
 31
0.0
  0
LINE
  8
DETAIL
  6
CONTINUOUS
 62
     5
 10
61.0
 20
-10.25
 30
0.0
 11
174.0
 21
-10.25
 31
0.0
  0
LINE
  8
DETAIL
  6
CONTINUOUS
 62
     5
 10
176.0
 20
-10.25
 30
0.0
 11
181.0
 21
-10.25
 31
0.0
  0
LINE
  8
DETAIL
  6
CONTINUOUS
 62
     5
 10
183.0
 20
-10.25
 30
0.0
 11
184.0
 21
-10.25
 31
0.0
  0
LINE
  8
DETAIL
  6
CONTINUOUS
 62
     5
 10
-183.99999999999989
 20
-4.75
 30
0.0
 11
-182.99999999999989
 21
-4.75
 31
0.0
  0
LINE
  8
DETAIL
  6
CONTINUOUS
 62
     5
 10
-180.99999999999989
 20
-4.75
 30
0.0
 11
-175.99999999999989
 21
-4.75
 31
0.0
  0
LINE
  8
DETAIL
  6
CONTINUOUS
 62
     5
 10
-173.99999999999989
 20
-4.75
 30
0.0
 11
-61.0
 21
-4.75
 31
0.0
  0
LINE
  8
DETAIL
  6
CONTINUOUS
 62
     5
 10
-59.0
 20
-4.75
 30
0.0
 11
59.0
 21
-4.75
 31
0.0
  0
LINE
  8
DETAIL
  6
CONTINUOUS
 62
     5
 10
61.0
 20
-4.75
 30
0.0
 11
174.0
 21
-4.75
 31
0.0
  0
LINE
  8
DETAIL
  6
CONTINUOUS
 62
     5
 10
176.0
 20
-4.75
 30
0.0
 11
181.0
 21
-4.75
 31
0.0
  0
LINE
  8
DETAIL
  6
CONTINUOUS
 62
     5
 10
183.0
 20
-4.75
 30
0.0
 11
184.0
 21
-4.75
 31
0.0
  0
LINE
  8
DETAIL
  6
CONTINUOUS
 62
     5
 10
-183.99999999999989
 20
-2.75
 30
0.0
 11
-182.99999999999989
 21
-2.75
 31
0.0
  0
LINE
  8
DETAIL
  6
CONTINUOUS
 62
     5
 10
-180.99999999999989
 20
-2.75
 30
0.0
 11
-175.99999999999989
 21
-2.75
 31
0.0
  0
LINE
  8
DETAIL
  6
CONTINUOUS
 62
     5
 10
-173.99999999999989
 20
-2.75
 30
0.0
 11
-61.0
 21
-2.75
 31
0.0
  0
LINE
  8
DETAIL
  6
CONTINUOUS
 62
     5
 10
-59.0
 20
-2.75
 30
0.0
 11
59.0
 21
-2.75
 31
0.0
  0
LINE
  8
DETAIL
  6
CONTINUOUS
 62
     5
 10
61.0
 20
-2.75
 30
0.0
 11
174.0
 21
-2.75
 31
0.0
  0
LINE
  8
DETAIL
  6
CONTINUOUS
 62
     5
 10
176.0
 20
-2.75
 30
0.0
 11
181.0
 21
-2.75
 31
0.0
  0
LINE
  8
DETAIL
  6
CONTINUOUS
 62
     5
 10
183.0
 20
-2.75
 30
0.0
 11
184.0
 21
-2.75
 31
0.0
  0
LINE
  8
DETAIL
  6
CONTINUOUS
 62
     5
 10
-98.999999999999886
 20
93.5
 30
0.0
 11
-95.999999999999886
 21
90.5
 31
0.0
  0
LINE
  8
DETAIL
  6
CONTINUOUS
 62
     5
 10
96.0
 20
90.5
 30
0.0
 11
99.0
 21
93.5
 31
0.0
  0
LINE
  8
DETAIL
  6
CONTINUOUS
 62
     5
 10
96.0
 20
72.5
 30
0.0
 11
99.0
 21
75.5
 31
0.0
  0
LINE
  8
DETAIL
  6
CONTINUOUS
 62
     5
 10
-183.99999999999989
 20
2.75
 30
0.0
 11
-182.99999999999989
 21
2.75
 31
0.0
  0
LINE
  8
DETAIL
  6
CONTINUOUS
 62
     5
 10
-180.99999999999989
 20
2.75
 30
0.0
 11
-175.99999999999989
 21
2.75
 31
0.0
  0
LINE
  8
DETAIL
  6
CONTINUOUS
 62
     5
 10
-173.99999999999989
 20
2.75
 30
0.0
 11
-61.0
 21
2.75
 31
0.0
  0
LINE
  8
DETAIL
  6
CONTINUOUS
 62
     5
 10
-59.0
 20
2.75
 30
0.0
 11
59.0
 21
2.75
 31
0.0
  0
LINE
  8
DETAIL
  6
CONTINUOUS
 62
     5
 10
61.0
 20
2.75
 30
0.0
 11
174.0
 21
2.75
 31
0.0
  0
LINE
  8
DETAIL
  6
CONTINUOUS
 62
     5
 10
176.0
 20
2.75
 30
0.0
 11
181.0
 21
2.75
 31
0.0
  0
LINE
  8
DETAIL
  6
CONTINUOUS
 62
     5
 10
183.0
 20
2.75
 30
0.0
 11
184.0
 21
2.75
 31
0.0
  0
LINE
  8
DETAIL
  6
CONTINUOUS
 62
     5
 10
-183.99999999999989
 20
4.75
 30
0.0
 11
-182.99999999999989
 21
4.75
 31
0.0
  0
LINE
  8
DETAIL
  6
CONTINUOUS
 62
     5
 10
-180.99999999999989
 20
4.75
 30
0.0
 11
-175.99999999999989
 21
4.75
 31
0.0
  0
LINE
  8
DETAIL
  6
CONTINUOUS
 62
     5
 10
-173.99999999999989
 20
4.75
 30
0.0
 11
-61.0
 21
4.75
 31
0.0
  0
LINE
  8
DETAIL
  6
CONTINUOUS
 62
     5
 10
-59.0
 20
4.75
 30
0.0
 11
59.0
 21
4.75
 31
0.0
  0
LINE
  8
DETAIL
  6
CONTINUOUS
 62
     5
 10
61.0
 20
4.75
 30
0.0
 11
174.0
 21
4.75
 31
0.0
  0
LINE
  8
DETAIL
  6
CONTINUOUS
 62
     5
 10
176.0
 20
4.75
 30
0.0
 11
181.0
 21
4.75
 31
0.0
  0
LINE
  8
DETAIL
  6
CONTINUOUS
 62
     5
 10
183.0
 20
4.75
 30
0.0
 11
184.0
 21
4.75
 31
0.0
  0
LINE
  8
DETAIL
  6
CONTINUOUS
 62
     5
 10
-183.99999999999989
 20
10.25
 30
0.0
 11
-182.99999999999989
 21
10.25
 31
0.0
  0
LINE
  8
DETAIL
  6
CONTINUOUS
 62
     5
 10
-180.99999999999989
 20
10.25
 30
0.0
 11
-175.99999999999989
 21
10.25
 31
0.0
  0
LINE
  8
DETAIL
  6
CONTINUOUS
 62
     5
 10
-173.99999999999989
 20
10.25
 30
0.0
 11
-61.0
 21
10.25
 31
0.0
  0
LINE
  8
DETAIL
  6
CONTINUOUS
 62
     5
 10
-59.0
 20
10.25
 30
0.0
 11
59.0
 21
10.25
 31
0.0
  0
LINE
  8
DETAIL
  6
CONTINUOUS
 62
     5
 10
61.0
 20
10.25
 30
0.0
 11
174.0
 21
10.25
 31
0.0
  0
LINE
  8
DETAIL
  6
CONTINUOUS
 62
     5
 10
176.0
 20
10.25
 30
0.0
 11
181.0
 21
10.25
 31
0.0
  0
LINE
  8
DETAIL
  6
CONTINUOUS
 62
     5
 10
183.0
 20
10.25
 30
0.0
 11
184.0
 21
10.25
 31
0.0
  0
LINE
  8
DETAIL
  6
CONTINUOUS
 62
     5
 10
-183.99999999999989
 20
12.25
 30
0.0
 11
-182.99999999999989
 21
12.25
 31
0.0
  0
LINE
  8
DETAIL
  6
CONTINUOUS
 62
     5
 10
-180.99999999999989
 20
12.25
 30
0.0
 11
-175.99999999999989
 21
12.25
 31
0.0
  0
LINE
  8
DETAIL
  6
CONTINUOUS
 62
     5
 10
-173.99999999999989
 20
12.25
 30
0.0
 11
-61.0
 21
12.25
 31
0.0
  0
LINE
  8
DETAIL
  6
CONTINUOUS
 62
     5
 10
-59.0
 20
12.25
 30
0.0
 11
59.0
 21
12.25
 31
0.0
  0
LINE
  8
DETAIL
  6
CONTINUOUS
 62
     5
 10
61.0
 20
12.25
 30
0.0
 11
174.0
 21
12.25
 31
0.0
  0
LINE
  8
DETAIL
  6
CONTINUOUS
 62
     5
 10
176.0
 20
12.25
 30
0.0
 11
181.0
 21
12.25
 31
0.0
  0
LINE
  8
DETAIL
  6
CONTINUOUS
 62
     5
 10
183.0
 20
12.25
 30
0.0
 11
184.0
 21
12.25
 31
0.0
  0
LINE
  8
DETAIL
  6
CONTINUOUS
 62
     5
 10
-183.99999999999989
 20
17.75
 30
0.0
 11
-182.99999999999989
 21
17.75
 31
0.0
  0
LINE
  8
DETAIL
  6
CONTINUOUS
 62
     5
 10
-180.99999999999989
 20
17.75
 30
0.0
 11
-175.99999999999989
 21
17.75
 31
0.0
  0
LINE
  8
DETAIL
  6
CONTINUOUS
 62
     5
 10
-173.99999999999989
 20
17.75
 30
0.0
 11
-61.0
 21
17.75
 31
0.0
  0
LINE
  8
DETAIL
  6
CONTINUOUS
 62
     5
 10
-59.0
 20
17.75
 30
0.0
 11
59.0
 21
17.75
 31
0.0
  0
LINE
  8
DETAIL
  6
CONTINUOUS
 62
     5
 10
61.0
 20
17.75
 30
0.0
 11
174.0
 21
17.75
 31
0.0
  0
LINE
  8
DETAIL
  6
CONTINUOUS
 62
     5
 10
176.0
 20
17.75
 30
0.0
 11
181.0
 21
17.75
 31
0.0
  0
LINE
  8
DETAIL
  6
CONTINUOUS
 62
     5
 10
183.0
 20
17.75
 30
0.0
 11
184.0
 21
17.75
 31
0.0
  0
LINE
  8
DETAIL
  6
CONTINUOUS
 62
     5
 10
-183.99999999999989
 20
19.75
 30
0.0
 11
-182.99999999999989
 21
19.75
 31
0.0
  0
LINE
  8
DETAIL
  6
CONTINUOUS
 62
     5
 10
-180.99999999999989
 20
19.75
 30
0.0
 11
-175.99999999999989
 21
19.75
 31
0.0
  0
LINE
  8
DETAIL
  6
CONTINUOUS
 62
     5
 10
-173.99999999999989
 20
19.75
 30
0.0
 11
-61.0
 21
19.75
 31
0.0
  0
LINE
  8
DETAIL
  6
CONTINUOUS
 62
     5
 10
-59.0
 20
19.75
 30
0.0
 11
59.0
 21
19.75
 31
0.0
  0
LINE
  8
DETAIL
  6
CONTINUOUS
 62
     5
 10
61.0
 20
19.75
 30
0.0
 11
174.0
 21
19.75
 31
0.0
  0
LINE
  8
DETAIL
  6
CONTINUOUS
 62
     5
 10
176.0
 20
19.75
 30
0.0
 11
181.0
 21
19.75
 31
0.0
  0
LINE
  8
DETAIL
  6
CONTINUOUS
 62
     5
 10
183.0
 20
19.75
 30
0.0
 11
184.0
 21
19.75
 31
0.0
  0
LINE
  8
DETAIL
  6
CONTINUOUS
 62
     5
 10
-183.99999999999989
 20
25.25
 30
0.0
 11
-182.99999999999989
 21
25.25
 31
0.0
  0
LINE
  8
DETAIL
  6
CONTINUOUS
 62
     5
 10
-180.99999999999989
 20
25.25
 30
0.0
 11
-175.99999999999989
 21
25.25
 31
0.0
  0
LINE
  8
DETAIL
  6
CONTINUOUS
 62
     5
 10
-173.99999999999989
 20
25.25
 30
0.0
 11
-61.0
 21
25.25
 31
0.0
  0
LINE
  8
DETAIL
  6
CONTINUOUS
 62
     5
 10
-59.0
 20
25.25
 30
0.0
 11
59.0
 21
25.25
 31
0.0
  0
LINE
  8
DETAIL
  6
CONTINUOUS
 62
     5
 10
61.0
 20
25.25
 30
0.0
 11
174.0
 21
25.25
 31
0.0
  0
LINE
  8
DETAIL
  6
CONTINUOUS
 62
     5
 10
176.0
 20
25.25
 30
0.0
 11
181.0
 21
25.25
 31
0.0
  0
LINE
  8
DETAIL
  6
CONTINUOUS
 62
     5
 10
183.0
 20
25.25
 30
0.0
 11
184.0
 21
25.25
 31
0.0
  0
LINE
  8
DETAIL
  6
CONTINUOUS
 62
     5
 10
-183.99999999999989
 20
27.25
 30
0.0
 11
-182.99999999999989
 21
27.25
 31
0.0
  0
LINE
  8
DETAIL
  6
CONTINUOUS
 62
     5
 10
-180.99999999999989
 20
27.25
 30
0.0
 11
-175.99999999999989
 21
27.25
 31
0.0
  0
LINE
  8
DETAIL
  6
CONTINUOUS
 62
     5
 10
-173.99999999999989
 20
27.25
 30
0.0
 11
-61.0
 21
27.25
 31
0.0
  0
LINE
  8
DETAIL
  6
CONTINUOUS
 62
     5
 10
-59.0
 20
27.25
 30
0.0
 11
59.0
 21
27.25
 31
0.0
  0
LINE
  8
DETAIL
  6
CONTINUOUS
 62
     5
 10
61.0
 20
27.25
 30
0.0
 11
174.0
 21
27.25
 31
0.0
  0
LINE
  8
DETAIL
  6
CONTINUOUS
 62
     5
 10
176.0
 20
27.25
 30
0.0
 11
181.0
 21
27.25
 31
0.0
  0
LINE
  8
DETAIL
  6
CONTINUOUS
 62
     5
 10
183.0
 20
27.25
 30
0.0
 11
184.0
 21
27.25
 31
0.0
  0
LINE
  8
DETAIL
  6
CONTINUOUS
 62
     5
 10
-183.99999999999989
 20
32.75
 30
0.0
 11
-182.99999999999989
 21
32.75
 31
0.0
  0
LINE
  8
DETAIL
  6
CONTINUOUS
 62
     5
 10
-180.99999999999989
 20
32.75
 30
0.0
 11
-175.99999999999989
 21
32.75
 31
0.0
  0
LINE
  8
DETAIL
  6
CONTINUOUS
 62
     5
 10
-173.99999999999989
 20
32.75
 30
0.0
 11
-61.0
 21
32.75
 31
0.0
  0
LINE
  8
DETAIL
  6
CONTINUOUS
 62
     5
 10
-59.0
 20
32.75
 30
0.0
 11
59.0
 21
32.75
 31
0.0
  0
LINE
  8
DETAIL
  6
CONTINUOUS
 62
     5
 10
61.0
 20
32.75
 30
0.0
 11
174.0
 21
32.75
 31
0.0
  0
LINE
  8
DETAIL
  6
CONTINUOUS
 62
     5
 10
176.0
 20
32.75
 30
0.0
 11
181.0
 21
32.75
 31
0.0
  0
LINE
  8
DETAIL
  6
CONTINUOUS
 62
     5
 10
183.0
 20
32.75
 30
0.0
 11
184.0
 21
32.75
 31
0.0
  0
LINE
  8
DETAIL
  6
CONTINUOUS
 62
     5
 10
-183.99999999999989
 20
34.75
 30
0.0
 11
-182.99999999999989
 21
34.75
 31
0.0
  0
LINE
  8
DETAIL
  6
CONTINUOUS
 62
     5
 10
-180.99999999999989
 20
34.75
 30
0.0
 11
-175.99999999999989
 21
34.75
 31
0.0
  0
LINE
  8
DETAIL
  6
CONTINUOUS
 62
     5
 10
-173.99999999999989
 20
34.75
 30
0.0
 11
-61.0
 21
34.75
 31
0.0
  0
LINE
  8
DETAIL
  6
CONTINUOUS
 62
     5
 10
-59.0
 20
34.75
 30
0.0
 11
59.0
 21
34.75
 31
0.0
  0
LINE
  8
DETAIL
  6
CONTINUOUS
 62
     5
 10
61.0
 20
34.75
 30
0.0
 11
174.0
 21
34.75
 31
0.0
  0
LINE
  8
DETAIL
  6
CONTINUOUS
 62
     5
 10
176.0
 20
34.75
 30
0.0
 11
181.0
 21
34.75
 31
0.0
  0
LINE
  8
DETAIL
  6
CONTINUOUS
 62
     5
 10
183.0
 20
34.75
 30
0.0
 11
184.0
 21
34.75
 31
0.0
  0
LINE
  8
DETAIL
  6
CONTINUOUS
 62
     5
 10
-183.99999999999989
 20
40.25
 30
0.0
 11
-182.99999999999989
 21
40.25
 31
0.0
  0
LINE
  8
DETAIL
  6
CONTINUOUS
 62
     5
 10
-180.99999999999989
 20
40.25
 30
0.0
 11
-175.99999999999989
 21
40.25
 31
0.0
  0
LINE
  8
DETAIL
  6
CONTINUOUS
 62
     5
 10
-173.99999999999989
 20
40.25
 30
0.0
 11
-61.0
 21
40.25
 31
0.0
  0
LINE
  8
DETAIL
  6
CONTINUOUS
 62
     5
 10
-59.0
 20
40.25
 30
0.0
 11
59.0
 21
40.25
 31
0.0
  0
LINE
  8
DETAIL
  6
CONTINUOUS
 62
     5
 10
61.0
 20
40.25
 30
0.0
 11
174.0
 21
40.25
 31
0.0
  0
LINE
  8
DETAIL
  6
CONTINUOUS
 62
     5
 10
176.0
 20
40.25
 30
0.0
 11
181.0
 21
40.25
 31
0.0
  0
LINE
  8
DETAIL
  6
CONTINUOUS
 62
     5
 10
183.0
 20
40.25
 30
0.0
 11
184.0
 21
40.25
 31
0.0
  0
LINE
  8
DETAIL
  6
CONTINUOUS
 62
     5
 10
-183.99999999999989
 20
42.25
 30
0.0
 11
-182.99999999999989
 21
42.25
 31
0.0
  0
LINE
  8
DETAIL
  6
CONTINUOUS
 62
     5
 10
-180.99999999999989
 20
42.25
 30
0.0
 11
-175.99999999999989
 21
42.25
 31
0.0
  0
LINE
  8
DETAIL
  6
CONTINUOUS
 62
     5
 10
-173.99999999999989
 20
42.25
 30
0.0
 11
-61.0
 21
42.25
 31
0.0
  0
LINE
  8
DETAIL
  6
CONTINUOUS
 62
     5
 10
-59.0
 20
42.25
 30
0.0
 11
59.0
 21
42.25
 31
0.0
  0
LINE
  8
DETAIL
  6
CONTINUOUS
 62
     5
 10
61.0
 20
42.25
 30
0.0
 11
174.0
 21
42.25
 31
0.0
  0
LINE
  8
DETAIL
  6
CONTINUOUS
 62
     5
 10
176.0
 20
42.25
 30
0.0
 11
181.0
 21
42.25
 31
0.0
  0
LINE
  8
DETAIL
  6
CONTINUOUS
 62
     5
 10
183.0
 20
42.25
 30
0.0
 11
184.0
 21
42.25
 31
0.0
  0
LINE
  8
DETAIL
  6
CONTINUOUS
 62
     5
 10
-183.99999999999989
 20
47.75
 30
0.0
 11
-182.99999999999989
 21
47.75
 31
0.0
  0
LINE
  8
DETAIL
  6
CONTINUOUS
 62
     5
 10
-180.99999999999989
 20
47.75
 30
0.0
 11
-175.99999999999989
 21
47.75
 31
0.0
  0
LINE
  8
DETAIL
  6
CONTINUOUS
 62
     5
 10
-173.99999999999989
 20
47.75
 30
0.0
 11
-61.0
 21
47.75
 31
0.0
  0
LINE
  8
DETAIL
  6
CONTINUOUS
 62
     5
 10
-59.0
 20
47.75
 30
0.0
 11
59.0
 21
47.75
 31
0.0
  0
LINE
  8
DETAIL
  6
CONTINUOUS
 62
     5
 10
61.0
 20
47.75
 30
0.0
 11
174.0
 21
47.75
 31
0.0
  0
LINE
  8
DETAIL
  6
CONTINUOUS
 62
     5
 10
176.0
 20
47.75
 30
0.0
 11
181.0
 21
47.75
 31
0.0
  0
LINE
  8
DETAIL
  6
CONTINUOUS
 62
     5
 10
183.0
 20
47.75
 30
0.0
 11
184.0
 21
47.75
 31
0.0
  0
LINE
  8
DETAIL
  6
CONTINUOUS
 62
     5
 10
-183.99999999999989
 20
49.75
 30
0.0
 11
-182.99999999999989
 21
49.75
 31
0.0
  0
LINE
  8
DETAIL
  6
CONTINUOUS
 62
     5
 10
-180.99999999999989
 20
49.75
 30
0.0
 11
-175.99999999999989
 21
49.75
 31
0.0
  0
LINE
  8
DETAIL
  6
CONTINUOUS
 62
     5
 10
-173.99999999999989
 20
49.75
 30
0.0
 11
-61.0
 21
49.75
 31
0.0
  0
LINE
  8
DETAIL
  6
CONTINUOUS
 62
     5
 10
-59.0
 20
49.75
 30
0.0
 11
59.0
 21
49.75
 31
0.0
  0
LINE
  8
DETAIL
  6
CONTINUOUS
 62
     5
 10
61.0
 20
49.75
 30
0.0
 11
174.0
 21
49.75
 31
0.0
  0
LINE
  8
DETAIL
  6
CONTINUOUS
 62
     5
 10
176.0
 20
49.75
 30
0.0
 11
181.0
 21
49.75
 31
0.0
  0
LINE
  8
DETAIL
  6
CONTINUOUS
 62
     5
 10
183.0
 20
49.75
 30
0.0
 11
184.0
 21
49.75
 31
0.0
  0
LINE
  8
DETAIL
  6
CONTINUOUS
 62
     5
 10
57.0
 20
185.0
 30
0.0
 11
57.0
 21
183.0
 31
0.0
  0
LINE
  8
DETAIL
  6
CONTINUOUS
 62
     5
 10
57.0
 20
-185.0
 30
0.0
 11
57.0
 21
-183.0
 31
0.0
  0
LINE
  8
DETAIL
  6
CONTINUOUS
 62
     5
 10
59.0
 20
182.0
 30
0.0
 11
59.0
 21
-182.0
 31
0.0
  0
LINE
  8
DETAIL
  6
CONTINUOUS
 62
     5
 10
61.0
 20
182.0
 30
0.0
 11
61.0
 21
95.099999999999909
 31
0.0
  0
LINE
  8
DETAIL
  6
CONTINUOUS
 62
     5
 10
61.0
 20
93.5
 30
0.0
 11
61.0
 21
95.099999999999909
 31
0.0
  0
LINE
  8
DETAIL
  6
CONTINUOUS
 62
     5
 10
61.0
 20
93.5
 30
0.0
 11
61.0
 21
-182.0
 31
0.0
  0
LINE
  8
DETAIL
  6
CONTINUOUS
 62
     5
 10
-183.99999999999989
 20
55.25
 30
0.0
 11
-182.99999999999989
 21
55.25
 31
0.0
  0
LINE
  8
DETAIL
  6
CONTINUOUS
 62
     5
 10
-180.99999999999989
 20
55.25
 30
0.0
 11
-175.99999999999989
 21
55.25
 31
0.0
  0
LINE
  8
DETAIL
  6
CONTINUOUS
 62
     5
 10
-173.99999999999989
 20
55.25
 30
0.0
 11
-61.0
 21
55.25
 31
0.0
  0
LINE
  8
DETAIL
  6
CONTINUOUS
 62
     5
 10
-59.0
 20
55.25
 30
0.0
 11
59.0
 21
55.25
 31
0.0
  0
LINE
  8
DETAIL
  6
CONTINUOUS
 62
     5
 10
61.0
 20
55.25
 30
0.0
 11
174.0
 21
55.25
 31
0.0
  0
LINE
  8
DETAIL
  6
CONTINUOUS
 62
     5
 10
176.0
 20
55.25
 30
0.0
 11
181.0
 21
55.25
 31
0.0
  0
LINE
  8
DETAIL
  6
CONTINUOUS
 62
     5
 10
183.0
 20
55.25
 30
0.0
 11
184.0
 21
55.25
 31
0.0
  0
LINE
  8
DETAIL
  6
CONTINUOUS
 62
     5
 10
-183.99999999999989
 20
57.25
 30
0.0
 11
-182.99999999999989
 21
57.25
 31
0.0
  0
LINE
  8
DETAIL
  6
CONTINUOUS
 62
     5
 10
-180.99999999999989
 20
57.25
 30
0.0
 11
-175.99999999999989
 21
57.25
 31
0.0
  0
LINE
  8
DETAIL
  6
CONTINUOUS
 62
     5
 10
-173.99999999999989
 20
57.25
 30
0.0
 11
-61.0
 21
57.25
 31
0.0
  0
LINE
  8
DETAIL
  6
CONTINUOUS
 62
     5
 10
-59.0
 20
57.25
 30
0.0
 11
59.0
 21
57.25
 31
0.0
  0
LINE
  8
DETAIL
  6
CONTINUOUS
 62
     5
 10
61.0
 20
57.25
 30
0.0
 11
174.0
 21
57.25
 31
0.0
  0
LINE
  8
DETAIL
  6
CONTINUOUS
 62
     5
 10
176.0
 20
57.25
 30
0.0
 11
181.0
 21
57.25
 31
0.0
  0
LINE
  8
DETAIL
  6
CONTINUOUS
 62
     5
 10
183.0
 20
57.25
 30
0.0
 11
184.0
 21
57.25
 31
0.0
  0
LINE
  8
DETAIL
  6
CONTINUOUS
 62
     5
 10
-183.99999999999989
 20
62.75
 30
0.0
 11
-182.99999999999989
 21
62.75
 31
0.0
  0
LINE
  8
DETAIL
  6
CONTINUOUS
 62
     5
 10
-180.99999999999989
 20
62.75
 30
0.0
 11
-175.99999999999989
 21
62.75
 31
0.0
  0
LINE
  8
DETAIL
  6
CONTINUOUS
 62
     5
 10
-173.99999999999989
 20
62.75
 30
0.0
 11
-61.0
 21
62.75
 31
0.0
  0
LINE
  8
DETAIL
  6
CONTINUOUS
 62
     5
 10
-59.0
 20
62.75
 30
0.0
 11
59.0
 21
62.75
 31
0.0
  0
LINE
  8
DETAIL
  6
CONTINUOUS
 62
     5
 10
61.0
 20
62.75
 30
0.0
 11
174.0
 21
62.75
 31
0.0
  0
LINE
  8
DETAIL
  6
CONTINUOUS
 62
     5
 10
176.0
 20
62.75
 30
0.0
 11
181.0
 21
62.75
 31
0.0
  0
LINE
  8
DETAIL
  6
CONTINUOUS
 62
     5
 10
183.0
 20
62.75
 30
0.0
 11
184.0
 21
62.75
 31
0.0
  0
LINE
  8
DETAIL
  6
CONTINUOUS
 62
     5
 10
-183.99999999999989
 20
64.75
 30
0.0
 11
-182.99999999999989
 21
64.75
 31
0.0
  0
LINE
  8
DETAIL
  6
CONTINUOUS
 62
     5
 10
-180.99999999999989
 20
64.75
 30
0.0
 11
-175.99999999999989
 21
64.75
 31
0.0
  0
LINE
  8
DETAIL
  6
CONTINUOUS
 62
     5
 10
-173.99999999999989
 20
64.75
 30
0.0
 11
-61.0
 21
64.75
 31
0.0
  0
LINE
  8
DETAIL
  6
CONTINUOUS
 62
     5
 10
-59.0
 20
64.75
 30
0.0
 11
59.0
 21
64.75
 31
0.0
  0
LINE
  8
DETAIL
  6
CONTINUOUS
 62
     5
 10
61.0
 20
64.75
 30
0.0
 11
174.0
 21
64.75
 31
0.0
  0
LINE
  8
DETAIL
  6
CONTINUOUS
 62
     5
 10
176.0
 20
64.75
 30
0.0
 11
181.0
 21
64.75
 31
0.0
  0
LINE
  8
DETAIL
  6
CONTINUOUS
 62
     5
 10
183.0
 20
64.75
 30
0.0
 11
184.0
 21
64.75
 31
0.0
  0
LINE
  8
DETAIL
  6
CONTINUOUS
 62
     5
 10
-183.99999999999989
 20
70.25
 30
0.0
 11
-182.99999999999989
 21
70.25
 31
0.0
  0
LINE
  8
DETAIL
  6
CONTINUOUS
 62
     5
 10
-180.99999999999989
 20
70.25
 30
0.0
 11
-175.99999999999989
 21
70.25
 31
0.0
  0
LINE
  8
DETAIL
  6
CONTINUOUS
 62
     5
 10
-173.99999999999989
 20
70.25
 30
0.0
 11
-61.0
 21
70.25
 31
0.0
  0
LINE
  8
DETAIL
  6
CONTINUOUS
 62
     5
 10
-59.0
 20
70.25
 30
0.0
 11
59.0
 21
70.25
 31
0.0
  0
LINE
  8
DETAIL
  6
CONTINUOUS
 62
     5
 10
61.0
 20
70.25
 30
0.0
 11
174.0
 21
70.25
 31
0.0
  0
LINE
  8
DETAIL
  6
CONTINUOUS
 62
     5
 10
176.0
 20
70.25
 30
0.0
 11
181.0
 21
70.25
 31
0.0
  0
LINE
  8
DETAIL
  6
CONTINUOUS
 62
     5
 10
183.0
 20
70.25
 30
0.0
 11
184.0
 21
70.25
 31
0.0
  0
LINE
  8
DETAIL
  6
CONTINUOUS
 62
     5
 10
77.200000000000045
 20
82.5
 30
0.0
 11
77.200000000000045
 21
80.0
 31
0.0
  0
LINE
  8
DETAIL
  6
CONTINUOUS
 62
     5
 10
82.800000000000068
 20
80.0
 30
0.0
 11
82.800000000000068
 21
82.5
 31
0.0
  0
LINE
  8
DETAIL
  6
CONTINUOUS
 62
     5
 10
-183.99999999999989
 20
72.25
 30
0.0
 11
-182.99999999999989
 21
72.25
 31
0.0
  0
LINE
  8
DETAIL
  6
CONTINUOUS
 62
     5
 10
-180.99999999999989
 20
72.25
 30
0.0
 11
-175.99999999999989
 21
72.25
 31
0.0
  0
LINE
  8
DETAIL
  6
CONTINUOUS
 62
     5
 10
-173.99999999999989
 20
72.25
 30
0.0
 11
-61.0
 21
72.25
 31
0.0
  0
LINE
  8
DETAIL
  6
CONTINUOUS
 62
     5
 10
-59.0
 20
72.25
 30
0.0
 11
59.0
 21
72.25
 31
0.0
  0
LINE
  8
DETAIL
  6
CONTINUOUS
 62
     5
 10
61.0
 20
72.25
 30
0.0
 11
174.0
 21
72.25
 31
0.0
  0
LINE
  8
DETAIL
  6
CONTINUOUS
 62
     5
 10
176.0
 20
72.25
 30
0.0
 11
181.0
 21
72.25
 31
0.0
  0
LINE
  8
DETAIL
  6
CONTINUOUS
 62
     5
 10
183.0
 20
72.25
 30
0.0
 11
184.0
 21
72.25
 31
0.0
  0
LINE
  8
DETAIL
  6
CONTINUOUS
 62
     5
 10
-95.999999999999886
 20
72.5
 30
0.0
 11
-64.0
 21
72.5
 31
0.0
  0
LINE
  8
DETAIL
  6
CONTINUOUS
 62
     5
 10
64.0
 20
72.5
 30
0.0
 11
96.0
 21
72.5
 31
0.0
  0
LINE
  8
DETAIL
  6
CONTINUOUS
 62
     5
 10
-183.99999999999989
 20
77.75
 30
0.0
 11
-182.99999999999989
 21
77.75
 31
0.0
  0
LINE
  8
DETAIL
  6
CONTINUOUS
 62
     5
 10
-180.99999999999989
 20
77.75
 30
0.0
 11
-175.99999999999989
 21
77.75
 31
0.0
  0
LINE
  8
DETAIL
  6
CONTINUOUS
 62
     5
 10
-173.99999999999989
 20
77.75
 30
0.0
 11
-61.0
 21
77.75
 31
0.0
  0
LINE
  8
DETAIL
  6
CONTINUOUS
 62
     5
 10
-59.0
 20
77.75
 30
0.0
 11
59.0
 21
77.75
 31
0.0
  0
LINE
  8
DETAIL
  6
CONTINUOUS
 62
     5
 10
61.0
 20
77.75
 30
0.0
 11
174.0
 21
77.75
 31
0.0
  0
LINE
  8
DETAIL
  6
CONTINUOUS
 62
     5
 10
176.0
 20
77.75
 30
0.0
 11
181.0
 21
77.75
 31
0.0
  0
LINE
  8
DETAIL
  6
CONTINUOUS
 62
     5
 10
183.0
 20
77.75
 30
0.0
 11
184.0
 21
77.75
 31
0.0
  0
LINE
  8
DETAIL
  6
CONTINUOUS
 62
     5
 10
-183.99999999999989
 20
79.75
 30
0.0
 11
-182.99999999999989
 21
79.75
 31
0.0
  0
LINE
  8
DETAIL
  6
CONTINUOUS
 62
     5
 10
-180.99999999999989
 20
79.75
 30
0.0
 11
-175.99999999999989
 21
79.75
 31
0.0
  0
LINE
  8
DETAIL
  6
CONTINUOUS
 62
     5
 10
-173.99999999999989
 20
79.75
 30
0.0
 11
-61.0
 21
79.75
 31
0.0
  0
LINE
  8
DETAIL
  6
CONTINUOUS
 62
     5
 10
-59.0
 20
79.75
 30
0.0
 11
59.0
 21
79.75
 31
0.0
  0
LINE
  8
DETAIL
  6
CONTINUOUS
 62
     5
 10
61.0
 20
79.75
 30
0.0
 11
174.0
 21
79.75
 31
0.0
  0
LINE
  8
DETAIL
  6
CONTINUOUS
 62
     5
 10
176.0
 20
79.75
 30
0.0
 11
181.0
 21
79.75
 31
0.0
  0
LINE
  8
DETAIL
  6
CONTINUOUS
 62
     5
 10
183.0
 20
79.75
 30
0.0
 11
184.0
 21
79.75
 31
0.0
  0
LINE
  8
DETAIL
  6
CONTINUOUS
 62
     5
 10
-183.99999999999989
 20
85.25
 30
0.0
 11
-182.99999999999989
 21
85.25
 31
0.0
  0
LINE
  8
DETAIL
  6
CONTINUOUS
 62
     5
 10
-180.99999999999989
 20
85.25
 30
0.0
 11
-175.99999999999989
 21
85.25
 31
0.0
  0
LINE
  8
DETAIL
  6
CONTINUOUS
 62
     5
 10
-173.99999999999989
 20
85.25
 30
0.0
 11
-61.0
 21
85.25
 31
0.0
  0
LINE
  8
DETAIL
  6
CONTINUOUS
 62
     5
 10
-59.0
 20
85.25
 30
0.0
 11
59.0
 21
85.25
 31
0.0
  0
LINE
  8
DETAIL
  6
CONTINUOUS
 62
     5
 10
61.0
 20
85.25
 30
0.0
 11
174.0
 21
85.25
 31
0.0
  0
LINE
  8
DETAIL
  6
CONTINUOUS
 62
     5
 10
176.0
 20
85.25
 30
0.0
 11
181.0
 21
85.25
 31
0.0
  0
LINE
  8
DETAIL
  6
CONTINUOUS
 62
     5
 10
183.0
 20
85.25
 30
0.0
 11
184.0
 21
85.25
 31
0.0
  0
LINE
  8
DETAIL
  6
CONTINUOUS
 62
     5
 10
-183.99999999999989
 20
87.25
 30
0.0
 11
-182.99999999999989
 21
87.25
 31
0.0
  0
LINE
  8
DETAIL
  6
CONTINUOUS
 62
     5
 10
-180.99999999999989
 20
87.25
 30
0.0
 11
-175.99999999999989
 21
87.25
 31
0.0
  0
LINE
  8
DETAIL
  6
CONTINUOUS
 62
     5
 10
-173.99999999999989
 20
87.25
 30
0.0
 11
-61.0
 21
87.25
 31
0.0
  0
LINE
  8
DETAIL
  6
CONTINUOUS
 62
     5
 10
-59.0
 20
87.25
 30
0.0
 11
59.0
 21
87.25
 31
0.0
  0
LINE
  8
DETAIL
  6
CONTINUOUS
 62
     5
 10
61.0
 20
87.25
 30
0.0
 11
174.0
 21
87.25
 31
0.0
  0
LINE
  8
DETAIL
  6
CONTINUOUS
 62
     5
 10
176.0
 20
87.25
 30
0.0
 11
181.0
 21
87.25
 31
0.0
  0
LINE
  8
DETAIL
  6
CONTINUOUS
 62
     5
 10
183.0
 20
87.25
 30
0.0
 11
184.0
 21
87.25
 31
0.0
  0
LINE
  8
DETAIL
  6
CONTINUOUS
 62
     5
 10
99.0
 20
75.5
 30
0.0
 11
99.0
 21
77.75
 31
0.0
  0
LINE
  8
DETAIL
  6
CONTINUOUS
 62
     5
 10
99.0
 20
79.75
 30
0.0
 11
99.0
 21
85.25
 31
0.0
  0
LINE
  8
DETAIL
  6
CONTINUOUS
 62
     5
 10
99.0
 20
87.25
 30
0.0
 11
99.0
 21
92.75
 31
0.0
  0
LINE
  8
DETAIL
  6
CONTINUOUS
 62
     5
 10
99.0
 20
93.5
 30
0.0
 11
99.0
 21
95.099999999999909
 31
0.0
  0
LINE
  8
DETAIL
  6
CONTINUOUS
 62
     5
 10
96.0
 20
90.5
 30
0.0
 11
64.0
 21
90.5
 31
0.0
  0
LINE
  8
DETAIL
  6
CONTINUOUS
 62
     5
 10
-64.0
 20
90.5
 30
0.0
 11
-95.999999999999886
 21
90.5
 31
0.0
  0
LINE
  8
DETAIL
  6
CONTINUOUS
 62
     5
 10
-183.99999999999989
 20
92.75
 30
0.0
 11
-182.99999999999989
 21
92.75
 31
0.0
  0
LINE
  8
DETAIL
  6
CONTINUOUS
 62
     5
 10
-180.99999999999989
 20
92.75
 30
0.0
 11
-175.99999999999989
 21
92.75
 31
0.0
  0
LINE
  8
DETAIL
  6
CONTINUOUS
 62
     5
 10
-173.99999999999989
 20
92.75
 30
0.0
 11
-98.249999999999886
 21
92.75
 31
0.0
  0
LINE
  8
DETAIL
  6
CONTINUOUS
 62
     5
 10
-61.75
 20
92.75
 30
0.0
 11
-61.0
 21
92.75
 31
0.0
  0
LINE
  8
DETAIL
  6
CONTINUOUS
 62
     5
 10
-59.0
 20
92.75
 30
0.0
 11
59.0
 21
92.75
 31
0.0
  0
LINE
  8
DETAIL
  6
CONTINUOUS
 62
     5
 10
61.0
 20
92.75
 30
0.0
 11
61.75
 21
92.75
 31
0.0
  0
LINE
  8
DETAIL
  6
CONTINUOUS
 62
     5
 10
98.25
 20
92.75
 30
0.0
 11
174.0
 21
92.75
 31
0.0
  0
LINE
  8
DETAIL
  6
CONTINUOUS
 62
     5
 10
176.0
 20
92.75
 30
0.0
 11
181.0
 21
92.75
 31
0.0
  0
LINE
  8
DETAIL
  6
CONTINUOUS
 62
     5
 10
183.0
 20
92.75
 30
0.0
 11
184.0
 21
92.75
 31
0.0
  0
LINE
  8
DETAIL
  6
CONTINUOUS
 62
     5
 10
-183.99999999999989
 20
94.75
 30
0.0
 11
-182.99999999999989
 21
94.75
 31
0.0
  0
LINE
  8
DETAIL
  6
CONTINUOUS
 62
     5
 10
-180.99999999999989
 20
94.75
 30
0.0
 11
-175.99999999999989
 21
94.75
 31
0.0
  0
LINE
  8
DETAIL
  6
CONTINUOUS
 62
     5
 10
-173.99999999999989
 20
94.75
 30
0.0
 11
-98.999999999999886
 21
94.75
 31
0.0
  0
LINE
  8
DETAIL
  6
CONTINUOUS
 62
     5
 10
-59.0
 20
94.75
 30
0.0
 11
59.0
 21
94.75
 31
0.0
  0
LINE
  8
DETAIL
  6
CONTINUOUS
 62
     5
 10
99.0
 20
94.75
 30
0.0
 11
174.0
 21
94.75
 31
0.0
  0
LINE
  8
DETAIL
  6
CONTINUOUS
 62
     5
 10
176.0
 20
94.75
 30
0.0
 11
181.0
 21
94.75
 31
0.0
  0
LINE
  8
DETAIL
  6
CONTINUOUS
 62
     5
 10
183.0
 20
94.75
 30
0.0
 11
184.0
 21
94.75
 31
0.0
  0
LINE
  8
DETAIL
  6
CONTINUOUS
 62
     5
 10
99.0
 20
95.099999999999909
 30
0.0
 11
61.0
 21
95.099999999999909
 31
0.0
  0
LINE
  8
DETAIL
  6
CONTINUOUS
 62
     5
 10
-61.0
 20
95.099999999999909
 30
0.0
 11
-98.999999999999886
 21
95.099999999999909
 31
0.0
  0
LINE
  8
DETAIL
  6
CONTINUOUS
 62
     5
 10
-183.99999999999989
 20
100.25
 30
0.0
 11
-182.99999999999989
 21
100.25
 31
0.0
  0
LINE
  8
DETAIL
  6
CONTINUOUS
 62
     5
 10
-180.99999999999989
 20
100.25
 30
0.0
 11
-175.99999999999989
 21
100.25
 31
0.0
  0
LINE
  8
DETAIL
  6
CONTINUOUS
 62
     5
 10
-173.99999999999989
 20
100.25
 30
0.0
 11
-61.0
 21
100.25
 31
0.0
  0
LINE
  8
DETAIL
  6
CONTINUOUS
 62
     5
 10
-59.0
 20
100.25
 30
0.0
 11
59.0
 21
100.25
 31
0.0
  0
LINE
  8
DETAIL
  6
CONTINUOUS
 62
     5
 10
61.0
 20
100.25
 30
0.0
 11
174.0
 21
100.25
 31
0.0
  0
LINE
  8
DETAIL
  6
CONTINUOUS
 62
     5
 10
176.0
 20
100.25
 30
0.0
 11
181.0
 21
100.25
 31
0.0
  0
LINE
  8
DETAIL
  6
CONTINUOUS
 62
     5
 10
183.0
 20
100.25
 30
0.0
 11
184.0
 21
100.25
 31
0.0
  0
LINE
  8
DETAIL
  6
CONTINUOUS
 62
     5
 10
-183.99999999999989
 20
102.25
 30
0.0
 11
-182.99999999999989
 21
102.25
 31
0.0
  0
LINE
  8
DETAIL
  6
CONTINUOUS
 62
     5
 10
-180.99999999999989
 20
102.25
 30
0.0
 11
-175.99999999999989
 21
102.25
 31
0.0
  0
LINE
  8
DETAIL
  6
CONTINUOUS
 62
     5
 10
-173.99999999999989
 20
102.25
 30
0.0
 11
-61.0
 21
102.25
 31
0.0
  0
LINE
  8
DETAIL
  6
CONTINUOUS
 62
     5
 10
-59.0
 20
102.25
 30
0.0
 11
59.0
 21
102.25
 31
0.0
  0
LINE
  8
DETAIL
  6
CONTINUOUS
 62
     5
 10
61.0
 20
102.25
 30
0.0
 11
174.0
 21
102.25
 31
0.0
  0
LINE
  8
DETAIL
  6
CONTINUOUS
 62
     5
 10
176.0
 20
102.25
 30
0.0
 11
181.0
 21
102.25
 31
0.0
  0
LINE
  8
DETAIL
  6
CONTINUOUS
 62
     5
 10
183.0
 20
102.25
 30
0.0
 11
184.0
 21
102.25
 31
0.0
  0
LINE
  8
DETAIL
  6
CONTINUOUS
 62
     5
 10
61.0
 20
75.5
 30
0.0
 11
64.0
 21
72.5
 31
0.0
  0
LINE
  8
DETAIL
  6
CONTINUOUS
 62
     5
 10
-183.99999999999989
 20
107.75
 30
0.0
 11
-182.99999999999989
 21
107.75
 31
0.0
  0
LINE
  8
DETAIL
  6
CONTINUOUS
 62
     5
 10
-180.99999999999989
 20
107.75
 30
0.0
 11
-175.99999999999989
 21
107.75
 31
0.0
  0
LINE
  8
DETAIL
  6
CONTINUOUS
 62
     5
 10
-173.99999999999989
 20
107.75
 30
0.0
 11
-61.0
 21
107.75
 31
0.0
  0
LINE
  8
DETAIL
  6
CONTINUOUS
 62
     5
 10
-59.0
 20
107.75
 30
0.0
 11
59.0
 21
107.75
 31
0.0
  0
LINE
  8
DETAIL
  6
CONTINUOUS
 62
     5
 10
61.0
 20
107.75
 30
0.0
 11
174.0
 21
107.75
 31
0.0
  0
LINE
  8
DETAIL
  6
CONTINUOUS
 62
     5
 10
176.0
 20
107.75
 30
0.0
 11
181.0
 21
107.75
 31
0.0
  0
LINE
  8
DETAIL
  6
CONTINUOUS
 62
     5
 10
183.0
 20
107.75
 30
0.0
 11
184.0
 21
107.75
 31
0.0
  0
LINE
  8
DETAIL
  6
CONTINUOUS
 62
     5
 10
-183.99999999999989
 20
109.75
 30
0.0
 11
-182.99999999999989
 21
109.75
 31
0.0
  0
LINE
  8
DETAIL
  6
CONTINUOUS
 62
     5
 10
-180.99999999999989
 20
109.75
 30
0.0
 11
-175.99999999999989
 21
109.75
 31
0.0
  0
LINE
  8
DETAIL
  6
CONTINUOUS
 62
     5
 10
-173.99999999999989
 20
109.75
 30
0.0
 11
-61.0
 21
109.75
 31
0.0
  0
LINE
  8
DETAIL
  6
CONTINUOUS
 62
     5
 10
-59.0
 20
109.75
 30
0.0
 11
59.0
 21
109.75
 31
0.0
  0
LINE
  8
DETAIL
  6
CONTINUOUS
 62
     5
 10
61.0
 20
109.75
 30
0.0
 11
174.0
 21
109.75
 31
0.0
  0
LINE
  8
DETAIL
  6
CONTINUOUS
 62
     5
 10
176.0
 20
109.75
 30
0.0
 11
181.0
 21
109.75
 31
0.0
  0
LINE
  8
DETAIL
  6
CONTINUOUS
 62
     5
 10
183.0
 20
109.75
 30
0.0
 11
184.0
 21
109.75
 31
0.0
  0
LINE
  8
DETAIL
  6
CONTINUOUS
 62
     5
 10
-183.99999999999989
 20
115.25
 30
0.0
 11
-182.99999999999989
 21
115.25
 31
0.0
  0
LINE
  8
DETAIL
  6
CONTINUOUS
 62
     5
 10
-180.99999999999989
 20
115.25
 30
0.0
 11
-175.99999999999989
 21
115.25
 31
0.0
  0
LINE
  8
DETAIL
  6
CONTINUOUS
 62
     5
 10
-173.99999999999989
 20
115.25
 30
0.0
 11
-61.0
 21
115.25
 31
0.0
  0
LINE
  8
DETAIL
  6
CONTINUOUS
 62
     5
 10
-59.0
 20
115.25
 30
0.0
 11
59.0
 21
115.25
 31
0.0
  0
LINE
  8
DETAIL
  6
CONTINUOUS
 62
     5
 10
61.0
 20
115.25
 30
0.0
 11
174.0
 21
115.25
 31
0.0
  0
LINE
  8
DETAIL
  6
CONTINUOUS
 62
     5
 10
176.0
 20
115.25
 30
0.0
 11
181.0
 21
115.25
 31
0.0
  0
LINE
  8
DETAIL
  6
CONTINUOUS
 62
     5
 10
183.0
 20
115.25
 30
0.0
 11
184.0
 21
115.25
 31
0.0
  0
LINE
  8
DETAIL
  6
CONTINUOUS
 62
     5
 10
-183.99999999999989
 20
117.25
 30
0.0
 11
-182.99999999999989
 21
117.25
 31
0.0
  0
LINE
  8
DETAIL
  6
CONTINUOUS
 62
     5
 10
-180.99999999999989
 20
117.25
 30
0.0
 11
-175.99999999999989
 21
117.25
 31
0.0
  0
LINE
  8
DETAIL
  6
CONTINUOUS
 62
     5
 10
-173.99999999999989
 20
117.25
 30
0.0
 11
-61.0
 21
117.25
 31
0.0
  0
LINE
  8
DETAIL
  6
CONTINUOUS
 62
     5
 10
-59.0
 20
117.25
 30
0.0
 11
59.0
 21
117.25
 31
0.0
  0
LINE
  8
DETAIL
  6
CONTINUOUS
 62
     5
 10
61.0
 20
117.25
 30
0.0
 11
174.0
 21
117.25
 31
0.0
  0
LINE
  8
DETAIL
  6
CONTINUOUS
 62
     5
 10
176.0
 20
117.25
 30
0.0
 11
181.0
 21
117.25
 31
0.0
  0
LINE
  8
DETAIL
  6
CONTINUOUS
 62
     5
 10
183.0
 20
117.25
 30
0.0
 11
184.0
 21
117.25
 31
0.0
  0
LINE
  8
DETAIL
  6
CONTINUOUS
 62
     5
 10
-183.99999999999989
 20
122.75
 30
0.0
 11
-182.99999999999989
 21
122.75
 31
0.0
  0
LINE
  8
DETAIL
  6
CONTINUOUS
 62
     5
 10
-180.99999999999989
 20
122.75
 30
0.0
 11
-175.99999999999989
 21
122.75
 31
0.0
  0
LINE
  8
DETAIL
  6
CONTINUOUS
 62
     5
 10
-173.99999999999989
 20
122.75
 30
0.0
 11
-61.0
 21
122.75
 31
0.0
  0
LINE
  8
DETAIL
  6
CONTINUOUS
 62
     5
 10
-59.0
 20
122.75
 30
0.0
 11
59.0
 21
122.75
 31
0.0
  0
LINE
  8
DETAIL
  6
CONTINUOUS
 62
     5
 10
61.0
 20
122.75
 30
0.0
 11
174.0
 21
122.75
 31
0.0
  0
LINE
  8
DETAIL
  6
CONTINUOUS
 62
     5
 10
176.0
 20
122.75
 30
0.0
 11
181.0
 21
122.75
 31
0.0
  0
LINE
  8
DETAIL
  6
CONTINUOUS
 62
     5
 10
183.0
 20
122.75
 30
0.0
 11
184.0
 21
122.75
 31
0.0
  0
LINE
  8
DETAIL
  6
CONTINUOUS
 62
     5
 10
61.0
 20
93.5
 30
0.0
 11
64.0
 21
90.5
 31
0.0
  0
LINE
  8
DETAIL
  6
CONTINUOUS
 62
     5
 10
-183.99999999999989
 20
124.75
 30
0.0
 11
-182.99999999999989
 21
124.75
 31
0.0
  0
LINE
  8
DETAIL
  6
CONTINUOUS
 62
     5
 10
-180.99999999999989
 20
124.75
 30
0.0
 11
-175.99999999999989
 21
124.75
 31
0.0
  0
LINE
  8
DETAIL
  6
CONTINUOUS
 62
     5
 10
-173.99999999999989
 20
124.75
 30
0.0
 11
-61.0
 21
124.75
 31
0.0
  0
LINE
  8
DETAIL
  6
CONTINUOUS
 62
     5
 10
-59.0
 20
124.75
 30
0.0
 11
59.0
 21
124.75
 31
0.0
  0
LINE
  8
DETAIL
  6
CONTINUOUS
 62
     5
 10
61.0
 20
124.75
 30
0.0
 11
174.0
 21
124.75
 31
0.0
  0
LINE
  8
DETAIL
  6
CONTINUOUS
 62
     5
 10
176.0
 20
124.75
 30
0.0
 11
181.0
 21
124.75
 31
0.0
  0
LINE
  8
DETAIL
  6
CONTINUOUS
 62
     5
 10
183.0
 20
124.75
 30
0.0
 11
184.0
 21
124.75
 31
0.0
  0
LINE
  8
DETAIL
  6
CONTINUOUS
 62
     5
 10
-183.99999999999989
 20
130.25
 30
0.0
 11
-182.99999999999989
 21
130.25
 31
0.0
  0
LINE
  8
DETAIL
  6
CONTINUOUS
 62
     5
 10
-180.99999999999989
 20
130.25
 30
0.0
 11
-175.99999999999989
 21
130.25
 31
0.0
  0
LINE
  8
DETAIL
  6
CONTINUOUS
 62
     5
 10
-173.99999999999989
 20
130.25
 30
0.0
 11
-61.0
 21
130.25
 31
0.0
  0
LINE
  8
DETAIL
  6
CONTINUOUS
 62
     5
 10
-59.0
 20
130.25
 30
0.0
 11
59.0
 21
130.25
 31
0.0
  0
LINE
  8
DETAIL
  6
CONTINUOUS
 62
     5
 10
61.0
 20
130.25
 30
0.0
 11
174.0
 21
130.25
 31
0.0
  0
LINE
  8
DETAIL
  6
CONTINUOUS
 62
     5
 10
176.0
 20
130.25
 30
0.0
 11
181.0
 21
130.25
 31
0.0
  0
LINE
  8
DETAIL
  6
CONTINUOUS
 62
     5
 10
183.0
 20
130.25
 30
0.0
 11
184.0
 21
130.25
 31
0.0
  0
LINE
  8
DETAIL
  6
CONTINUOUS
 62
     5
 10
-183.99999999999989
 20
132.25
 30
0.0
 11
-182.99999999999989
 21
132.25
 31
0.0
  0
LINE
  8
DETAIL
  6
CONTINUOUS
 62
     5
 10
-180.99999999999989
 20
132.25
 30
0.0
 11
-175.99999999999989
 21
132.25
 31
0.0
  0
LINE
  8
DETAIL
  6
CONTINUOUS
 62
     5
 10
-173.99999999999989
 20
132.25
 30
0.0
 11
-61.0
 21
132.25
 31
0.0
  0
LINE
  8
DETAIL
  6
CONTINUOUS
 62
     5
 10
-59.0
 20
132.25
 30
0.0
 11
59.0
 21
132.25
 31
0.0
  0
LINE
  8
DETAIL
  6
CONTINUOUS
 62
     5
 10
61.0
 20
132.25
 30
0.0
 11
174.0
 21
132.25
 31
0.0
  0
LINE
  8
DETAIL
  6
CONTINUOUS
 62
     5
 10
176.0
 20
132.25
 30
0.0
 11
181.0
 21
132.25
 31
0.0
  0
LINE
  8
DETAIL
  6
CONTINUOUS
 62
     5
 10
183.0
 20
132.25
 30
0.0
 11
184.0
 21
132.25
 31
0.0
  0
LINE
  8
DETAIL
  6
CONTINUOUS
 62
     5
 10
-183.99999999999989
 20
137.75
 30
0.0
 11
-182.99999999999989
 21
137.75
 31
0.0
  0
LINE
  8
DETAIL
  6
CONTINUOUS
 62
     5
 10
-180.99999999999989
 20
137.75
 30
0.0
 11
-175.99999999999989
 21
137.75
 31
0.0
  0
LINE
  8
DETAIL
  6
CONTINUOUS
 62
     5
 10
-173.99999999999989
 20
137.75
 30
0.0
 11
-61.0
 21
137.75
 31
0.0
  0
LINE
  8
DETAIL
  6
CONTINUOUS
 62
     5
 10
-59.0
 20
137.75
 30
0.0
 11
59.0
 21
137.75
 31
0.0
  0
LINE
  8
DETAIL
  6
CONTINUOUS
 62
     5
 10
61.0
 20
137.75
 30
0.0
 11
174.0
 21
137.75
 31
0.0
  0
LINE
  8
DETAIL
  6
CONTINUOUS
 62
     5
 10
176.0
 20
137.75
 30
0.0
 11
181.0
 21
137.75
 31
0.0
  0
LINE
  8
DETAIL
  6
CONTINUOUS
 62
     5
 10
183.0
 20
137.75
 30
0.0
 11
184.0
 21
137.75
 31
0.0
  0
LINE
  8
DETAIL
  6
CONTINUOUS
 62
     5
 10
-183.99999999999989
 20
139.75
 30
0.0
 11
-182.99999999999989
 21
139.75
 31
0.0
  0
LINE
  8
DETAIL
  6
CONTINUOUS
 62
     5
 10
-180.99999999999989
 20
139.75
 30
0.0
 11
-175.99999999999989
 21
139.75
 31
0.0
  0
LINE
  8
DETAIL
  6
CONTINUOUS
 62
     5
 10
-173.99999999999989
 20
139.75
 30
0.0
 11
-61.0
 21
139.75
 31
0.0
  0
LINE
  8
DETAIL
  6
CONTINUOUS
 62
     5
 10
-59.0
 20
139.75
 30
0.0
 11
59.0
 21
139.75
 31
0.0
  0
LINE
  8
DETAIL
  6
CONTINUOUS
 62
     5
 10
61.0
 20
139.75
 30
0.0
 11
174.0
 21
139.75
 31
0.0
  0
LINE
  8
DETAIL
  6
CONTINUOUS
 62
     5
 10
176.0
 20
139.75
 30
0.0
 11
181.0
 21
139.75
 31
0.0
  0
LINE
  8
DETAIL
  6
CONTINUOUS
 62
     5
 10
183.0
 20
139.75
 30
0.0
 11
184.0
 21
139.75
 31
0.0
  0
LINE
  8
DETAIL
  6
CONTINUOUS
 62
     5
 10
-183.99999999999989
 20
145.25
 30
0.0
 11
-182.99999999999989
 21
145.25
 31
0.0
  0
LINE
  8
DETAIL
  6
CONTINUOUS
 62
     5
 10
-180.99999999999989
 20
145.25
 30
0.0
 11
-175.99999999999989
 21
145.25
 31
0.0
  0
LINE
  8
DETAIL
  6
CONTINUOUS
 62
     5
 10
-173.99999999999989
 20
145.25
 30
0.0
 11
-61.0
 21
145.25
 31
0.0
  0
LINE
  8
DETAIL
  6
CONTINUOUS
 62
     5
 10
-59.0
 20
145.25
 30
0.0
 11
59.0
 21
145.25
 31
0.0
  0
LINE
  8
DETAIL
  6
CONTINUOUS
 62
     5
 10
61.0
 20
145.25
 30
0.0
 11
174.0
 21
145.25
 31
0.0
  0
LINE
  8
DETAIL
  6
CONTINUOUS
 62
     5
 10
176.0
 20
145.25
 30
0.0
 11
181.0
 21
145.25
 31
0.0
  0
LINE
  8
DETAIL
  6
CONTINUOUS
 62
     5
 10
183.0
 20
145.25
 30
0.0
 11
184.0
 21
145.25
 31
0.0
  0
LINE
  8
DETAIL
  6
CONTINUOUS
 62
     5
 10
-183.99999999999989
 20
147.25
 30
0.0
 11
-182.99999999999989
 21
147.25
 31
0.0
  0
LINE
  8
DETAIL
  6
CONTINUOUS
 62
     5
 10
-180.99999999999989
 20
147.25
 30
0.0
 11
-175.99999999999989
 21
147.25
 31
0.0
  0
LINE
  8
DETAIL
  6
CONTINUOUS
 62
     5
 10
-173.99999999999989
 20
147.25
 30
0.0
 11
-61.0
 21
147.25
 31
0.0
  0
LINE
  8
DETAIL
  6
CONTINUOUS
 62
     5
 10
-59.0
 20
147.25
 30
0.0
 11
59.0
 21
147.25
 31
0.0
  0
LINE
  8
DETAIL
  6
CONTINUOUS
 62
     5
 10
61.0
 20
147.25
 30
0.0
 11
174.0
 21
147.25
 31
0.0
  0
LINE
  8
DETAIL
  6
CONTINUOUS
 62
     5
 10
176.0
 20
147.25
 30
0.0
 11
181.0
 21
147.25
 31
0.0
  0
LINE
  8
DETAIL
  6
CONTINUOUS
 62
     5
 10
183.0
 20
147.25
 30
0.0
 11
184.0
 21
147.25
 31
0.0
  0
LINE
  8
DETAIL
  6
CONTINUOUS
 62
     5
 10
-183.99999999999989
 20
152.75
 30
0.0
 11
-182.99999999999989
 21
152.75
 31
0.0
  0
LINE
  8
DETAIL
  6
CONTINUOUS
 62
     5
 10
-180.99999999999989
 20
152.75
 30
0.0
 11
-175.99999999999989
 21
152.75
 31
0.0
  0
LINE
  8
DETAIL
  6
CONTINUOUS
 62
     5
 10
-173.99999999999989
 20
152.75
 30
0.0
 11
-61.0
 21
152.75
 31
0.0
  0
LINE
  8
DETAIL
  6
CONTINUOUS
 62
     5
 10
-59.0
 20
152.75
 30
0.0
 11
59.0
 21
152.75
 31
0.0
  0
LINE
  8
DETAIL
  6
CONTINUOUS
 62
     5
 10
61.0
 20
152.75
 30
0.0
 11
174.0
 21
152.75
 31
0.0
  0
LINE
  8
DETAIL
  6
CONTINUOUS
 62
     5
 10
176.0
 20
152.75
 30
0.0
 11
181.0
 21
152.75
 31
0.0
  0
LINE
  8
DETAIL
  6
CONTINUOUS
 62
     5
 10
183.0
 20
152.75
 30
0.0
 11
184.0
 21
152.75
 31
0.0
  0
LINE
  8
DETAIL
  6
CONTINUOUS
 62
     5
 10
-183.99999999999989
 20
154.75
 30
0.0
 11
-182.99999999999989
 21
154.75
 31
0.0
  0
LINE
  8
DETAIL
  6
CONTINUOUS
 62
     5
 10
-180.99999999999989
 20
154.75
 30
0.0
 11
-175.99999999999989
 21
154.75
 31
0.0
  0
LINE
  8
DETAIL
  6
CONTINUOUS
 62
     5
 10
-173.99999999999989
 20
154.75
 30
0.0
 11
-61.0
 21
154.75
 31
0.0
  0
LINE
  8
DETAIL
  6
CONTINUOUS
 62
     5
 10
-59.0
 20
154.75
 30
0.0
 11
59.0
 21
154.75
 31
0.0
  0
LINE
  8
DETAIL
  6
CONTINUOUS
 62
     5
 10
61.0
 20
154.75
 30
0.0
 11
174.0
 21
154.75
 31
0.0
  0
LINE
  8
DETAIL
  6
CONTINUOUS
 62
     5
 10
176.0
 20
154.75
 30
0.0
 11
181.0
 21
154.75
 31
0.0
  0
LINE
  8
DETAIL
  6
CONTINUOUS
 62
     5
 10
183.0
 20
154.75
 30
0.0
 11
184.0
 21
154.75
 31
0.0
  0
LINE
  8
DETAIL
  6
CONTINUOUS
 62
     5
 10
174.0
 20
182.0
 30
0.0
 11
174.0
 21
-182.0
 31
0.0
  0
LINE
  8
DETAIL
  6
CONTINUOUS
 62
     5
 10
176.0
 20
182.0
 30
0.0
 11
176.0
 21
-182.0
 31
0.0
  0
LINE
  8
DETAIL
  6
CONTINUOUS
 62
     5
 10
-183.99999999999989
 20
160.25
 30
0.0
 11
-182.99999999999989
 21
160.25
 31
0.0
  0
LINE
  8
DETAIL
  6
CONTINUOUS
 62
     5
 10
-180.99999999999989
 20
160.25
 30
0.0
 11
-175.99999999999989
 21
160.25
 31
0.0
  0
LINE
  8
DETAIL
  6
CONTINUOUS
 62
     5
 10
-173.99999999999989
 20
160.25
 30
0.0
 11
-61.0
 21
160.25
 31
0.0
  0
LINE
  8
DETAIL
  6
CONTINUOUS
 62
     5
 10
-59.0
 20
160.25
 30
0.0
 11
59.0
 21
160.25
 31
0.0
  0
LINE
  8
DETAIL
  6
CONTINUOUS
 62
     5
 10
61.0
 20
160.25
 30
0.0
 11
174.0
 21
160.25
 31
0.0
  0
LINE
  8
DETAIL
  6
CONTINUOUS
 62
     5
 10
176.0
 20
160.25
 30
0.0
 11
181.0
 21
160.25
 31
0.0
  0
LINE
  8
DETAIL
  6
CONTINUOUS
 62
     5
 10
183.0
 20
160.25
 30
0.0
 11
184.0
 21
160.25
 31
0.0
  0
LINE
  8
DETAIL
  6
CONTINUOUS
 62
     5
 10
-183.99999999999989
 20
162.25
 30
0.0
 11
-182.99999999999989
 21
162.25
 31
0.0
  0
LINE
  8
DETAIL
  6
CONTINUOUS
 62
     5
 10
-180.99999999999989
 20
162.25
 30
0.0
 11
-175.99999999999989
 21
162.25
 31
0.0
  0
LINE
  8
DETAIL
  6
CONTINUOUS
 62
     5
 10
-173.99999999999989
 20
162.25
 30
0.0
 11
-61.0
 21
162.25
 31
0.0
  0
LINE
  8
DETAIL
  6
CONTINUOUS
 62
     5
 10
-59.0
 20
162.25
 30
0.0
 11
59.0
 21
162.25
 31
0.0
  0
LINE
  8
DETAIL
  6
CONTINUOUS
 62
     5
 10
61.0
 20
162.25
 30
0.0
 11
174.0
 21
162.25
 31
0.0
  0
LINE
  8
DETAIL
  6
CONTINUOUS
 62
     5
 10
176.0
 20
162.25
 30
0.0
 11
181.0
 21
162.25
 31
0.0
  0
LINE
  8
DETAIL
  6
CONTINUOUS
 62
     5
 10
183.0
 20
162.25
 30
0.0
 11
184.0
 21
162.25
 31
0.0
  0
LINE
  8
DETAIL
  6
CONTINUOUS
 62
     5
 10
-183.99999999999989
 20
167.75
 30
0.0
 11
-182.99999999999989
 21
167.75
 31
0.0
  0
LINE
  8
DETAIL
  6
CONTINUOUS
 62
     5
 10
-180.99999999999989
 20
167.75
 30
0.0
 11
-175.99999999999989
 21
167.75
 31
0.0
  0
LINE
  8
DETAIL
  6
CONTINUOUS
 62
     5
 10
-173.99999999999989
 20
167.75
 30
0.0
 11
-61.0
 21
167.75
 31
0.0
  0
LINE
  8
DETAIL
  6
CONTINUOUS
 62
     5
 10
-59.0
 20
167.75
 30
0.0
 11
59.0
 21
167.75
 31
0.0
  0
LINE
  8
DETAIL
  6
CONTINUOUS
 62
     5
 10
61.0
 20
167.75
 30
0.0
 11
174.0
 21
167.75
 31
0.0
  0
LINE
  8
DETAIL
  6
CONTINUOUS
 62
     5
 10
176.0
 20
167.75
 30
0.0
 11
181.0
 21
167.75
 31
0.0
  0
LINE
  8
DETAIL
  6
CONTINUOUS
 62
     5
 10
183.0
 20
167.75
 30
0.0
 11
184.0
 21
167.75
 31
0.0
  0
LINE
  8
DETAIL
  6
CONTINUOUS
 62
     5
 10
-183.99999999999989
 20
169.75
 30
0.0
 11
-182.99999999999989
 21
169.75
 31
0.0
  0
LINE
  8
DETAIL
  6
CONTINUOUS
 62
     5
 10
-180.99999999999989
 20
169.75
 30
0.0
 11
-175.99999999999989
 21
169.75
 31
0.0
  0
LINE
  8
DETAIL
  6
CONTINUOUS
 62
     5
 10
-173.99999999999989
 20
169.75
 30
0.0
 11
-61.0
 21
169.75
 31
0.0
  0
LINE
  8
DETAIL
  6
CONTINUOUS
 62
     5
 10
-59.0
 20
169.75
 30
0.0
 11
59.0
 21
169.75
 31
0.0
  0
LINE
  8
DETAIL
  6
CONTINUOUS
 62
     5
 10
61.0
 20
169.75
 30
0.0
 11
174.0
 21
169.75
 31
0.0
  0
LINE
  8
DETAIL
  6
CONTINUOUS
 62
     5
 10
176.0
 20
169.75
 30
0.0
 11
181.0
 21
169.75
 31
0.0
  0
LINE
  8
DETAIL
  6
CONTINUOUS
 62
     5
 10
183.0
 20
169.75
 30
0.0
 11
184.0
 21
169.75
 31
0.0
  0
LINE
  8
DETAIL
  6
CONTINUOUS
 62
     5
 10
-183.99999999999989
 20
175.25
 30
0.0
 11
-182.99999999999989
 21
175.25
 31
0.0
  0
LINE
  8
DETAIL
  6
CONTINUOUS
 62
     5
 10
-180.99999999999989
 20
175.25
 30
0.0
 11
-175.99999999999989
 21
175.25
 31
0.0
  0
LINE
  8
DETAIL
  6
CONTINUOUS
 62
     5
 10
-173.99999999999989
 20
175.25
 30
0.0
 11
-61.0
 21
175.25
 31
0.0
  0
LINE
  8
DETAIL
  6
CONTINUOUS
 62
     5
 10
-59.0
 20
175.25
 30
0.0
 11
59.0
 21
175.25
 31
0.0
  0
LINE
  8
DETAIL
  6
CONTINUOUS
 62
     5
 10
61.0
 20
175.25
 30
0.0
 11
174.0
 21
175.25
 31
0.0
  0
LINE
  8
DETAIL
  6
CONTINUOUS
 62
     5
 10
176.0
 20
175.25
 30
0.0
 11
181.0
 21
175.25
 31
0.0
  0
LINE
  8
DETAIL
  6
CONTINUOUS
 62
     5
 10
183.0
 20
175.25
 30
0.0
 11
184.0
 21
175.25
 31
0.0
  0
LINE
  8
DETAIL
  6
CONTINUOUS
 62
     5
 10
181.0
 20
181.0
 30
0.0
 11
181.0
 21
-181.0
 31
0.0
  0
LINE
  8
DETAIL
  6
CONTINUOUS
 62
     5
 10
183.0
 20
181.0
 30
0.0
 11
183.0
 21
-181.0
 31
0.0
  0
LINE
  8
DETAIL
  6
CONTINUOUS
 62
     5
 10
-183.99999999999989
 20
177.25
 30
0.0
 11
-182.99999999999989
 21
177.25
 31
0.0
  0
LINE
  8
DETAIL
  6
CONTINUOUS
 62
     5
 10
-180.99999999999989
 20
177.25
 30
0.0
 11
-175.99999999999989
 21
177.25
 31
0.0
  0
LINE
  8
DETAIL
  6
CONTINUOUS
 62
     5
 10
-173.99999999999989
 20
177.25
 30
0.0
 11
-61.0
 21
177.25
 31
0.0
  0
LINE
  8
DETAIL
  6
CONTINUOUS
 62
     5
 10
-59.0
 20
177.25
 30
0.0
 11
59.0
 21
177.25
 31
0.0
  0
LINE
  8
DETAIL
  6
CONTINUOUS
 62
     5
 10
61.0
 20
177.25
 30
0.0
 11
174.0
 21
177.25
 31
0.0
  0
LINE
  8
DETAIL
  6
CONTINUOUS
 62
     5
 10
176.0
 20
177.25
 30
0.0
 11
181.0
 21
177.25
 31
0.0
  0
LINE
  8
DETAIL
  6
CONTINUOUS
 62
     5
 10
183.0
 20
177.25
 30
0.0
 11
184.0
 21
177.25
 31
0.0
  0
LINE
  8
DETAIL
  6
CONTINUOUS
 62
     5
 10
-178.99999999999989
 20
183.0
 30
0.0
 11
179.0
 21
183.0
 31
0.0
  0
LINE
  8
DETAIL
  6
CONTINUOUS
 62
     5
 10
-178.99999999999989
 20
185.0
 30
0.0
 11
179.0
 21
185.0
 31
0.0
  0
ARC
  8
DETAIL
  6
CONTINUOUS
 62
     5
 10
-178.99999999999989
 20
-181.0
 30
0.0
 40
4.0
 50
180.0
 51
270.0
  0
ARC
  8
DETAIL
  6
CONTINUOUS
 62
     5
 10
-178.99999999999989
 20
-181.0
 30
0.0
 40
2.0
 50
180.0
 51
270.0
  0
CIRCLE
  8
DETAIL
  6
CONTINUOUS
 62
     5
 10
-174.99999999999989
 20
-182.0
 30
0.0
 40
1.0
  0
CIRCLE
  8
DETAIL
  6
CONTINUOUS
 62
     5
 10
-183.99999999999989
 20
-101.25
 30
0.0
 40
1.0
  0
CIRCLE
  8
DETAIL
  6
CONTINUOUS
 62
     5
 10
-183.99999999999989
 20
-108.75
 30
0.0
 40
1.0
  0
CIRCLE
  8
DETAIL
  6
CONTINUOUS
 62
     5
 10
-183.99999999999989
 20
-116.25
 30
0.0
 40
1.0
  0
CIRCLE
  8
DETAIL
  6
CONTINUOUS
 62
     5
 10
-183.99999999999989
 20
-123.75
 30
0.0
 40
1.0
  0
CIRCLE
  8
DETAIL
  6
CONTINUOUS
 62
     5
 10
-183.99999999999989
 20
-131.25
 30
0.0
 40
1.0
  0
CIRCLE
  8
DETAIL
  6
CONTINUOUS
 62
     5
 10
-183.99999999999989
 20
-138.75
 30
0.0
 40
1.0
  0
CIRCLE
  8
DETAIL
  6
CONTINUOUS
 62
     5
 10
-183.99999999999989
 20
-146.25
 30
0.0
 40
1.0
  0
CIRCLE
  8
DETAIL
  6
CONTINUOUS
 62
     5
 10
-183.99999999999989
 20
-153.75
 30
0.0
 40
1.0
  0
CIRCLE
  8
DETAIL
  6
CONTINUOUS
 62
     5
 10
-183.99999999999989
 20
-161.25
 30
0.0
 40
1.0
  0
CIRCLE
  8
DETAIL
  6
CONTINUOUS
 62
     5
 10
-183.99999999999989
 20
-168.75
 30
0.0
 40
1.0
  0
CIRCLE
  8
DETAIL
  6
CONTINUOUS
 62
     5
 10
-183.99999999999989
 20
-176.25
 30
0.0
 40
1.0
  0
CIRCLE
  8
DETAIL
  6
CONTINUOUS
 62
     5
 10
-183.99999999999989
 20
-93.75
 30
0.0
 40
1.0
  0
CIRCLE
  8
DETAIL
  6
CONTINUOUS
 62
     5
 10
-183.99999999999989
 20
-41.25
 30
0.0
 40
1.0
  0
CIRCLE
  8
DETAIL
  6
CONTINUOUS
 62
     5
 10
-183.99999999999989
 20
-48.75
 30
0.0
 40
1.0
  0
CIRCLE
  8
DETAIL
  6
CONTINUOUS
 62
     5
 10
-183.99999999999989
 20
-3.75
 30
0.0
 40
1.0
  0
CIRCLE
  8
DETAIL
  6
CONTINUOUS
 62
     5
 10
-183.99999999999989
 20
-18.75
 30
0.0
 40
1.0
  0
CIRCLE
  8
DETAIL
  6
CONTINUOUS
 62
     5
 10
-183.99999999999989
 20
-11.25
 30
0.0
 40
1.0
  0
CIRCLE
  8
DETAIL
  6
CONTINUOUS
 62
     5
 10
-183.99999999999989
 20
-26.25
 30
0.0
 40
1.0
  0
CIRCLE
  8
DETAIL
  6
CONTINUOUS
 62
     5
 10
-183.99999999999989
 20
-33.75
 30
0.0
 40
1.0
  0
CIRCLE
  8
DETAIL
  6
CONTINUOUS
 62
     5
 10
-183.99999999999989
 20
-56.25
 30
0.0
 40
1.0
  0
CIRCLE
  8
DETAIL
  6
CONTINUOUS
 62
     5
 10
-183.99999999999989
 20
-63.75
 30
0.0
 40
1.0
  0
CIRCLE
  8
DETAIL
  6
CONTINUOUS
 62
     5
 10
-183.99999999999989
 20
-71.25
 30
0.0
 40
1.0
  0
CIRCLE
  8
DETAIL
  6
CONTINUOUS
 62
     5
 10
-183.99999999999989
 20
-78.75
 30
0.0
 40
1.0
  0
CIRCLE
  8
DETAIL
  6
CONTINUOUS
 62
     5
 10
-183.99999999999989
 20
-86.25
 30
0.0
 40
1.0
  0
CIRCLE
  8
DETAIL
  6
CONTINUOUS
 62
     5
 10
-60.0
 20
-182.0
 30
0.0
 40
1.0
  0
CIRCLE
  8
DETAIL
  6
CONTINUOUS
 62
     5
 10
-183.99999999999989
 20
3.75
 30
0.0
 40
1.0
  0
CIRCLE
  8
DETAIL
  6
CONTINUOUS
 62
     5
 10
-183.99999999999989
 20
11.25
 30
0.0
 40
1.0
  0
CIRCLE
  8
DETAIL
  6
CONTINUOUS
 62
     5
 10
-183.99999999999989
 20
63.75
 30
0.0
 40
1.0
  0
CIRCLE
  8
DETAIL
  6
CONTINUOUS
 62
     5
 10
-183.99999999999989
 20
71.25
 30
0.0
 40
1.0
  0
CIRCLE
  8
DETAIL
  6
CONTINUOUS
 62
     5
 10
-183.99999999999989
 20
78.75
 30
0.0
 40
1.0
  0
CIRCLE
  8
DETAIL
  6
CONTINUOUS
 62
     5
 10
-183.99999999999989
 20
86.25
 30
0.0
 40
1.0
  0
CIRCLE
  8
DETAIL
  6
CONTINUOUS
 62
     5
 10
-183.99999999999989
 20
18.75
 30
0.0
 40
1.0
  0
CIRCLE
  8
DETAIL
  6
CONTINUOUS
 62
     5
 10
-183.99999999999989
 20
26.25
 30
0.0
 40
1.0
  0
CIRCLE
  8
DETAIL
  6
CONTINUOUS
 62
     5
 10
-183.99999999999989
 20
33.75
 30
0.0
 40
1.0
  0
CIRCLE
  8
DETAIL
  6
CONTINUOUS
 62
     5
 10
-183.99999999999989
 20
41.25
 30
0.0
 40
1.0
  0
CIRCLE
  8
DETAIL
  6
CONTINUOUS
 62
     5
 10
-183.99999999999989
 20
56.25
 30
0.0
 40
1.0
  0
CIRCLE
  8
DETAIL
  6
CONTINUOUS
 62
     5
 10
-183.99999999999989
 20
48.75
 30
0.0
 40
1.0
  0
ARC
  8
DETAIL
  6
CONTINUOUS
 62
     5
 10
-178.99999999999989
 20
181.0
 30
0.0
 40
4.0
 50
90.0
 51
180.0
  0
ARC
  8
DETAIL
  6
CONTINUOUS
 62
     5
 10
-178.99999999999989
 20
181.0
 30
0.0
 40
2.0
 50
90.0
 51
180.0
  0
CIRCLE
  8
DETAIL
  6
CONTINUOUS
 62
     5
 10
-174.99999999999989
 20
182.0
 30
0.0
 40
1.0
  0
CIRCLE
  8
DETAIL
  6
CONTINUOUS
 62
     5
 10
-183.99999999999989
 20
93.75
 30
0.0
 40
1.0
  0
CIRCLE
  8
DETAIL
  6
CONTINUOUS
 62
     5
 10
-183.99999999999989
 20
101.25
 30
0.0
 40
1.0
  0
CIRCLE
  8
DETAIL
  6
CONTINUOUS
 62
     5
 10
-183.99999999999989
 20
108.75
 30
0.0
 40
1.0
  0
CIRCLE
  8
DETAIL
  6
CONTINUOUS
 62
     5
 10
-183.99999999999989
 20
116.25
 30
0.0
 40
1.0
  0
CIRCLE
  8
DETAIL
  6
CONTINUOUS
 62
     5
 10
-183.99999999999989
 20
123.75
 30
0.0
 40
1.0
  0
CIRCLE
  8
DETAIL
  6
CONTINUOUS
 62
     5
 10
-183.99999999999989
 20
131.25
 30
0.0
 40
1.0
  0
CIRCLE
  8
DETAIL
  6
CONTINUOUS
 62
     5
 10
-183.99999999999989
 20
138.75
 30
0.0
 40
1.0
  0
CIRCLE
  8
DETAIL
  6
CONTINUOUS
 62
     5
 10
-183.99999999999989
 20
146.25
 30
0.0
 40
1.0
  0
CIRCLE
  8
DETAIL
  6
CONTINUOUS
 62
     5
 10
-183.99999999999989
 20
153.75
 30
0.0
 40
1.0
  0
CIRCLE
  8
DETAIL
  6
CONTINUOUS
 62
     5
 10
-183.99999999999989
 20
161.25
 30
0.0
 40
1.0
  0
CIRCLE
  8
DETAIL
  6
CONTINUOUS
 62
     5
 10
-183.99999999999989
 20
168.75
 30
0.0
 40
1.0
  0
CIRCLE
  8
DETAIL
  6
CONTINUOUS
 62
     5
 10
-183.99999999999989
 20
176.25
 30
0.0
 40
1.0
  0
ARC
  8
DETAIL
  6
CONTINUOUS
 62
     5
 10
-79.999999999999886
 20
82.5
 30
0.0
 40
2.7999999999999998
 50
100.22702930439689
 51
180.0
  0
ARC
  8
DETAIL
  6
CONTINUOUS
 62
     5
 10
-79.999999999999886
 20
82.5
 30
0.0
 40
2.7999999999999998
 50
0.0
 51
79.772970695603121
  0
ARC
  8
DETAIL
  6
CONTINUOUS
 62
     5
 10
-79.999999999999886
 20
80.0
 30
0.0
 40
2.7999999999999998
 50
354.84907425610112
 51
0.0
  0
ARC
  8
DETAIL
  6
CONTINUOUS
 62
     5
 10
-79.999999999999886
 20
80.0
 30
0.0
 40
2.7999999999999998
 50
233.56821977879861
 51
306.43178022120139
  0
ARC
  8
DETAIL
  6
CONTINUOUS
 62
     5
 10
-79.999999999999886
 20
80.0
 30
0.0
 40
2.7999999999999998
 50
180.0
 51
185.15092574389891
  0
CIRCLE
  8
DETAIL
  6
CONTINUOUS
 62
     5
 10
-60.0
 20
182.0
 30
0.0
 40
1.0
  0
CIRCLE
  8
DETAIL
  6
CONTINUOUS
 62
     5
 10
60.0
 20
-182.0
 30
0.0
 40
1.0
  0
ARC
  8
DETAIL
  6
CONTINUOUS
 62
     5
 10
179.0
 20
-181.0
 30
0.0
 40
4.0
 50
270.0
 51
0.0
  0
ARC
  8
DETAIL
  6
CONTINUOUS
 62
     5
 10
179.0
 20
-181.0
 30
0.0
 40
2.0
 50
270.0
 51
0.0
  0
CIRCLE
  8
DETAIL
  6
CONTINUOUS
 62
     5
 10
175.0
 20
-182.0
 30
0.0
 40
1.0
  0
CIRCLE
  8
DETAIL
  6
CONTINUOUS
 62
     5
 10
184.0
 20
-101.25
 30
0.0
 40
1.0
  0
CIRCLE
  8
DETAIL
  6
CONTINUOUS
 62
     5
 10
184.0
 20
-108.75
 30
0.0
 40
1.0
  0
CIRCLE
  8
DETAIL
  6
CONTINUOUS
 62
     5
 10
184.0
 20
-116.25
 30
0.0
 40
1.0
  0
CIRCLE
  8
DETAIL
  6
CONTINUOUS
 62
     5
 10
184.0
 20
-123.75
 30
0.0
 40
1.0
  0
CIRCLE
  8
DETAIL
  6
CONTINUOUS
 62
     5
 10
184.0
 20
-131.25
 30
0.0
 40
1.0
  0
CIRCLE
  8
DETAIL
  6
CONTINUOUS
 62
     5
 10
184.0
 20
-138.75
 30
0.0
 40
1.0
  0
CIRCLE
  8
DETAIL
  6
CONTINUOUS
 62
     5
 10
184.0
 20
-146.25
 30
0.0
 40
1.0
  0
CIRCLE
  8
DETAIL
  6
CONTINUOUS
 62
     5
 10
184.0
 20
-153.75
 30
0.0
 40
1.0
  0
CIRCLE
  8
DETAIL
  6
CONTINUOUS
 62
     5
 10
184.0
 20
-161.25
 30
0.0
 40
1.0
  0
CIRCLE
  8
DETAIL
  6
CONTINUOUS
 62
     5
 10
184.0
 20
-168.75
 30
0.0
 40
1.0
  0
CIRCLE
  8
DETAIL
  6
CONTINUOUS
 62
     5
 10
184.0
 20
-176.25
 30
0.0
 40
1.0
  0
CIRCLE
  8
DETAIL
  6
CONTINUOUS
 62
     5
 10
184.0
 20
-93.75
 30
0.0
 40
1.0
  0
CIRCLE
  8
DETAIL
  6
CONTINUOUS
 62
     5
 10
184.0
 20
-41.25
 30
0.0
 40
1.0
  0
CIRCLE
  8
DETAIL
  6
CONTINUOUS
 62
     5
 10
184.0
 20
-48.75
 30
0.0
 40
1.0
  0
CIRCLE
  8
DETAIL
  6
CONTINUOUS
 62
     5
 10
184.0
 20
-3.75
 30
0.0
 40
1.0
  0
CIRCLE
  8
DETAIL
  6
CONTINUOUS
 62
     5
 10
184.0
 20
-18.75
 30
0.0
 40
1.0
  0
CIRCLE
  8
DETAIL
  6
CONTINUOUS
 62
     5
 10
184.0
 20
-11.25
 30
0.0
 40
1.0
  0
CIRCLE
  8
DETAIL
  6
CONTINUOUS
 62
     5
 10
184.0
 20
-26.25
 30
0.0
 40
1.0
  0
CIRCLE
  8
DETAIL
  6
CONTINUOUS
 62
     5
 10
184.0
 20
-33.75
 30
0.0
 40
1.0
  0
CIRCLE
  8
DETAIL
  6
CONTINUOUS
 62
     5
 10
184.0
 20
-56.25
 30
0.0
 40
1.0
  0
CIRCLE
  8
DETAIL
  6
CONTINUOUS
 62
     5
 10
184.0
 20
-63.75
 30
0.0
 40
1.0
  0
CIRCLE
  8
DETAIL
  6
CONTINUOUS
 62
     5
 10
184.0
 20
-71.25
 30
0.0
 40
1.0
  0
CIRCLE
  8
DETAIL
  6
CONTINUOUS
 62
     5
 10
184.0
 20
-78.75
 30
0.0
 40
1.0
  0
CIRCLE
  8
DETAIL
  6
CONTINUOUS
 62
     5
 10
184.0
 20
-86.25
 30
0.0
 40
1.0
  0
ARC
  8
DETAIL
  6
CONTINUOUS
 62
     5
 10
80.0
 20
82.5
 30
0.0
 40
2.7999999999999998
 50
100.22702930439689
 51
180.0
  0
ARC
  8
DETAIL
  6
CONTINUOUS
 62
     5
 10
80.0
 20
82.5
 30
0.0
 40
2.7999999999999998
 50
0.0
 51
79.772970695603121
  0
ARC
  8
DETAIL
  6
CONTINUOUS
 62
     5
 10
80.0
 20
80.0
 30
0.0
 40
2.7999999999999998
 50
354.84907425610112
 51
0.0
  0
ARC
  8
DETAIL
  6
CONTINUOUS
 62
     5
 10
80.0
 20
80.0
 30
0.0
 40
2.7999999999999998
 50
233.56821977879861
 51
306.43178022120139
  0
ARC
  8
DETAIL
  6
CONTINUOUS
 62
     5
 10
80.0
 20
80.0
 30
0.0
 40
2.7999999999999998
 50
180.0
 51
185.15092574389891
  0
CIRCLE
  8
DETAIL
  6
CONTINUOUS
 62
     5
 10
60.0
 20
182.0
 30
0.0
 40
1.0
  0
CIRCLE
  8
DETAIL
  6
CONTINUOUS
 62
     5
 10
184.0
 20
3.75
 30
0.0
 40
1.0
  0
CIRCLE
  8
DETAIL
  6
CONTINUOUS
 62
     5
 10
184.0
 20
11.25
 30
0.0
 40
1.0
  0
CIRCLE
  8
DETAIL
  6
CONTINUOUS
 62
     5
 10
184.0
 20
63.75
 30
0.0
 40
1.0
  0
CIRCLE
  8
DETAIL
  6
CONTINUOUS
 62
     5
 10
184.0
 20
71.25
 30
0.0
 40
1.0
  0
CIRCLE
  8
DETAIL
  6
CONTINUOUS
 62
     5
 10
184.0
 20
78.75
 30
0.0
 40
1.0
  0
CIRCLE
  8
DETAIL
  6
CONTINUOUS
 62
     5
 10
184.0
 20
86.25
 30
0.0
 40
1.0
  0
CIRCLE
  8
DETAIL
  6
CONTINUOUS
 62
     5
 10
184.0
 20
18.75
 30
0.0
 40
1.0
  0
CIRCLE
  8
DETAIL
  6
CONTINUOUS
 62
     5
 10
184.0
 20
26.25
 30
0.0
 40
1.0
  0
CIRCLE
  8
DETAIL
  6
CONTINUOUS
 62
     5
 10
184.0
 20
33.75
 30
0.0
 40
1.0
  0
CIRCLE
  8
DETAIL
  6
CONTINUOUS
 62
     5
 10
184.0
 20
41.25
 30
0.0
 40
1.0
  0
CIRCLE
  8
DETAIL
  6
CONTINUOUS
 62
     5
 10
184.0
 20
56.25
 30
0.0
 40
1.0
  0
CIRCLE
  8
DETAIL
  6
CONTINUOUS
 62
     5
 10
184.0
 20
48.75
 30
0.0
 40
1.0
  0
ARC
  8
DETAIL
  6
CONTINUOUS
 62
     5
 10
179.0
 20
181.0
 30
0.0
 40
4.0
 50
0.0
 51
90.0
  0
ARC
  8
DETAIL
  6
CONTINUOUS
 62
     5
 10
179.0
 20
181.0
 30
0.0
 40
2.0
 50
0.0
 51
90.0
  0
CIRCLE
  8
DETAIL
  6
CONTINUOUS
 62
     5
 10
175.0
 20
182.0
 30
0.0
 40
1.0
  0
CIRCLE
  8
DETAIL
  6
CONTINUOUS
 62
     5
 10
184.0
 20
93.75
 30
0.0
 40
1.0
  0
CIRCLE
  8
DETAIL
  6
CONTINUOUS
 62
     5
 10
184.0
 20
101.25
 30
0.0
 40
1.0
  0
CIRCLE
  8
DETAIL
  6
CONTINUOUS
 62
     5
 10
184.0
 20
108.75
 30
0.0
 40
1.0
  0
CIRCLE
  8
DETAIL
  6
CONTINUOUS
 62
     5
 10
184.0
 20
116.25
 30
0.0
 40
1.0
  0
CIRCLE
  8
DETAIL
  6
CONTINUOUS
 62
     5
 10
184.0
 20
123.75
 30
0.0
 40
1.0
  0
CIRCLE
  8
DETAIL
  6
CONTINUOUS
 62
     5
 10
184.0
 20
131.25
 30
0.0
 40
1.0
  0
CIRCLE
  8
DETAIL
  6
CONTINUOUS
 62
     5
 10
184.0
 20
138.75
 30
0.0
 40
1.0
  0
CIRCLE
  8
DETAIL
  6
CONTINUOUS
 62
     5
 10
184.0
 20
146.25
 30
0.0
 40
1.0
  0
CIRCLE
  8
DETAIL
  6
CONTINUOUS
 62
     5
 10
184.0
 20
153.75
 30
0.0
 40
1.0
  0
CIRCLE
  8
DETAIL
  6
CONTINUOUS
 62
     5
 10
184.0
 20
161.25
 30
0.0
 40
1.0
  0
CIRCLE
  8
DETAIL
  6
CONTINUOUS
 62
     5
 10
184.0
 20
168.75
 30
0.0
 40
1.0
  0
CIRCLE
  8
DETAIL
  6
CONTINUOUS
 62
     5
 10
184.0
 20
176.25
 30
0.0
 40
1.0
  0
LINE
  8
SIZE
  6
CONTINUOUS
 62
    30
 39
50.0
 10
-183.99999999999989
 20
176.25
 30
0.0
 11
-183.99999999999989
 21
176.25
 31
0.0
  0
ENDSEC
  0
EOF
