  0
SECTION
  2
HEADER
  9
$ACADVER
  1
AC1009
  9
$DWGCODEPAGE
  3
dos932
  9
$INSBASE
 10
0.0
 20
0.0
 30
0.0
  9
$EXTMIN
 10
-339.82315157659741
 20
-223.6599472411977
 30
0.0
  9
$EXTMAX
 10
1003.985938245808
 20
477.79930643235213
 30
50.0
  9
$LIMMIN
 10
-2970.0
 20
-2100.0
  9
$LIMMAX
 10
2970.0
 20
2100.0
  9
$ORTHOMODE
 70
     1
  9
$REGENMODE
 70
     1
  9
$FILLMODE
 70
     1
  9
$QTEXTMODE
 70
     0
  9
$MIRRTEXT
 70
     0
  9
$LTSCALE
 40
20.0
  9
$ATTMODE
 70
     1
  9
$TEXTSIZE
 40
64.0
  9
$TRACEWID
 40
0.05
  9
$TEXTSTYLE
  7
STANDARD
  9
$CLAYER
  8
SIZE
  9
$CELTYPE
  6
CONTINUOUS
  9
$CECOLOR
 62
     7
  9
$DIMSCALE
 40
1.0
  9
$DIMASZ
 40
12.0
  9
$DIMEXO
 40
20.0
  9
$DIMDLI
 40
200.0
  9
$DIMRND
 40
0.0
  9
$DIMDLE
 40
0.0
  9
$DIMEXE
 40
20.0
  9
$DIMTP
 40
0.0
  9
$DIMTM
 40
0.0
  9
$DIMTXT
 40
64.0
  9
$DIMCEN
 40
0.09
  9
$DIMTSZ
 40
0.0
  9
$DIMTOL
 70
     0
  9
$DIMLIM
 70
     0
  9
$DIMTIH
 70
     0
  9
$DIMTOH
 70
     0
  9
$DIMSE1
 70
     0
  9
$DIMSE2
 70
     0
  9
$DIMTAD
 70
     1
  9
$DIMZIN
 70
     8
  9
$DIMBLK
  1

  9
$DIMASO
 70
     1
  9
$DIMSHO
 70
     0
  9
$DIMPOST
  1

  9
$DIMAPOST
  1

  9
$DIMALT
 70
     0
  9
$DIMALTD
 70
     2
  9
$DIMALTF
 40
25.399999999999999
  9
$DIMLFAC
 40
1.0
  9
$DIMTOFL
 70
     1
  9
$DIMTVP
 40
0.0
  9
$DIMTIX
 70
     1
  9
$DIMSOXD
 70
     0
  9
$DIMSAH
 70
     0
  9
$DIMBLK1
  1

  9
$DIMBLK2
  1

  9
$DIMSTYLE
  2
STANDARD
  9
$DIMCLRD
 70
     7
  9
$DIMCLRE
 70
     7
  9
$DIMCLRT
 70
     7
  9
$DIMTFAC
 40
1.0
  9
$DIMGAP
 40
25.0
  9
$LUNITS
 70
     2
  9
$LUPREC
 70
     4
  9
$SKETCHINC
 40
0.1
  9
$FILLETRAD
 40
3.0
  9
$AUNITS
 70
     1
  9
$AUPREC
 70
     3
  9
$MENU
  1
ACAD
  9
$ELEVATION
 40
0.0
  9
$PELEVATION
 40
0.0
  9
$THICKNESS
 40
50.0
  9
$LIMCHECK
 70
     0
  9
$CHAMFERA
 40
0.0
  9
$CHAMFERB
 40
0.0
  9
$SKPOLY
 70
     0
  9
$TDCREATE
 40
2453019.62301037
  9
$TDUPDATE
 40
2456015.819535035
  9
$TDINDWG
 40
1.6445469444
  9
$TDUSRTIMER
 40
1.6445469444
  9
$USRTIMER
 70
     1
  9
$ANGBASE
 50
0.0
  9
$ANGDIR
 70
     0
  9
$PDMODE
 70
     3
  9
$PDSIZE
 40
-2.0
  9
$PLINEWID
 40
0.0
  9
$SPLFRAME
 70
     0
  9
$SPLINETYPE
 70
     6
  9
$SPLINESEGS
 70
     8
  9
$SURFTAB1
 70
     6
  9
$SURFTAB2
 70
     6
  9
$SURFTYPE
 70
     6
  9
$SURFU
 70
     6
  9
$SURFV
 70
     6
  9
$UCSNAME
  2

  9
$UCSORG
 10
0.0
 20
0.0
 30
0.0
  9
$UCSXDIR
 10
1.0
 20
0.0
 30
0.0
  9
$UCSYDIR
 10
0.0
 20
1.0
 30
0.0
  9
$PUCSNAME
  2

  9
$PUCSORG
 10
0.0
 20
0.0
 30
0.0
  9
$PUCSXDIR
 10
1.0
 20
0.0
 30
0.0
  9
$PUCSYDIR
 10
0.0
 20
1.0
 30
0.0
  9
$USERI1
 70
     0
  9
$USERI2
 70
     0
  9
$USERI3
 70
     0
  9
$USERI4
 70
     0
  9
$USERI5
 70
     0
  9
$USERR1
 40
20.0
  9
$USERR2
 40
0.0
  9
$USERR3
 40
0.0
  9
$USERR4
 40
0.0
  9
$USERR5
 40
0.0
  9
$WORLDVIEW
 70
     1
  9
$SHADEDGE
 70
     3
  9
$SHADEDIF
 70
    70
  9
$TILEMODE
 70
     1
  9
$MAXACTVP
 70
    48
  9
$PINSBASE
 10
0.0
 20
0.0
 30
0.0
  9
$PLIMCHECK
 70
     0
  9
$PEXTMIN
 10
-100000000000000000000.0
 20
-100000000000000000000.0
 30
-100000000000000000000.0
  9
$PEXTMAX
 10
100000000000000000000.0
 20
100000000000000000000.0
 30
100000000000000000000.0
  9
$PLIMMIN
 10
0.0
 20
0.0
  9
$PLIMMAX
 10
12.0
 20
9.0
  9
$UNITMODE
 70
     0
  9
$VISRETAIN
 70
     0
  9
$PLINEGEN
 70
     0
  9
$PSLTSCALE
 70
     0
  9
$TREEDEPTH
 70
  3020
  9
$ATTDIA
 70
     0
  9
$ATTREQ
 70
     1
  9
$BLIPMODE
 70
     1
  9
$COORDS
 70
     1
  9
$DRAGMODE
 70
     2
  9
$OSMODE
 70
     0
  9
$HANDLING
 70
     0
  9
$HANDSEED
  5
10D7D
  0
ENDSEC
  0
SECTION
  2
TABLES
  0
TABLE
  2
LTYPE
 70
     2
  0
LTYPE
  2
CONTINUOUS
 70
     0
  3
実線
 72
    65
 73
     0
 40
0.0
  0
LTYPE
  2
DASHDOT
 70
     0
  3
____ _ ____ _ ____ _ ____ _ ____ _ ____ _ ____
 72
    65
 73
     4
 40
5.5
 49
4.0
 49
-0.6
 49
0.3
 49
-0.6
  0
ENDTAB
  0
TABLE
  2
LAYER
 70
    12
  0
LAYER
  2
0
 70
     0
 62
     7
  6
CONTINUOUS
  0
LAYER
  2
BASIS
 70
     4
 62
     6
  6
DASHDOT
  0
LAYER
  2
OUTLINE
 70
     0
 62
     3
  6
CONTINUOUS
  0
LAYER
  2
DETAIL
 70
     0
 62
     5
  6
CONTINUOUS
  0
LAYER
  2
SIZE
 70
     0
 62
    30
  6
CONTINUOUS
  0
LAYER
  2
ARRANGE
 70
     4
 62
     1
  6
CONTINUOUS
  0
LAYER
  2
DEFPOINTS
 70
     0
 62
     7
  6
CONTINUOUS
  0
LAYER
  2
ETC
 70
     0
 62
    61
  6
CONTINUOUS
  0
LAYER
  2
FIX
 70
    64
 62
    11
  6
CONTINUOUS
  0
LAYER
  2
NOTE
 70
    64
 62
     4
  6
CONTINUOUS
  0
LAYER
  2
SERVICESPACE
 70
    64
 62
     2
  6
DASHDOT
  0
LAYER
  2
SYMBOLLINE
 70
    64
 62
    15
  6
CONTINUOUS
  0
ENDTAB
  0
TABLE
  2
STYLE
 70
     1
  0
STYLE
  2
STANDARD
 70
     0
 40
64.0
 41
0.9
 50
0.0
 71
     0
 42
64.0
  3
SIMPLEX.shx
  4
BIGFONT.shx
  0
ENDTAB
  0
TABLE
  2
APPID
 70
    15
  0
APPID
  2
ACAD
 70
     0
  0
APPID
  2
AUTOCAD_POSTSCRIPT_FIGURE
 70
     0
  0
APPID
  2
ACAD_EXEMPT_FROM_CAD_STANDARDS
 70
     0
  0
APPID
  2
ACAD_PSEXT
 70
     0
  0
APPID
  2
ACAUTHENVIRON
 70
     0
  0
APPID
  2
GENIUS_GENOENT_13
 70
     0
  0
APPID
  2
GENIUS_GENCFG_13
 70
     0
  0
APPID
  2
GENIUS_GENCFG0_13
 70
     0
  0
APPID
  2
GENIUS_GENCFG1_13
 70
     0
  0
APPID
  2
GENIUS_GENCFG2_13
 70
     0
  0
APPID
  2
GENIUS_GENCFG3_13
 70
     0
  0
APPID
  2
GENIUS_GENCFG4_13
 70
     0
  0
APPID
  2
GENIUS_GEVCFG0_13
 70
     0
  0
APPID
  2
CONTENTBLOCKICON
 70
     0
  0
APPID
  2
CONTENTBLOCKDESCRIPTION
 70
     0
  0
ENDTAB
  0
TABLE
  2
DIMSTYLE
 70
     1
  0
DIMSTYLE
  2
STANDARD
 70
     0
  3

  4

  5

  6

  7

 40
1.0
 41
0.18
 42
0.0625
 43
0.38
 44
0.18
 45
0.0
 46
0.0
 47
0.0
 48
0.0
140
0.18
141
0.09
142
0.0
143
25.399999999999999
144
1.0
145
0.0
146
1.0
147
0.09
 71
     0
 72
     0
 73
     1
 74
     1
 75
     0
 76
     0
 77
     0
 78
     0
170
     0
171
     2
172
     0
173
     0
174
     0
175
     0
176
     7
177
     7
178
     7
  0
ENDTAB
  0
TABLE
  2
VIEW
 70
     1
  0
VIEW
  2
ALL
 70
     0
 40
4282.6198079999986
 10
0.0
 20
41.309904000000003
 41
5940.0
 11
0.0
 21
0.0
 31
1.0
 12
0.0
 22
0.0
 32
0.0
 42
50.0
 43
0.0
 44
0.0
 50
0.0
 71
     0
  0
ENDTAB
  0
TABLE
  2
UCS
 70
     0
  0
ENDTAB
  0
TABLE
  2
VPORT
 70
     1
  0
VPORT
  2
*ACTIVE
 70
     0
 10
0.0
 20
0.0
 11
1.0
 21
1.0
 12
445.20653644373971
 22
162.12163509599429
 13
0.0
 23
0.0
 14
1.0
 24
1.0
 15
0.0
 25
0.0
 16
0.0
 26
0.0
 36
1.0
 17
0.0
 27
0.0
 37
0.0
 40
1357.9275766485821
 41
1.215836526181354
 42
50.0
 43
0.0
 44
0.0
 50
0.0
 51
0.0
 71
     0
 72
  1000
 73
     1
 74
     0
 75
     0
 76
     0
 77
     0
 78
     0
  0
ENDTAB
  0
ENDSEC
  0
SECTION
  2
BLOCKS
  0
BLOCK
  8
0
  2
_ORIGIN
 70
     0
 10
0.0
 20
0.0
 30
0.0
  3
_ORIGIN
  1

  0
CIRCLE
  8
0
  6
CONTINUOUS
 62
     7
 10
0.0
 20
0.0
 30
0.0
 40
0.5
  0
LINE
  8
0
  6
CONTINUOUS
 62
     7
 10
0.0
 20
0.0
 30
0.0
 11
-1.0
 21
0.0
 31
0.0
  0
ENDBLK
  8
0
  0
ENDSEC
  0
SECTION
  2
ENTITIES
  0
TEXT
  8
ETC
  6
CONTINUOUS
 62
    61
 10
414.2716525315218
 20
413.79930643235213
 30
0.0
 40
64.0
  1
G-30EC3-M_3
 41
0.9
  0
TEXT
  8
ETC
  6
CONTINUOUS
 62
    61
 10
410.0856585315214
 20
295.84399641752088
 30
0.0
 40
64.0
  1
システム部材
 41
0.9
  0
CIRCLE
  8
ARRANGE
  6
CONTINUOUS
 62
     1
 10
0.0
 20
0.0
 30
0.0
 40
40.0
  0
POINT
  8
ARRANGE
  6
CONTINUOUS
 62
     1
 10
0.0
 20
0.0
 30
0.0
 39
50.0
  0
TEXT
  8
ETC
  6
CONTINUOUS
 62
    61
 10
460.78705678007742
 20
187.6952235312956
 30
0.0
 40
40.0
  1
G-30EC3-M
 50
0.0
 41
0.9
 51
0.0
  7
STANDARD
 71
     0
 11
0.0
 21
0.0
 31
0.0
210
0.0
220
0.0
230
1.0
  0
LINE
  8
BASIS
  6
DASHDOT
 62
     6
 39
68.607000000000014
 10
-213.36777000000001
 20
0.0
 30
0.0
 11
213.36777000000001
 21
0.0
 31
0.0
  0
LINE
  8
BASIS
  6
DASHDOT
 62
     6
 10
0.0
 20
225.26140691393741
 30
0.0
 11
0.0
 21
-223.6599472411977
 31
0.0
  0
ARC
  8
OUTLINE
  6
CONTINUOUS
 62
     3
 10
202.0000000626201
 20
202.2500000626975
 30
0.0
 40
4.0000000012400001
 50
0.0
 51
90.0
  0
ARC
  8
OUTLINE
  6
CONTINUOUS
 62
     3
 10
202.0000000626201
 20
202.2500000626975
 30
0.0
 40
2.0000000006200001
 50
0.0
 51
90.0
  0
ARC
  8
DETAIL
  6
CONTINUOUS
 62
     5
 10
202.0000000626201
 20
202.25000006269741
 30
0.0
 40
4.0000000012400001
 50
0.0
 51
90.0
  0
ARC
  8
DETAIL
  6
CONTINUOUS
 62
     5
 10
202.0000000626201
 20
202.25000006269741
 30
0.0
 40
2.0000000006200001
 50
0.0
 51
90.0
  0
LINE
  8
SIZE
  6
CONTINUOUS
 62
    30
 10
-208.00000006447999
 20
218.7500000616125
 30
0.0
 11
-208.00000006447999
 21
275.10891554046788
 31
0.0
  0
LINE
  8
SIZE
  6
CONTINUOUS
 62
    30
 10
208.00000006447999
 20
218.7500000616125
 30
0.0
 11
208.00000006447999
 21
275.10891554046788
 31
0.0
  0
LINE
  8
SIZE
  6
CONTINUOUS
 62
    30
 10
-196.00000006447999
 20
255.1089155404679
 30
0.0
 11
196.00000006447999
 21
255.1089155404679
 31
0.0
  0
CIRCLE
  8
SIZE
  6
CONTINUOUS
 62
    30
 10
-208.00000006447999
 20
255.1089155404679
 30
0.0
 40
6.0
  0
LINE
  8
SIZE
  6
CONTINUOUS
 62
    30
 10
-208.00000006447999
 20
255.1089155404679
 30
0.0
 11
-196.00000006447999
 21
255.1089155404679
 31
0.0
  0
CIRCLE
  8
SIZE
  6
CONTINUOUS
 62
    30
 10
208.00000006447999
 20
255.1089155404679
 30
0.0
 40
6.0
  0
LINE
  8
SIZE
  6
CONTINUOUS
 62
    30
 10
208.00000006447999
 20
255.1089155404679
 30
0.0
 11
196.00000006447999
 21
255.1089155404679
 31
0.0
  0
TEXT
  8
SIZE
  6
CONTINUOUS
 62
    30
 10
-75.167999999999978
 20
280.10891554046788
 30
0.0
 40
64.0
  1
416
 50
0.0
 41
0.9
 51
0.0
  7
STANDARD
 71
     0
 72
     1
 11
0.0000000000000142
 21
280.10891554046788
 31
0.0
210
0.0
220
0.0
230
1.0
  0
POINT
  8
DEFPOINTS
  6
CONTINUOUS
 62
    30
 10
-208.00000006447999
 20
198.7500000616125
 30
0.0
  0
POINT
  8
DEFPOINTS
  6
CONTINUOUS
 62
    30
 10
208.00000006447999
 20
198.7500000616125
 30
0.0
  0
POINT
  8
DEFPOINTS
  6
CONTINUOUS
 62
    30
 10
208.00000006447999
 20
255.1089155404679
 30
0.0
  0
LINE
  8
SIZE
  6
CONTINUOUS
 62
    30
 10
-222.00000006261999
 20
206.25000006393739
 30
0.0
 11
-270.8231515765973
 21
206.25000006393739
 31
0.0
  0
LINE
  8
SIZE
  6
CONTINUOUS
 62
    30
 10
-222.00000006261999
 20
-206.25000006393751
 30
0.0
 11
-270.82315157659741
 21
-206.25000006393751
 31
0.0
  0
LINE
  8
SIZE
  6
CONTINUOUS
 62
    30
 10
-250.8231515765973
 20
194.25000006393739
 30
0.0
 11
-250.82315157659741
 21
-194.25000006393751
 31
0.0
  0
CIRCLE
  8
SIZE
  6
CONTINUOUS
 62
    30
 10
-250.8231515765973
 20
206.25000006393739
 30
0.0
 40
6.0
  0
LINE
  8
SIZE
  6
CONTINUOUS
 62
    30
 10
-250.8231515765973
 20
206.25000006393739
 30
0.0
 11
-250.8231515765973
 21
194.25000006393739
 31
0.0
  0
CIRCLE
  8
SIZE
  6
CONTINUOUS
 62
    30
 10
-250.82315157659741
 20
-206.25000006393751
 30
0.0
 40
6.0
  0
LINE
  8
SIZE
  6
CONTINUOUS
 62
    30
 10
-250.82315157659741
 20
-206.25000006393751
 30
0.0
 11
-250.82315157659741
 21
-194.25000006393751
 31
0.0
  0
TEXT
  8
SIZE
  6
CONTINUOUS
 62
    30
 10
-275.82315157659741
 20
-75.168000000000077
 30
0.0
 40
64.0
  1
413
 50
90.0
 41
0.9
 51
0.0
  7
STANDARD
 71
     0
 72
     1
 11
-275.82315157659741
 21
-0.0000000000000791
 31
0.0
210
0.0
220
0.0
230
1.0
  0
POINT
  8
DEFPOINTS
  6
CONTINUOUS
 62
    30
 10
-202.00000006261999
 20
206.25000006393739
 30
0.0
  0
POINT
  8
DEFPOINTS
  6
CONTINUOUS
 62
    30
 10
-202.00000006261999
 20
-206.25000006393751
 30
0.0
  0
POINT
  8
DEFPOINTS
  6
CONTINUOUS
 62
    30
 10
-250.82315157659741
 20
-206.25000006393751
 30
0.0
  0
LINE
  8
SIZE
  6
CONTINUOUS
 62
    30
 10
227.00000006417
 20
197.75000006130239
 30
0.0
 11
406.30348228589088
 21
197.7500000613023
 31
0.0
  0
LINE
  8
SIZE
  6
CONTINUOUS
 62
    30
 10
227.00000006417
 20
192.25000005959751
 30
0.0
 11
406.30348228589088
 21
192.25000005959751
 31
0.0
  0
LINE
  8
SIZE
  6
CONTINUOUS
 62
    30
 10
386.30348228589088
 20
209.7500000613023
 30
0.0
 11
386.30348228589088
 21
221.7500000613023
 31
0.0
  0
LINE
  8
SIZE
  6
CONTINUOUS
 62
    30
 10
386.30348228589088
 20
180.25000005959751
 30
0.0
 11
386.30348228589082
 21
-1.8871427975453801
 31
0.0
  0
LINE
  8
SIZE
  6
CONTINUOUS
 62
    30
 10
386.30348228589088
 20
197.7500000613023
 30
0.0
 11
386.30348228589088
 21
192.25000005959751
 31
0.0
  0
CIRCLE
  8
SIZE
  6
CONTINUOUS
 62
    30
 10
386.30348228589088
 20
197.7500000613023
 30
0.0
 40
6.0
  0
LINE
  8
SIZE
  6
CONTINUOUS
 62
    30
 10
386.30348228589088
 20
197.7500000613023
 30
0.0
 11
386.30348228589088
 21
209.7500000613023
 31
0.0
  0
CIRCLE
  8
SIZE
  6
CONTINUOUS
 62
    30
 10
386.30348228589088
 20
192.25000005959751
 30
0.0
 40
6.0
  0
LINE
  8
SIZE
  6
CONTINUOUS
 62
    30
 10
386.30348228589088
 20
192.25000005959751
 30
0.0
 11
386.30348228589088
 21
180.25000005959751
 31
0.0
  0
TEXT
  8
SIZE
  6
CONTINUOUS
 62
    30
 10
361.30348228589082
 20
-12.722571368973888
 30
0.0
 40
64.0
  1
（6）
 50
90.0
 41
0.9
 51
0.0
  7
STANDARD
 71
     0
 72
     1
 11
361.30348228589082
 21
83.181428631026108
 31
0.0
210
0.0
220
0.0
230
1.0
  0
POINT
  8
DEFPOINTS
  6
CONTINUOUS
 62
    30
 10
207.00000006417
 20
197.75000006130239
 30
0.0
  0
POINT
  8
DEFPOINTS
  6
CONTINUOUS
 62
    30
 10
207.00000006417
 20
192.25000005959751
 30
0.0
  0
POINT
  8
DEFPOINTS
  6
CONTINUOUS
 62
    30
 10
386.30348228589088
 20
192.25000005959751
 30
0.0
  0
LINE
  8
SIZE
  6
CONTINUOUS
 62
    30
 10
212.00000006200011
 20
220.25000006331749
 30
0.0
 11
255.58076627916199
 21
278.35768835286632
 31
0.0
  0
LINE
  8
SIZE
  6
CONTINUOUS
 62
    30
 10
218.00000006386011
 20
215.75000006192249
 30
0.0
 11
261.58076628102202
 21
273.85768835147121
 31
0.0
  0
LINE
  8
SIZE
  6
CONTINUOUS
 62
    30
 10
233.98076627916191
 20
269.55768835286631
 30
0.0
 11
224.38076627916189
 21
276.75768835286641
 31
0.0
  0
LINE
  8
SIZE
  6
CONTINUOUS
 62
    30
 10
259.18076628102187
 20
250.65768835147119
 30
0.0
 11
268.7807662810219
 21
243.45768835147109
 31
0.0
  0
LINE
  8
SIZE
  6
CONTINUOUS
 62
    30
 10
243.58076627916191
 20
262.35768835286632
 30
0.0
 11
249.58076628102191
 21
257.85768835147121
 31
0.0
  0
CIRCLE
  8
SIZE
  6
CONTINUOUS
 62
    30
 10
243.58076627916191
 20
262.35768835286632
 30
0.0
 40
6.0
  0
LINE
  8
SIZE
  6
CONTINUOUS
 62
    30
 10
243.58076627916191
 20
262.35768835286632
 30
0.0
 11
233.98076627916194
 21
269.55768835286636
 31
0.0
  0
CIRCLE
  8
SIZE
  6
CONTINUOUS
 62
    30
 10
249.58076628102191
 20
257.85768835147121
 30
0.0
 40
6.0
  0
LINE
  8
SIZE
  6
CONTINUOUS
 62
    30
 10
249.58076628102191
 20
257.85768835147121
 30
0.0
 11
259.18076628102187
 21
250.65768835147119
 31
0.0
  0
TEXT
  8
SIZE
  6
CONTINUOUS
 62
    30
 10
152.37116628009232
 20
362.01488835216907
 30
0.0
 40
64.0
  1
（7.5）
 50
323.13010235415578
 41
0.9
 51
0.0
  7
STANDARD
 71
     0
 72
     1
 11
261.58076628009201
 21
280.10768835216868
 31
0.0
210
0.0
220
0.0
230
1.0
  0
POINT
  8
DEFPOINTS
  6
CONTINUOUS
 62
    30
 10
200.000000062
 20
204.25000006331749
 30
0.0
  0
POINT
  8
DEFPOINTS
  6
CONTINUOUS
 62
    30
 10
206.00000006386011
 20
199.75000006192249
 30
0.0
  0
POINT
  8
DEFPOINTS
  6
CONTINUOUS
 62
    30
 10
249.58076628102191
 20
257.85768835147121
 30
0.0
  0
LINE
  8
OUTLINE
  6
CONTINUOUS
 62
     3
 10
-206.00000006385989
 20
-202.2500000626975
 30
0.0
 11
-206.00000006385989
 21
202.2500000626975
 31
0.0
  0
LINE
  8
OUTLINE
  6
CONTINUOUS
 62
     3
 10
-204.0000000632399
 20
-202.2500000626975
 30
0.0
 11
-204.0000000632399
 21
202.2500000626975
 31
0.0
  0
LINE
  8
OUTLINE
  6
CONTINUOUS
 62
     3
 10
-200.000000062
 20
203.25000006300749
 30
0.0
 11
-200.000000062
 21
-203.25000006300749
 31
0.0
  0
LINE
  8
OUTLINE
  6
CONTINUOUS
 62
     3
 10
-198.00000006138001
 20
203.25000006300749
 30
0.0
 11
-198.00000006138001
 21
-203.25000006300749
 31
0.0
  0
LINE
  8
OUTLINE
  6
CONTINUOUS
 62
     3
 10
202.00000006261999
 20
-206.25000006393751
 30
0.0
 11
-202.00000006261979
 21
-206.25000006393751
 31
0.0
  0
LINE
  8
OUTLINE
  6
CONTINUOUS
 62
     3
 10
202.00000006261999
 20
-204.25000006331749
 30
0.0
 11
-202.00000006261979
 21
-204.25000006331749
 31
0.0
  0
LINE
  8
OUTLINE
  6
CONTINUOUS
 62
     3
 10
-204.0000000632399
 20
-199.75000006192249
 30
0.0
 11
-200.000000062
 21
-199.75000006192249
 31
0.0
  0
LINE
  8
OUTLINE
  6
CONTINUOUS
 62
     3
 10
-198.00000006138001
 20
-199.75000006192249
 30
0.0
 11
-61.000000018909873
 21
-199.75000006192249
 31
0.0
  0
LINE
  8
OUTLINE
  6
CONTINUOUS
 62
     3
 10
-59.000000018290052
 20
-199.75000006192249
 30
0.0
 11
59.00000001829028
 21
-199.75000006192249
 31
0.0
  0
LINE
  8
OUTLINE
  6
CONTINUOUS
 62
     3
 10
61.0000000189101
 20
-199.75000006192249
 30
0.0
 11
198.00000006138029
 21
-199.75000006192249
 31
0.0
  0
LINE
  8
OUTLINE
  6
CONTINUOUS
 62
     3
 10
200.00000006200011
 20
-199.75000006192249
 30
0.0
 11
204.00000006324021
 21
-199.75000006192249
 31
0.0
  0
LINE
  8
OUTLINE
  6
CONTINUOUS
 62
     3
 10
206.00000006386011
 20
-199.75000006192249
 30
0.0
 11
207.00000006417019
 21
-199.75000006192249
 31
0.0
  0
LINE
  8
OUTLINE
  6
CONTINUOUS
 62
     3
 10
-204.0000000632399
 20
-197.7500000613025
 30
0.0
 11
-200.000000062
 21
-197.7500000613025
 31
0.0
  0
LINE
  8
OUTLINE
  6
CONTINUOUS
 62
     3
 10
-198.00000006138001
 20
-197.7500000613025
 30
0.0
 11
-61.000000018909873
 21
-197.7500000613025
 31
0.0
  0
LINE
  8
OUTLINE
  6
CONTINUOUS
 62
     3
 10
-59.000000018290052
 20
-197.7500000613025
 30
0.0
 11
59.00000001829028
 21
-197.7500000613025
 31
0.0
  0
LINE
  8
OUTLINE
  6
CONTINUOUS
 62
     3
 10
61.0000000189101
 20
-197.7500000613025
 30
0.0
 11
198.00000006138029
 21
-197.7500000613025
 31
0.0
  0
LINE
  8
OUTLINE
  6
CONTINUOUS
 62
     3
 10
200.00000006200011
 20
-197.7500000613025
 30
0.0
 11
204.00000006324021
 21
-197.7500000613025
 31
0.0
  0
LINE
  8
OUTLINE
  6
CONTINUOUS
 62
     3
 10
206.00000006386011
 20
-197.7500000613025
 30
0.0
 11
207.00000006417019
 21
-197.7500000613025
 31
0.0
  0
LINE
  8
OUTLINE
  6
CONTINUOUS
 62
     3
 10
-204.0000000632399
 20
-192.25000005959751
 30
0.0
 11
-200.000000062
 21
-192.25000005959751
 31
0.0
  0
LINE
  8
OUTLINE
  6
CONTINUOUS
 62
     3
 10
-198.00000006138001
 20
-192.25000005959751
 30
0.0
 11
-61.000000018909873
 21
-192.25000005959751
 31
0.0
  0
LINE
  8
OUTLINE
  6
CONTINUOUS
 62
     3
 10
-59.000000018290052
 20
-192.25000005959751
 30
0.0
 11
59.00000001829028
 21
-192.25000005959751
 31
0.0
  0
LINE
  8
OUTLINE
  6
CONTINUOUS
 62
     3
 10
61.0000000189101
 20
-192.25000005959751
 30
0.0
 11
198.00000006138029
 21
-192.25000005959751
 31
0.0
  0
LINE
  8
OUTLINE
  6
CONTINUOUS
 62
     3
 10
200.00000006200011
 20
-192.25000005959751
 30
0.0
 11
204.00000006324021
 21
-192.25000005959751
 31
0.0
  0
LINE
  8
OUTLINE
  6
CONTINUOUS
 62
     3
 10
206.00000006386011
 20
-192.25000005959751
 30
0.0
 11
207.00000006417019
 21
-192.25000005959751
 31
0.0
  0
LINE
  8
OUTLINE
  6
CONTINUOUS
 62
     3
 10
-204.0000000632399
 20
-190.25000005897749
 30
0.0
 11
-200.000000062
 21
-190.25000005897749
 31
0.0
  0
LINE
  8
OUTLINE
  6
CONTINUOUS
 62
     3
 10
-198.00000006138001
 20
-190.25000005897749
 30
0.0
 11
-61.000000018909873
 21
-190.25000005897749
 31
0.0
  0
LINE
  8
OUTLINE
  6
CONTINUOUS
 62
     3
 10
-59.000000018290052
 20
-190.25000005897749
 30
0.0
 11
59.00000001829028
 21
-190.25000005897749
 31
0.0
  0
LINE
  8
OUTLINE
  6
CONTINUOUS
 62
     3
 10
61.0000000189101
 20
-190.25000005897749
 30
0.0
 11
198.00000006138029
 21
-190.25000005897749
 31
0.0
  0
LINE
  8
OUTLINE
  6
CONTINUOUS
 62
     3
 10
200.00000006200011
 20
-190.25000005897749
 30
0.0
 11
204.00000006324021
 21
-190.25000005897749
 31
0.0
  0
LINE
  8
OUTLINE
  6
CONTINUOUS
 62
     3
 10
206.00000006386011
 20
-190.25000005897749
 30
0.0
 11
207.00000006417019
 21
-190.25000005897749
 31
0.0
  0
LINE
  8
OUTLINE
  6
CONTINUOUS
 62
     3
 10
-204.0000000632399
 20
-184.7500000572725
 30
0.0
 11
-200.000000062
 21
-184.7500000572725
 31
0.0
  0
LINE
  8
OUTLINE
  6
CONTINUOUS
 62
     3
 10
-198.00000006138001
 20
-184.7500000572725
 30
0.0
 11
-61.000000018909873
 21
-184.7500000572725
 31
0.0
  0
LINE
  8
OUTLINE
  6
CONTINUOUS
 62
     3
 10
-59.000000018290052
 20
-184.7500000572725
 30
0.0
 11
59.00000001829028
 21
-184.7500000572725
 31
0.0
  0
LINE
  8
OUTLINE
  6
CONTINUOUS
 62
     3
 10
61.0000000189101
 20
-184.7500000572725
 30
0.0
 11
198.00000006138029
 21
-184.7500000572725
 31
0.0
  0
LINE
  8
OUTLINE
  6
CONTINUOUS
 62
     3
 10
200.00000006200011
 20
-184.7500000572725
 30
0.0
 11
204.00000006324021
 21
-184.7500000572725
 31
0.0
  0
LINE
  8
OUTLINE
  6
CONTINUOUS
 62
     3
 10
206.00000006386011
 20
-184.7500000572725
 30
0.0
 11
207.00000006417019
 21
-184.7500000572725
 31
0.0
  0
LINE
  8
OUTLINE
  6
CONTINUOUS
 62
     3
 10
-204.0000000632399
 20
-182.75000005665251
 30
0.0
 11
-200.000000062
 21
-182.75000005665251
 31
0.0
  0
LINE
  8
OUTLINE
  6
CONTINUOUS
 62
     3
 10
-198.00000006138001
 20
-182.75000005665251
 30
0.0
 11
-61.000000018909873
 21
-182.75000005665251
 31
0.0
  0
LINE
  8
OUTLINE
  6
CONTINUOUS
 62
     3
 10
-59.000000018290052
 20
-182.75000005665251
 30
0.0
 11
59.00000001829028
 21
-182.75000005665251
 31
0.0
  0
LINE
  8
OUTLINE
  6
CONTINUOUS
 62
     3
 10
61.0000000189101
 20
-182.75000005665251
 30
0.0
 11
198.00000006138029
 21
-182.75000005665251
 31
0.0
  0
LINE
  8
OUTLINE
  6
CONTINUOUS
 62
     3
 10
200.00000006200011
 20
-182.75000005665251
 30
0.0
 11
204.00000006324021
 21
-182.75000005665251
 31
0.0
  0
LINE
  8
OUTLINE
  6
CONTINUOUS
 62
     3
 10
206.00000006386011
 20
-182.75000005665251
 30
0.0
 11
207.00000006417019
 21
-182.75000005665251
 31
0.0
  0
LINE
  8
OUTLINE
  6
CONTINUOUS
 62
     3
 10
-204.0000000632399
 20
-177.25000005494749
 30
0.0
 11
-200.000000062
 21
-177.25000005494749
 31
0.0
  0
LINE
  8
OUTLINE
  6
CONTINUOUS
 62
     3
 10
-198.00000006138001
 20
-177.25000005494749
 30
0.0
 11
-61.000000018909873
 21
-177.25000005494749
 31
0.0
  0
LINE
  8
OUTLINE
  6
CONTINUOUS
 62
     3
 10
-59.000000018290052
 20
-177.25000005494749
 30
0.0
 11
59.00000001829028
 21
-177.25000005494749
 31
0.0
  0
LINE
  8
OUTLINE
  6
CONTINUOUS
 62
     3
 10
61.0000000189101
 20
-177.25000005494749
 30
0.0
 11
198.00000006138029
 21
-177.25000005494749
 31
0.0
  0
LINE
  8
OUTLINE
  6
CONTINUOUS
 62
     3
 10
200.00000006200011
 20
-177.25000005494749
 30
0.0
 11
204.00000006324021
 21
-177.25000005494749
 31
0.0
  0
LINE
  8
OUTLINE
  6
CONTINUOUS
 62
     3
 10
206.00000006386011
 20
-177.25000005494749
 30
0.0
 11
207.00000006417019
 21
-177.25000005494749
 31
0.0
  0
LINE
  8
OUTLINE
  6
CONTINUOUS
 62
     3
 10
-204.0000000632399
 20
-175.2500000543275
 30
0.0
 11
-200.000000062
 21
-175.2500000543275
 31
0.0
  0
LINE
  8
OUTLINE
  6
CONTINUOUS
 62
     3
 10
-198.00000006138001
 20
-175.2500000543275
 30
0.0
 11
-61.000000018909873
 21
-175.2500000543275
 31
0.0
  0
LINE
  8
OUTLINE
  6
CONTINUOUS
 62
     3
 10
-59.000000018290052
 20
-175.2500000543275
 30
0.0
 11
59.00000001829028
 21
-175.2500000543275
 31
0.0
  0
LINE
  8
OUTLINE
  6
CONTINUOUS
 62
     3
 10
61.0000000189101
 20
-175.2500000543275
 30
0.0
 11
198.00000006138029
 21
-175.2500000543275
 31
0.0
  0
LINE
  8
OUTLINE
  6
CONTINUOUS
 62
     3
 10
200.00000006200011
 20
-175.2500000543275
 30
0.0
 11
204.00000006324021
 21
-175.2500000543275
 31
0.0
  0
LINE
  8
OUTLINE
  6
CONTINUOUS
 62
     3
 10
206.00000006386011
 20
-175.2500000543275
 30
0.0
 11
207.00000006417019
 21
-175.2500000543275
 31
0.0
  0
LINE
  8
OUTLINE
  6
CONTINUOUS
 62
     3
 10
-204.0000000632399
 20
-169.75000005262251
 30
0.0
 11
-200.000000062
 21
-169.75000005262251
 31
0.0
  0
LINE
  8
OUTLINE
  6
CONTINUOUS
 62
     3
 10
-198.00000006138001
 20
-169.75000005262251
 30
0.0
 11
-61.000000018909873
 21
-169.75000005262251
 31
0.0
  0
LINE
  8
OUTLINE
  6
CONTINUOUS
 62
     3
 10
-59.000000018290052
 20
-169.75000005262251
 30
0.0
 11
59.00000001829028
 21
-169.75000005262251
 31
0.0
  0
LINE
  8
OUTLINE
  6
CONTINUOUS
 62
     3
 10
61.0000000189101
 20
-169.75000005262251
 30
0.0
 11
198.00000006138029
 21
-169.75000005262251
 31
0.0
  0
LINE
  8
OUTLINE
  6
CONTINUOUS
 62
     3
 10
200.00000006200011
 20
-169.75000005262251
 30
0.0
 11
204.00000006324021
 21
-169.75000005262251
 31
0.0
  0
LINE
  8
OUTLINE
  6
CONTINUOUS
 62
     3
 10
206.00000006386011
 20
-169.75000005262251
 30
0.0
 11
207.00000006417019
 21
-169.75000005262251
 31
0.0
  0
LINE
  8
OUTLINE
  6
CONTINUOUS
 62
     3
 10
-204.0000000632399
 20
-167.75000005200249
 30
0.0
 11
-200.000000062
 21
-167.75000005200249
 31
0.0
  0
LINE
  8
OUTLINE
  6
CONTINUOUS
 62
     3
 10
-198.00000006138001
 20
-167.75000005200249
 30
0.0
 11
-61.000000018909873
 21
-167.75000005200249
 31
0.0
  0
LINE
  8
OUTLINE
  6
CONTINUOUS
 62
     3
 10
-59.000000018290052
 20
-167.75000005200249
 30
0.0
 11
59.00000001829028
 21
-167.75000005200249
 31
0.0
  0
LINE
  8
OUTLINE
  6
CONTINUOUS
 62
     3
 10
61.0000000189101
 20
-167.75000005200249
 30
0.0
 11
198.00000006138029
 21
-167.75000005200249
 31
0.0
  0
LINE
  8
OUTLINE
  6
CONTINUOUS
 62
     3
 10
200.00000006200011
 20
-167.75000005200249
 30
0.0
 11
204.00000006324021
 21
-167.75000005200249
 31
0.0
  0
LINE
  8
OUTLINE
  6
CONTINUOUS
 62
     3
 10
206.00000006386011
 20
-167.75000005200249
 30
0.0
 11
207.00000006417019
 21
-167.75000005200249
 31
0.0
  0
LINE
  8
OUTLINE
  6
CONTINUOUS
 62
     3
 10
-204.0000000632399
 20
-162.2500000502975
 30
0.0
 11
-200.000000062
 21
-162.2500000502975
 31
0.0
  0
LINE
  8
OUTLINE
  6
CONTINUOUS
 62
     3
 10
-198.00000006138001
 20
-162.2500000502975
 30
0.0
 11
-61.000000018909873
 21
-162.2500000502975
 31
0.0
  0
LINE
  8
OUTLINE
  6
CONTINUOUS
 62
     3
 10
-59.000000018290052
 20
-162.2500000502975
 30
0.0
 11
59.00000001829028
 21
-162.2500000502975
 31
0.0
  0
LINE
  8
OUTLINE
  6
CONTINUOUS
 62
     3
 10
61.0000000189101
 20
-162.2500000502975
 30
0.0
 11
198.00000006138029
 21
-162.2500000502975
 31
0.0
  0
LINE
  8
OUTLINE
  6
CONTINUOUS
 62
     3
 10
200.00000006200011
 20
-162.2500000502975
 30
0.0
 11
204.00000006324021
 21
-162.2500000502975
 31
0.0
  0
LINE
  8
OUTLINE
  6
CONTINUOUS
 62
     3
 10
206.00000006386011
 20
-162.2500000502975
 30
0.0
 11
207.00000006417019
 21
-162.2500000502975
 31
0.0
  0
LINE
  8
OUTLINE
  6
CONTINUOUS
 62
     3
 10
-204.0000000632399
 20
-160.25000004967751
 30
0.0
 11
-200.000000062
 21
-160.25000004967751
 31
0.0
  0
LINE
  8
OUTLINE
  6
CONTINUOUS
 62
     3
 10
-198.00000006138001
 20
-160.25000004967751
 30
0.0
 11
-61.000000018909873
 21
-160.25000004967751
 31
0.0
  0
LINE
  8
OUTLINE
  6
CONTINUOUS
 62
     3
 10
-59.000000018290052
 20
-160.25000004967751
 30
0.0
 11
59.00000001829028
 21
-160.25000004967751
 31
0.0
  0
LINE
  8
OUTLINE
  6
CONTINUOUS
 62
     3
 10
61.0000000189101
 20
-160.25000004967751
 30
0.0
 11
198.00000006138029
 21
-160.25000004967751
 31
0.0
  0
LINE
  8
OUTLINE
  6
CONTINUOUS
 62
     3
 10
200.00000006200011
 20
-160.25000004967751
 30
0.0
 11
204.00000006324021
 21
-160.25000004967751
 31
0.0
  0
LINE
  8
OUTLINE
  6
CONTINUOUS
 62
     3
 10
206.00000006386011
 20
-160.25000004967751
 30
0.0
 11
207.00000006417019
 21
-160.25000004967751
 31
0.0
  0
LINE
  8
OUTLINE
  6
CONTINUOUS
 62
     3
 10
-204.0000000632399
 20
-154.75000004797249
 30
0.0
 11
-200.000000062
 21
-154.75000004797249
 31
0.0
  0
LINE
  8
OUTLINE
  6
CONTINUOUS
 62
     3
 10
-198.00000006138001
 20
-154.75000004797249
 30
0.0
 11
-61.000000018909873
 21
-154.75000004797249
 31
0.0
  0
LINE
  8
OUTLINE
  6
CONTINUOUS
 62
     3
 10
-59.000000018290052
 20
-154.75000004797249
 30
0.0
 11
59.00000001829028
 21
-154.75000004797249
 31
0.0
  0
LINE
  8
OUTLINE
  6
CONTINUOUS
 62
     3
 10
61.0000000189101
 20
-154.75000004797249
 30
0.0
 11
198.00000006138029
 21
-154.75000004797249
 31
0.0
  0
LINE
  8
OUTLINE
  6
CONTINUOUS
 62
     3
 10
200.00000006200011
 20
-154.75000004797249
 30
0.0
 11
204.00000006324021
 21
-154.75000004797249
 31
0.0
  0
LINE
  8
OUTLINE
  6
CONTINUOUS
 62
     3
 10
206.00000006386011
 20
-154.75000004797249
 30
0.0
 11
207.00000006417019
 21
-154.75000004797249
 31
0.0
  0
LINE
  8
OUTLINE
  6
CONTINUOUS
 62
     3
 10
-204.0000000632399
 20
-152.7500000473525
 30
0.0
 11
-200.000000062
 21
-152.7500000473525
 31
0.0
  0
LINE
  8
OUTLINE
  6
CONTINUOUS
 62
     3
 10
-198.00000006138001
 20
-152.7500000473525
 30
0.0
 11
-61.000000018909873
 21
-152.7500000473525
 31
0.0
  0
LINE
  8
OUTLINE
  6
CONTINUOUS
 62
     3
 10
-59.000000018290052
 20
-152.7500000473525
 30
0.0
 11
59.00000001829028
 21
-152.7500000473525
 31
0.0
  0
LINE
  8
OUTLINE
  6
CONTINUOUS
 62
     3
 10
61.0000000189101
 20
-152.7500000473525
 30
0.0
 11
198.00000006138029
 21
-152.7500000473525
 31
0.0
  0
LINE
  8
OUTLINE
  6
CONTINUOUS
 62
     3
 10
200.00000006200011
 20
-152.7500000473525
 30
0.0
 11
204.00000006324021
 21
-152.7500000473525
 31
0.0
  0
LINE
  8
OUTLINE
  6
CONTINUOUS
 62
     3
 10
206.00000006386011
 20
-152.7500000473525
 30
0.0
 11
207.00000006417019
 21
-152.7500000473525
 31
0.0
  0
LINE
  8
OUTLINE
  6
CONTINUOUS
 62
     3
 10
-204.0000000632399
 20
-147.25000004564751
 30
0.0
 11
-200.000000062
 21
-147.25000004564751
 31
0.0
  0
LINE
  8
OUTLINE
  6
CONTINUOUS
 62
     3
 10
-198.00000006138001
 20
-147.25000004564751
 30
0.0
 11
-61.000000018909873
 21
-147.25000004564751
 31
0.0
  0
LINE
  8
OUTLINE
  6
CONTINUOUS
 62
     3
 10
-59.000000018290052
 20
-147.25000004564751
 30
0.0
 11
59.00000001829028
 21
-147.25000004564751
 31
0.0
  0
LINE
  8
OUTLINE
  6
CONTINUOUS
 62
     3
 10
61.0000000189101
 20
-147.25000004564751
 30
0.0
 11
198.00000006138029
 21
-147.25000004564751
 31
0.0
  0
LINE
  8
OUTLINE
  6
CONTINUOUS
 62
     3
 10
200.00000006200011
 20
-147.25000004564751
 30
0.0
 11
204.00000006324021
 21
-147.25000004564751
 31
0.0
  0
LINE
  8
OUTLINE
  6
CONTINUOUS
 62
     3
 10
206.00000006386011
 20
-147.25000004564751
 30
0.0
 11
207.00000006417019
 21
-147.25000004564751
 31
0.0
  0
LINE
  8
OUTLINE
  6
CONTINUOUS
 62
     3
 10
-204.0000000632399
 20
-145.25000004502749
 30
0.0
 11
-200.000000062
 21
-145.25000004502749
 31
0.0
  0
LINE
  8
OUTLINE
  6
CONTINUOUS
 62
     3
 10
-198.00000006138001
 20
-145.25000004502749
 30
0.0
 11
-61.000000018909873
 21
-145.25000004502749
 31
0.0
  0
LINE
  8
OUTLINE
  6
CONTINUOUS
 62
     3
 10
-59.000000018290052
 20
-145.25000004502749
 30
0.0
 11
59.00000001829028
 21
-145.25000004502749
 31
0.0
  0
LINE
  8
OUTLINE
  6
CONTINUOUS
 62
     3
 10
61.0000000189101
 20
-145.25000004502749
 30
0.0
 11
198.00000006138029
 21
-145.25000004502749
 31
0.0
  0
LINE
  8
OUTLINE
  6
CONTINUOUS
 62
     3
 10
200.00000006200011
 20
-145.25000004502749
 30
0.0
 11
204.00000006324021
 21
-145.25000004502749
 31
0.0
  0
LINE
  8
OUTLINE
  6
CONTINUOUS
 62
     3
 10
206.00000006386011
 20
-145.25000004502749
 30
0.0
 11
207.00000006417019
 21
-145.25000004502749
 31
0.0
  0
LINE
  8
OUTLINE
  6
CONTINUOUS
 62
     3
 10
-204.0000000632399
 20
-139.7500000433225
 30
0.0
 11
-200.000000062
 21
-139.7500000433225
 31
0.0
  0
LINE
  8
OUTLINE
  6
CONTINUOUS
 62
     3
 10
-198.00000006138001
 20
-139.7500000433225
 30
0.0
 11
-61.000000018909873
 21
-139.7500000433225
 31
0.0
  0
LINE
  8
OUTLINE
  6
CONTINUOUS
 62
     3
 10
-59.000000018290052
 20
-139.7500000433225
 30
0.0
 11
59.00000001829028
 21
-139.7500000433225
 31
0.0
  0
LINE
  8
OUTLINE
  6
CONTINUOUS
 62
     3
 10
61.0000000189101
 20
-139.7500000433225
 30
0.0
 11
198.00000006138029
 21
-139.7500000433225
 31
0.0
  0
LINE
  8
OUTLINE
  6
CONTINUOUS
 62
     3
 10
200.00000006200011
 20
-139.7500000433225
 30
0.0
 11
204.00000006324021
 21
-139.7500000433225
 31
0.0
  0
LINE
  8
OUTLINE
  6
CONTINUOUS
 62
     3
 10
206.00000006386011
 20
-139.7500000433225
 30
0.0
 11
207.00000006417019
 21
-139.7500000433225
 31
0.0
  0
LINE
  8
OUTLINE
  6
CONTINUOUS
 62
     3
 10
-204.0000000632399
 20
-137.75000004270251
 30
0.0
 11
-200.000000062
 21
-137.75000004270251
 31
0.0
  0
LINE
  8
OUTLINE
  6
CONTINUOUS
 62
     3
 10
-198.00000006138001
 20
-137.75000004270251
 30
0.0
 11
-61.000000018909873
 21
-137.75000004270251
 31
0.0
  0
LINE
  8
OUTLINE
  6
CONTINUOUS
 62
     3
 10
-59.000000018290052
 20
-137.75000004270251
 30
0.0
 11
59.00000001829028
 21
-137.75000004270251
 31
0.0
  0
LINE
  8
OUTLINE
  6
CONTINUOUS
 62
     3
 10
61.0000000189101
 20
-137.75000004270251
 30
0.0
 11
198.00000006138029
 21
-137.75000004270251
 31
0.0
  0
LINE
  8
OUTLINE
  6
CONTINUOUS
 62
     3
 10
200.00000006200011
 20
-137.75000004270251
 30
0.0
 11
204.00000006324021
 21
-137.75000004270251
 31
0.0
  0
LINE
  8
OUTLINE
  6
CONTINUOUS
 62
     3
 10
206.00000006386011
 20
-137.75000004270251
 30
0.0
 11
207.00000006417019
 21
-137.75000004270251
 31
0.0
  0
LINE
  8
OUTLINE
  6
CONTINUOUS
 62
     3
 10
-204.0000000632399
 20
-132.25000004099749
 30
0.0
 11
-200.000000062
 21
-132.25000004099749
 31
0.0
  0
LINE
  8
OUTLINE
  6
CONTINUOUS
 62
     3
 10
-198.00000006138001
 20
-132.25000004099749
 30
0.0
 11
-61.000000018909873
 21
-132.25000004099749
 31
0.0
  0
LINE
  8
OUTLINE
  6
CONTINUOUS
 62
     3
 10
-59.000000018290052
 20
-132.25000004099749
 30
0.0
 11
59.00000001829028
 21
-132.25000004099749
 31
0.0
  0
LINE
  8
OUTLINE
  6
CONTINUOUS
 62
     3
 10
61.0000000189101
 20
-132.25000004099749
 30
0.0
 11
198.00000006138029
 21
-132.25000004099749
 31
0.0
  0
LINE
  8
OUTLINE
  6
CONTINUOUS
 62
     3
 10
200.00000006200011
 20
-132.25000004099749
 30
0.0
 11
204.00000006324021
 21
-132.25000004099749
 31
0.0
  0
LINE
  8
OUTLINE
  6
CONTINUOUS
 62
     3
 10
206.00000006386011
 20
-132.25000004099749
 30
0.0
 11
207.00000006417019
 21
-132.25000004099749
 31
0.0
  0
LINE
  8
OUTLINE
  6
CONTINUOUS
 62
     3
 10
-204.0000000632399
 20
-130.2500000403775
 30
0.0
 11
-200.000000062
 21
-130.2500000403775
 31
0.0
  0
LINE
  8
OUTLINE
  6
CONTINUOUS
 62
     3
 10
-198.00000006138001
 20
-130.2500000403775
 30
0.0
 11
-61.000000018909873
 21
-130.2500000403775
 31
0.0
  0
LINE
  8
OUTLINE
  6
CONTINUOUS
 62
     3
 10
-59.000000018290052
 20
-130.2500000403775
 30
0.0
 11
59.00000001829028
 21
-130.2500000403775
 31
0.0
  0
LINE
  8
OUTLINE
  6
CONTINUOUS
 62
     3
 10
61.0000000189101
 20
-130.2500000403775
 30
0.0
 11
198.00000006138029
 21
-130.2500000403775
 31
0.0
  0
LINE
  8
OUTLINE
  6
CONTINUOUS
 62
     3
 10
200.00000006200011
 20
-130.2500000403775
 30
0.0
 11
204.00000006324021
 21
-130.2500000403775
 31
0.0
  0
LINE
  8
OUTLINE
  6
CONTINUOUS
 62
     3
 10
206.00000006386011
 20
-130.2500000403775
 30
0.0
 11
207.00000006417019
 21
-130.2500000403775
 31
0.0
  0
LINE
  8
OUTLINE
  6
CONTINUOUS
 62
     3
 10
-204.0000000632399
 20
-124.7500000386725
 30
0.0
 11
-200.000000062
 21
-124.7500000386725
 31
0.0
  0
LINE
  8
OUTLINE
  6
CONTINUOUS
 62
     3
 10
-198.00000006138001
 20
-124.7500000386725
 30
0.0
 11
-61.000000018909873
 21
-124.7500000386725
 31
0.0
  0
LINE
  8
OUTLINE
  6
CONTINUOUS
 62
     3
 10
-59.000000018290052
 20
-124.7500000386725
 30
0.0
 11
59.00000001829028
 21
-124.7500000386725
 31
0.0
  0
LINE
  8
OUTLINE
  6
CONTINUOUS
 62
     3
 10
61.0000000189101
 20
-124.7500000386725
 30
0.0
 11
198.00000006138029
 21
-124.7500000386725
 31
0.0
  0
LINE
  8
OUTLINE
  6
CONTINUOUS
 62
     3
 10
200.00000006200011
 20
-124.7500000386725
 30
0.0
 11
204.00000006324021
 21
-124.7500000386725
 31
0.0
  0
LINE
  8
OUTLINE
  6
CONTINUOUS
 62
     3
 10
206.00000006386011
 20
-124.7500000386725
 30
0.0
 11
207.00000006417019
 21
-124.7500000386725
 31
0.0
  0
LINE
  8
OUTLINE
  6
CONTINUOUS
 62
     3
 10
-204.0000000632399
 20
-122.75000003805251
 30
0.0
 11
-200.000000062
 21
-122.75000003805251
 31
0.0
  0
LINE
  8
OUTLINE
  6
CONTINUOUS
 62
     3
 10
-198.00000006138001
 20
-122.75000003805251
 30
0.0
 11
-61.000000018909873
 21
-122.75000003805251
 31
0.0
  0
LINE
  8
OUTLINE
  6
CONTINUOUS
 62
     3
 10
-59.000000018290052
 20
-122.75000003805251
 30
0.0
 11
59.00000001829028
 21
-122.75000003805251
 31
0.0
  0
LINE
  8
OUTLINE
  6
CONTINUOUS
 62
     3
 10
61.0000000189101
 20
-122.75000003805251
 30
0.0
 11
198.00000006138029
 21
-122.75000003805251
 31
0.0
  0
LINE
  8
OUTLINE
  6
CONTINUOUS
 62
     3
 10
200.00000006200011
 20
-122.75000003805251
 30
0.0
 11
204.00000006324021
 21
-122.75000003805251
 31
0.0
  0
LINE
  8
OUTLINE
  6
CONTINUOUS
 62
     3
 10
206.00000006386011
 20
-122.75000003805251
 30
0.0
 11
207.00000006417019
 21
-122.75000003805251
 31
0.0
  0
LINE
  8
OUTLINE
  6
CONTINUOUS
 62
     3
 10
-204.0000000632399
 20
-117.2500000363475
 30
0.0
 11
-200.000000062
 21
-117.2500000363475
 31
0.0
  0
LINE
  8
OUTLINE
  6
CONTINUOUS
 62
     3
 10
-198.00000006138001
 20
-117.2500000363475
 30
0.0
 11
-61.000000018909873
 21
-117.2500000363475
 31
0.0
  0
LINE
  8
OUTLINE
  6
CONTINUOUS
 62
     3
 10
-59.000000018290052
 20
-117.2500000363475
 30
0.0
 11
59.00000001829028
 21
-117.2500000363475
 31
0.0
  0
LINE
  8
OUTLINE
  6
CONTINUOUS
 62
     3
 10
61.0000000189101
 20
-117.2500000363475
 30
0.0
 11
198.00000006138029
 21
-117.2500000363475
 31
0.0
  0
LINE
  8
OUTLINE
  6
CONTINUOUS
 62
     3
 10
200.00000006200011
 20
-117.2500000363475
 30
0.0
 11
204.00000006324021
 21
-117.2500000363475
 31
0.0
  0
LINE
  8
OUTLINE
  6
CONTINUOUS
 62
     3
 10
206.00000006386011
 20
-117.2500000363475
 30
0.0
 11
207.00000006417019
 21
-117.2500000363475
 31
0.0
  0
LINE
  8
OUTLINE
  6
CONTINUOUS
 62
     3
 10
-204.0000000632399
 20
-115.2500000357275
 30
0.0
 11
-200.000000062
 21
-115.2500000357275
 31
0.0
  0
LINE
  8
OUTLINE
  6
CONTINUOUS
 62
     3
 10
-198.00000006138001
 20
-115.2500000357275
 30
0.0
 11
-61.000000018909873
 21
-115.2500000357275
 31
0.0
  0
LINE
  8
OUTLINE
  6
CONTINUOUS
 62
     3
 10
-59.000000018290052
 20
-115.2500000357275
 30
0.0
 11
59.00000001829028
 21
-115.2500000357275
 31
0.0
  0
LINE
  8
OUTLINE
  6
CONTINUOUS
 62
     3
 10
61.0000000189101
 20
-115.2500000357275
 30
0.0
 11
198.00000006138029
 21
-115.2500000357275
 31
0.0
  0
LINE
  8
OUTLINE
  6
CONTINUOUS
 62
     3
 10
200.00000006200011
 20
-115.2500000357275
 30
0.0
 11
204.00000006324021
 21
-115.2500000357275
 31
0.0
  0
LINE
  8
OUTLINE
  6
CONTINUOUS
 62
     3
 10
206.00000006386011
 20
-115.2500000357275
 30
0.0
 11
207.00000006417019
 21
-115.2500000357275
 31
0.0
  0
LINE
  8
OUTLINE
  6
CONTINUOUS
 62
     3
 10
-99.000000030689648
 20
92.750000028752538
 30
0.0
 11
-99.000000030689648
 21
87.250000027047463
 31
0.0
  0
LINE
  8
OUTLINE
  6
CONTINUOUS
 62
     3
 10
-99.000000030689648
 20
85.250000026427529
 30
0.0
 11
-99.000000030689648
 21
79.750000024722453
 31
0.0
  0
LINE
  8
OUTLINE
  6
CONTINUOUS
 62
     3
 10
-99.000000030689648
 20
77.750000024102519
 30
0.0
 11
-99.000000030689648
 21
75.50000002340505
 31
0.0
  0
LINE
  8
OUTLINE
  6
CONTINUOUS
 62
     3
 10
-99.000000030689648
 20
93.500000028985028
 30
0.0
 11
-99.000000030689648
 21
95.100000029480952
 31
0.0
  0
LINE
  8
OUTLINE
  6
CONTINUOUS
 62
     3
 10
-64.000000019839831
 20
90.500000028054956
 30
0.0
 11
-61.000000018909873
 21
93.500000028985028
 31
0.0
  0
LINE
  8
OUTLINE
  6
CONTINUOUS
 62
     3
 10
-64.000000019839831
 20
72.500000022474978
 30
0.0
 11
-61.000000018909873
 21
75.50000002340505
 31
0.0
  0
LINE
  8
OUTLINE
  6
CONTINUOUS
 62
     3
 10
-204.0000000632399
 20
-109.75000003402251
 30
0.0
 11
-200.000000062
 21
-109.75000003402251
 31
0.0
  0
LINE
  8
OUTLINE
  6
CONTINUOUS
 62
     3
 10
-198.00000006138001
 20
-109.75000003402251
 30
0.0
 11
-61.000000018909873
 21
-109.75000003402251
 31
0.0
  0
LINE
  8
OUTLINE
  6
CONTINUOUS
 62
     3
 10
-59.000000018290052
 20
-109.75000003402251
 30
0.0
 11
59.00000001829028
 21
-109.75000003402251
 31
0.0
  0
LINE
  8
OUTLINE
  6
CONTINUOUS
 62
     3
 10
61.0000000189101
 20
-109.75000003402251
 30
0.0
 11
198.00000006138029
 21
-109.75000003402251
 31
0.0
  0
LINE
  8
OUTLINE
  6
CONTINUOUS
 62
     3
 10
200.00000006200011
 20
-109.75000003402251
 30
0.0
 11
204.00000006324021
 21
-109.75000003402251
 31
0.0
  0
LINE
  8
OUTLINE
  6
CONTINUOUS
 62
     3
 10
206.00000006386011
 20
-109.75000003402251
 30
0.0
 11
207.00000006417019
 21
-109.75000003402251
 31
0.0
  0
LINE
  8
OUTLINE
  6
CONTINUOUS
 62
     3
 10
-204.0000000632399
 20
-107.7500000334025
 30
0.0
 11
-200.000000062
 21
-107.7500000334025
 31
0.0
  0
LINE
  8
OUTLINE
  6
CONTINUOUS
 62
     3
 10
-198.00000006138001
 20
-107.7500000334025
 30
0.0
 11
-61.000000018909873
 21
-107.7500000334025
 31
0.0
  0
LINE
  8
OUTLINE
  6
CONTINUOUS
 62
     3
 10
-59.000000018290052
 20
-107.7500000334025
 30
0.0
 11
59.00000001829028
 21
-107.7500000334025
 31
0.0
  0
LINE
  8
OUTLINE
  6
CONTINUOUS
 62
     3
 10
61.0000000189101
 20
-107.7500000334025
 30
0.0
 11
198.00000006138029
 21
-107.7500000334025
 31
0.0
  0
LINE
  8
OUTLINE
  6
CONTINUOUS
 62
     3
 10
200.00000006200011
 20
-107.7500000334025
 30
0.0
 11
204.00000006324021
 21
-107.7500000334025
 31
0.0
  0
LINE
  8
OUTLINE
  6
CONTINUOUS
 62
     3
 10
206.00000006386011
 20
-107.7500000334025
 30
0.0
 11
207.00000006417019
 21
-107.7500000334025
 31
0.0
  0
LINE
  8
OUTLINE
  6
CONTINUOUS
 62
     3
 10
-204.0000000632399
 20
-102.2500000316975
 30
0.0
 11
-200.000000062
 21
-102.2500000316975
 31
0.0
  0
LINE
  8
OUTLINE
  6
CONTINUOUS
 62
     3
 10
-198.00000006138001
 20
-102.2500000316975
 30
0.0
 11
-61.000000018909873
 21
-102.2500000316975
 31
0.0
  0
LINE
  8
OUTLINE
  6
CONTINUOUS
 62
     3
 10
-59.000000018290052
 20
-102.2500000316975
 30
0.0
 11
59.00000001829028
 21
-102.2500000316975
 31
0.0
  0
LINE
  8
OUTLINE
  6
CONTINUOUS
 62
     3
 10
61.0000000189101
 20
-102.2500000316975
 30
0.0
 11
198.00000006138029
 21
-102.2500000316975
 31
0.0
  0
LINE
  8
OUTLINE
  6
CONTINUOUS
 62
     3
 10
200.00000006200011
 20
-102.2500000316975
 30
0.0
 11
204.00000006324021
 21
-102.2500000316975
 31
0.0
  0
LINE
  8
OUTLINE
  6
CONTINUOUS
 62
     3
 10
206.00000006386011
 20
-102.2500000316975
 30
0.0
 11
207.00000006417019
 21
-102.2500000316975
 31
0.0
  0
LINE
  8
OUTLINE
  6
CONTINUOUS
 62
     3
 10
-204.0000000632399
 20
-100.25000003107751
 30
0.0
 11
-200.000000062
 21
-100.25000003107751
 31
0.0
  0
LINE
  8
OUTLINE
  6
CONTINUOUS
 62
     3
 10
-198.00000006138001
 20
-100.25000003107751
 30
0.0
 11
-61.000000018909873
 21
-100.25000003107751
 31
0.0
  0
LINE
  8
OUTLINE
  6
CONTINUOUS
 62
     3
 10
-59.000000018290052
 20
-100.25000003107751
 30
0.0
 11
59.00000001829028
 21
-100.25000003107751
 31
0.0
  0
LINE
  8
OUTLINE
  6
CONTINUOUS
 62
     3
 10
61.0000000189101
 20
-100.25000003107751
 30
0.0
 11
198.00000006138029
 21
-100.25000003107751
 31
0.0
  0
LINE
  8
OUTLINE
  6
CONTINUOUS
 62
     3
 10
200.00000006200011
 20
-100.25000003107751
 30
0.0
 11
204.00000006324021
 21
-100.25000003107751
 31
0.0
  0
LINE
  8
OUTLINE
  6
CONTINUOUS
 62
     3
 10
206.00000006386011
 20
-100.25000003107751
 30
0.0
 11
207.00000006417019
 21
-100.25000003107751
 31
0.0
  0
LINE
  8
OUTLINE
  6
CONTINUOUS
 62
     3
 10
-82.800000025668055
 20
82.500000025574991
 30
0.0
 11
-82.800000025668055
 21
80.000000024799988
 31
0.0
  0
LINE
  8
OUTLINE
  6
CONTINUOUS
 62
     3
 10
-77.200000023931921
 20
80.000000024799988
 30
0.0
 11
-77.200000023931921
 21
82.500000025574991
 31
0.0
  0
LINE
  8
OUTLINE
  6
CONTINUOUS
 62
     3
 10
-204.0000000632399
 20
-94.750000029372472
 30
0.0
 11
-200.000000062
 21
-94.750000029372472
 31
0.0
  0
LINE
  8
OUTLINE
  6
CONTINUOUS
 62
     3
 10
-198.00000006138001
 20
-94.750000029372472
 30
0.0
 11
-61.000000018909873
 21
-94.750000029372472
 31
0.0
  0
LINE
  8
OUTLINE
  6
CONTINUOUS
 62
     3
 10
-59.000000018290052
 20
-94.750000029372472
 30
0.0
 11
59.00000001829028
 21
-94.750000029372472
 31
0.0
  0
LINE
  8
OUTLINE
  6
CONTINUOUS
 62
     3
 10
61.0000000189101
 20
-94.750000029372472
 30
0.0
 11
198.00000006138029
 21
-94.750000029372472
 31
0.0
  0
LINE
  8
OUTLINE
  6
CONTINUOUS
 62
     3
 10
200.00000006200011
 20
-94.750000029372472
 30
0.0
 11
204.00000006324021
 21
-94.750000029372472
 31
0.0
  0
LINE
  8
OUTLINE
  6
CONTINUOUS
 62
     3
 10
206.00000006386011
 20
-94.750000029372472
 30
0.0
 11
207.00000006417019
 21
-94.750000029372472
 31
0.0
  0
LINE
  8
OUTLINE
  6
CONTINUOUS
 62
     3
 10
-204.0000000632399
 20
-92.750000028752538
 30
0.0
 11
-200.000000062
 21
-92.750000028752538
 31
0.0
  0
LINE
  8
OUTLINE
  6
CONTINUOUS
 62
     3
 10
-198.00000006138001
 20
-92.750000028752538
 30
0.0
 11
-61.000000018909873
 21
-92.750000028752538
 31
0.0
  0
LINE
  8
OUTLINE
  6
CONTINUOUS
 62
     3
 10
-59.000000018290052
 20
-92.750000028752538
 30
0.0
 11
59.00000001829028
 21
-92.750000028752538
 31
0.0
  0
LINE
  8
OUTLINE
  6
CONTINUOUS
 62
     3
 10
61.0000000189101
 20
-92.750000028752538
 30
0.0
 11
198.00000006138029
 21
-92.750000028752538
 31
0.0
  0
LINE
  8
OUTLINE
  6
CONTINUOUS
 62
     3
 10
200.00000006200011
 20
-92.750000028752538
 30
0.0
 11
204.00000006324021
 21
-92.750000028752538
 31
0.0
  0
LINE
  8
OUTLINE
  6
CONTINUOUS
 62
     3
 10
206.00000006386011
 20
-92.750000028752538
 30
0.0
 11
207.00000006417019
 21
-92.750000028752538
 31
0.0
  0
LINE
  8
OUTLINE
  6
CONTINUOUS
 62
     3
 10
-204.0000000632399
 20
-87.250000027047463
 30
0.0
 11
-200.000000062
 21
-87.250000027047463
 31
0.0
  0
LINE
  8
OUTLINE
  6
CONTINUOUS
 62
     3
 10
-198.00000006138001
 20
-87.250000027047463
 30
0.0
 11
-61.000000018909873
 21
-87.250000027047463
 31
0.0
  0
LINE
  8
OUTLINE
  6
CONTINUOUS
 62
     3
 10
-59.000000018290052
 20
-87.250000027047463
 30
0.0
 11
59.00000001829028
 21
-87.250000027047463
 31
0.0
  0
LINE
  8
OUTLINE
  6
CONTINUOUS
 62
     3
 10
61.0000000189101
 20
-87.250000027047463
 30
0.0
 11
198.00000006138029
 21
-87.250000027047463
 31
0.0
  0
LINE
  8
OUTLINE
  6
CONTINUOUS
 62
     3
 10
200.00000006200011
 20
-87.250000027047463
 30
0.0
 11
204.00000006324021
 21
-87.250000027047463
 31
0.0
  0
LINE
  8
OUTLINE
  6
CONTINUOUS
 62
     3
 10
206.00000006386011
 20
-87.250000027047463
 30
0.0
 11
207.00000006417019
 21
-87.250000027047463
 31
0.0
  0
LINE
  8
OUTLINE
  6
CONTINUOUS
 62
     3
 10
-204.0000000632399
 20
-85.250000026427529
 30
0.0
 11
-200.000000062
 21
-85.250000026427529
 31
0.0
  0
LINE
  8
OUTLINE
  6
CONTINUOUS
 62
     3
 10
-198.00000006138001
 20
-85.250000026427529
 30
0.0
 11
-61.000000018909873
 21
-85.250000026427529
 31
0.0
  0
LINE
  8
OUTLINE
  6
CONTINUOUS
 62
     3
 10
-59.000000018290052
 20
-85.250000026427529
 30
0.0
 11
59.00000001829028
 21
-85.250000026427529
 31
0.0
  0
LINE
  8
OUTLINE
  6
CONTINUOUS
 62
     3
 10
61.0000000189101
 20
-85.250000026427529
 30
0.0
 11
198.00000006138029
 21
-85.250000026427529
 31
0.0
  0
LINE
  8
OUTLINE
  6
CONTINUOUS
 62
     3
 10
200.00000006200011
 20
-85.250000026427529
 30
0.0
 11
204.00000006324021
 21
-85.250000026427529
 31
0.0
  0
LINE
  8
OUTLINE
  6
CONTINUOUS
 62
     3
 10
206.00000006386011
 20
-85.250000026427529
 30
0.0
 11
207.00000006417019
 21
-85.250000026427529
 31
0.0
  0
LINE
  8
OUTLINE
  6
CONTINUOUS
 62
     3
 10
-204.0000000632399
 20
-79.750000024722482
 30
0.0
 11
-200.000000062
 21
-79.750000024722482
 31
0.0
  0
LINE
  8
OUTLINE
  6
CONTINUOUS
 62
     3
 10
-198.00000006138001
 20
-79.750000024722482
 30
0.0
 11
-61.000000018909873
 21
-79.750000024722482
 31
0.0
  0
LINE
  8
OUTLINE
  6
CONTINUOUS
 62
     3
 10
-59.000000018290052
 20
-79.750000024722482
 30
0.0
 11
59.00000001829028
 21
-79.750000024722482
 31
0.0
  0
LINE
  8
OUTLINE
  6
CONTINUOUS
 62
     3
 10
61.0000000189101
 20
-79.750000024722482
 30
0.0
 11
198.00000006138029
 21
-79.750000024722482
 31
0.0
  0
LINE
  8
OUTLINE
  6
CONTINUOUS
 62
     3
 10
200.00000006200011
 20
-79.750000024722482
 30
0.0
 11
204.00000006324021
 21
-79.750000024722482
 31
0.0
  0
LINE
  8
OUTLINE
  6
CONTINUOUS
 62
     3
 10
206.00000006386011
 20
-79.750000024722482
 30
0.0
 11
207.00000006417019
 21
-79.750000024722482
 31
0.0
  0
LINE
  8
OUTLINE
  6
CONTINUOUS
 62
     3
 10
-204.0000000632399
 20
-77.750000024102491
 30
0.0
 11
-200.000000062
 21
-77.750000024102491
 31
0.0
  0
LINE
  8
OUTLINE
  6
CONTINUOUS
 62
     3
 10
-198.00000006138001
 20
-77.750000024102491
 30
0.0
 11
-61.000000018909873
 21
-77.750000024102491
 31
0.0
  0
LINE
  8
OUTLINE
  6
CONTINUOUS
 62
     3
 10
-59.000000018290052
 20
-77.750000024102491
 30
0.0
 11
59.00000001829028
 21
-77.750000024102491
 31
0.0
  0
LINE
  8
OUTLINE
  6
CONTINUOUS
 62
     3
 10
61.0000000189101
 20
-77.750000024102491
 30
0.0
 11
198.00000006138029
 21
-77.750000024102491
 31
0.0
  0
LINE
  8
OUTLINE
  6
CONTINUOUS
 62
     3
 10
200.00000006200011
 20
-77.750000024102491
 30
0.0
 11
204.00000006324021
 21
-77.750000024102491
 31
0.0
  0
LINE
  8
OUTLINE
  6
CONTINUOUS
 62
     3
 10
206.00000006386011
 20
-77.750000024102491
 30
0.0
 11
207.00000006417019
 21
-77.750000024102491
 31
0.0
  0
LINE
  8
OUTLINE
  6
CONTINUOUS
 62
     3
 10
-61.000000018909873
 20
203.25000006300749
 30
0.0
 11
-61.000000018909873
 21
95.100000029480952
 31
0.0
  0
LINE
  8
OUTLINE
  6
CONTINUOUS
 62
     3
 10
-61.000000018909873
 20
93.500000028985028
 30
0.0
 11
-61.000000018909873
 21
-203.25000006300749
 31
0.0
  0
LINE
  8
OUTLINE
  6
CONTINUOUS
 62
     3
 10
-61.000000018909873
 20
93.500000028985028
 30
0.0
 11
-61.000000018909873
 21
95.100000029480952
 31
0.0
  0
LINE
  8
OUTLINE
  6
CONTINUOUS
 62
     3
 10
-59.000000018290052
 20
203.25000006300749
 30
0.0
 11
-59.000000018290052
 21
-203.25000006300749
 31
0.0
  0
LINE
  8
OUTLINE
  6
CONTINUOUS
 62
     3
 10
-57.000000017669777
 20
206.25000006393751
 30
0.0
 11
-57.000000017669777
 21
204.25000006331749
 31
0.0
  0
LINE
  8
OUTLINE
  6
CONTINUOUS
 62
     3
 10
-57.000000017669777
 20
-206.25000006393751
 30
0.0
 11
-57.000000017669777
 21
-204.25000006331749
 31
0.0
  0
LINE
  8
OUTLINE
  6
CONTINUOUS
 62
     3
 10
-204.0000000632399
 20
-72.250000022397501
 30
0.0
 11
-200.000000062
 21
-72.250000022397501
 31
0.0
  0
LINE
  8
OUTLINE
  6
CONTINUOUS
 62
     3
 10
-198.00000006138001
 20
-72.250000022397501
 30
0.0
 11
-61.000000018909873
 21
-72.250000022397501
 31
0.0
  0
LINE
  8
OUTLINE
  6
CONTINUOUS
 62
     3
 10
-59.000000018290052
 20
-72.250000022397501
 30
0.0
 11
59.00000001829028
 21
-72.250000022397501
 31
0.0
  0
LINE
  8
OUTLINE
  6
CONTINUOUS
 62
     3
 10
61.0000000189101
 20
-72.250000022397501
 30
0.0
 11
198.00000006138029
 21
-72.250000022397501
 31
0.0
  0
LINE
  8
OUTLINE
  6
CONTINUOUS
 62
     3
 10
200.00000006200011
 20
-72.250000022397501
 30
0.0
 11
204.00000006324021
 21
-72.250000022397501
 31
0.0
  0
LINE
  8
OUTLINE
  6
CONTINUOUS
 62
     3
 10
206.00000006386011
 20
-72.250000022397501
 30
0.0
 11
207.00000006417019
 21
-72.250000022397501
 31
0.0
  0
LINE
  8
OUTLINE
  6
CONTINUOUS
 62
     3
 10
-204.0000000632399
 20
-70.250000021777481
 30
0.0
 11
-200.000000062
 21
-70.250000021777481
 31
0.0
  0
LINE
  8
OUTLINE
  6
CONTINUOUS
 62
     3
 10
-198.00000006138001
 20
-70.250000021777481
 30
0.0
 11
-61.000000018909873
 21
-70.250000021777481
 31
0.0
  0
LINE
  8
OUTLINE
  6
CONTINUOUS
 62
     3
 10
-59.000000018290052
 20
-70.250000021777481
 30
0.0
 11
59.00000001829028
 21
-70.250000021777481
 31
0.0
  0
LINE
  8
OUTLINE
  6
CONTINUOUS
 62
     3
 10
61.0000000189101
 20
-70.250000021777481
 30
0.0
 11
198.00000006138029
 21
-70.250000021777481
 31
0.0
  0
LINE
  8
OUTLINE
  6
CONTINUOUS
 62
     3
 10
200.00000006200011
 20
-70.250000021777481
 30
0.0
 11
204.00000006324021
 21
-70.250000021777481
 31
0.0
  0
LINE
  8
OUTLINE
  6
CONTINUOUS
 62
     3
 10
206.00000006386011
 20
-70.250000021777481
 30
0.0
 11
207.00000006417019
 21
-70.250000021777481
 31
0.0
  0
LINE
  8
OUTLINE
  6
CONTINUOUS
 62
     3
 10
-204.0000000632399
 20
-64.75000002007252
 30
0.0
 11
-200.000000062
 21
-64.75000002007252
 31
0.0
  0
LINE
  8
OUTLINE
  6
CONTINUOUS
 62
     3
 10
-198.00000006138001
 20
-64.75000002007252
 30
0.0
 11
-61.000000018909873
 21
-64.75000002007252
 31
0.0
  0
LINE
  8
OUTLINE
  6
CONTINUOUS
 62
     3
 10
-59.000000018290052
 20
-64.75000002007252
 30
0.0
 11
59.00000001829028
 21
-64.75000002007252
 31
0.0
  0
LINE
  8
OUTLINE
  6
CONTINUOUS
 62
     3
 10
61.0000000189101
 20
-64.75000002007252
 30
0.0
 11
198.00000006138029
 21
-64.75000002007252
 31
0.0
  0
LINE
  8
OUTLINE
  6
CONTINUOUS
 62
     3
 10
200.00000006200011
 20
-64.75000002007252
 30
0.0
 11
204.00000006324021
 21
-64.75000002007252
 31
0.0
  0
LINE
  8
OUTLINE
  6
CONTINUOUS
 62
     3
 10
206.00000006386011
 20
-64.75000002007252
 30
0.0
 11
207.00000006417019
 21
-64.75000002007252
 31
0.0
  0
LINE
  8
OUTLINE
  6
CONTINUOUS
 62
     3
 10
-204.0000000632399
 20
-62.7500000194525
 30
0.0
 11
-200.000000062
 21
-62.7500000194525
 31
0.0
  0
LINE
  8
OUTLINE
  6
CONTINUOUS
 62
     3
 10
-198.00000006138001
 20
-62.7500000194525
 30
0.0
 11
-61.000000018909873
 21
-62.7500000194525
 31
0.0
  0
LINE
  8
OUTLINE
  6
CONTINUOUS
 62
     3
 10
-59.000000018290052
 20
-62.7500000194525
 30
0.0
 11
59.00000001829028
 21
-62.7500000194525
 31
0.0
  0
LINE
  8
OUTLINE
  6
CONTINUOUS
 62
     3
 10
61.0000000189101
 20
-62.7500000194525
 30
0.0
 11
198.00000006138029
 21
-62.7500000194525
 31
0.0
  0
LINE
  8
OUTLINE
  6
CONTINUOUS
 62
     3
 10
200.00000006200011
 20
-62.7500000194525
 30
0.0
 11
204.00000006324021
 21
-62.7500000194525
 31
0.0
  0
LINE
  8
OUTLINE
  6
CONTINUOUS
 62
     3
 10
206.00000006386011
 20
-62.7500000194525
 30
0.0
 11
207.00000006417019
 21
-62.7500000194525
 31
0.0
  0
LINE
  8
OUTLINE
  6
CONTINUOUS
 62
     3
 10
-204.0000000632399
 20
-57.25000001774751
 30
0.0
 11
-200.000000062
 21
-57.25000001774751
 31
0.0
  0
LINE
  8
OUTLINE
  6
CONTINUOUS
 62
     3
 10
-198.00000006138001
 20
-57.25000001774751
 30
0.0
 11
-61.000000018909873
 21
-57.25000001774751
 31
0.0
  0
LINE
  8
OUTLINE
  6
CONTINUOUS
 62
     3
 10
-59.000000018290052
 20
-57.25000001774751
 30
0.0
 11
59.00000001829028
 21
-57.25000001774751
 31
0.0
  0
LINE
  8
OUTLINE
  6
CONTINUOUS
 62
     3
 10
61.0000000189101
 20
-57.25000001774751
 30
0.0
 11
198.00000006138029
 21
-57.25000001774751
 31
0.0
  0
LINE
  8
OUTLINE
  6
CONTINUOUS
 62
     3
 10
200.00000006200011
 20
-57.25000001774751
 30
0.0
 11
204.00000006324021
 21
-57.25000001774751
 31
0.0
  0
LINE
  8
OUTLINE
  6
CONTINUOUS
 62
     3
 10
206.00000006386011
 20
-57.25000001774751
 30
0.0
 11
207.00000006417019
 21
-57.25000001774751
 31
0.0
  0
LINE
  8
OUTLINE
  6
CONTINUOUS
 62
     3
 10
-204.0000000632399
 20
-55.250000017127519
 30
0.0
 11
-200.000000062
 21
-55.250000017127519
 31
0.0
  0
LINE
  8
OUTLINE
  6
CONTINUOUS
 62
     3
 10
-198.00000006138001
 20
-55.250000017127519
 30
0.0
 11
-61.000000018909873
 21
-55.250000017127519
 31
0.0
  0
LINE
  8
OUTLINE
  6
CONTINUOUS
 62
     3
 10
-59.000000018290052
 20
-55.250000017127519
 30
0.0
 11
59.00000001829028
 21
-55.250000017127519
 31
0.0
  0
LINE
  8
OUTLINE
  6
CONTINUOUS
 62
     3
 10
61.0000000189101
 20
-55.250000017127519
 30
0.0
 11
198.00000006138029
 21
-55.250000017127519
 31
0.0
  0
LINE
  8
OUTLINE
  6
CONTINUOUS
 62
     3
 10
200.00000006200011
 20
-55.250000017127519
 30
0.0
 11
204.00000006324021
 21
-55.250000017127519
 31
0.0
  0
LINE
  8
OUTLINE
  6
CONTINUOUS
 62
     3
 10
206.00000006386011
 20
-55.250000017127519
 30
0.0
 11
207.00000006417019
 21
-55.250000017127519
 31
0.0
  0
LINE
  8
OUTLINE
  6
CONTINUOUS
 62
     3
 10
-204.0000000632399
 20
-49.750000015422501
 30
0.0
 11
-200.000000062
 21
-49.750000015422501
 31
0.0
  0
LINE
  8
OUTLINE
  6
CONTINUOUS
 62
     3
 10
-198.00000006138001
 20
-49.750000015422501
 30
0.0
 11
-61.000000018909873
 21
-49.750000015422501
 31
0.0
  0
LINE
  8
OUTLINE
  6
CONTINUOUS
 62
     3
 10
-59.000000018290052
 20
-49.750000015422501
 30
0.0
 11
59.00000001829028
 21
-49.750000015422501
 31
0.0
  0
LINE
  8
OUTLINE
  6
CONTINUOUS
 62
     3
 10
61.0000000189101
 20
-49.750000015422501
 30
0.0
 11
198.00000006138029
 21
-49.750000015422501
 31
0.0
  0
LINE
  8
OUTLINE
  6
CONTINUOUS
 62
     3
 10
200.00000006200011
 20
-49.750000015422501
 30
0.0
 11
204.00000006324021
 21
-49.750000015422501
 31
0.0
  0
LINE
  8
OUTLINE
  6
CONTINUOUS
 62
     3
 10
206.00000006386011
 20
-49.750000015422501
 30
0.0
 11
207.00000006417019
 21
-49.750000015422501
 31
0.0
  0
LINE
  8
OUTLINE
  6
CONTINUOUS
 62
     3
 10
-204.0000000632399
 20
-47.750000014802509
 30
0.0
 11
-200.000000062
 21
-47.750000014802509
 31
0.0
  0
LINE
  8
OUTLINE
  6
CONTINUOUS
 62
     3
 10
-198.00000006138001
 20
-47.750000014802509
 30
0.0
 11
-61.000000018909873
 21
-47.750000014802509
 31
0.0
  0
LINE
  8
OUTLINE
  6
CONTINUOUS
 62
     3
 10
-59.000000018290052
 20
-47.750000014802509
 30
0.0
 11
59.00000001829028
 21
-47.750000014802509
 31
0.0
  0
LINE
  8
OUTLINE
  6
CONTINUOUS
 62
     3
 10
61.0000000189101
 20
-47.750000014802509
 30
0.0
 11
198.00000006138029
 21
-47.750000014802509
 31
0.0
  0
LINE
  8
OUTLINE
  6
CONTINUOUS
 62
     3
 10
200.00000006200011
 20
-47.750000014802509
 30
0.0
 11
204.00000006324021
 21
-47.750000014802509
 31
0.0
  0
LINE
  8
OUTLINE
  6
CONTINUOUS
 62
     3
 10
206.00000006386011
 20
-47.750000014802509
 30
0.0
 11
207.00000006417019
 21
-47.750000014802509
 31
0.0
  0
LINE
  8
OUTLINE
  6
CONTINUOUS
 62
     3
 10
-204.0000000632399
 20
-42.250000013097491
 30
0.0
 11
-200.000000062
 21
-42.250000013097491
 31
0.0
  0
LINE
  8
OUTLINE
  6
CONTINUOUS
 62
     3
 10
-198.00000006138001
 20
-42.250000013097491
 30
0.0
 11
-61.000000018909873
 21
-42.250000013097491
 31
0.0
  0
LINE
  8
OUTLINE
  6
CONTINUOUS
 62
     3
 10
-59.000000018290052
 20
-42.250000013097491
 30
0.0
 11
59.00000001829028
 21
-42.250000013097491
 31
0.0
  0
LINE
  8
OUTLINE
  6
CONTINUOUS
 62
     3
 10
61.0000000189101
 20
-42.250000013097491
 30
0.0
 11
198.00000006138029
 21
-42.250000013097491
 31
0.0
  0
LINE
  8
OUTLINE
  6
CONTINUOUS
 62
     3
 10
200.00000006200011
 20
-42.250000013097491
 30
0.0
 11
204.00000006324021
 21
-42.250000013097491
 31
0.0
  0
LINE
  8
OUTLINE
  6
CONTINUOUS
 62
     3
 10
206.00000006386011
 20
-42.250000013097491
 30
0.0
 11
207.00000006417019
 21
-42.250000013097491
 31
0.0
  0
LINE
  8
OUTLINE
  6
CONTINUOUS
 62
     3
 10
-204.0000000632399
 20
-40.2500000124775
 30
0.0
 11
-200.000000062
 21
-40.2500000124775
 31
0.0
  0
LINE
  8
OUTLINE
  6
CONTINUOUS
 62
     3
 10
-198.00000006138001
 20
-40.2500000124775
 30
0.0
 11
-61.000000018909873
 21
-40.2500000124775
 31
0.0
  0
LINE
  8
OUTLINE
  6
CONTINUOUS
 62
     3
 10
-59.000000018290052
 20
-40.2500000124775
 30
0.0
 11
59.00000001829028
 21
-40.2500000124775
 31
0.0
  0
LINE
  8
OUTLINE
  6
CONTINUOUS
 62
     3
 10
61.0000000189101
 20
-40.2500000124775
 30
0.0
 11
198.00000006138029
 21
-40.2500000124775
 31
0.0
  0
LINE
  8
OUTLINE
  6
CONTINUOUS
 62
     3
 10
200.00000006200011
 20
-40.2500000124775
 30
0.0
 11
204.00000006324021
 21
-40.2500000124775
 31
0.0
  0
LINE
  8
OUTLINE
  6
CONTINUOUS
 62
     3
 10
206.00000006386011
 20
-40.2500000124775
 30
0.0
 11
207.00000006417019
 21
-40.2500000124775
 31
0.0
  0
LINE
  8
OUTLINE
  6
CONTINUOUS
 62
     3
 10
-204.0000000632399
 20
-34.75000001077251
 30
0.0
 11
-200.000000062
 21
-34.75000001077251
 31
0.0
  0
LINE
  8
OUTLINE
  6
CONTINUOUS
 62
     3
 10
-198.00000006138001
 20
-34.75000001077251
 30
0.0
 11
-61.000000018909873
 21
-34.75000001077251
 31
0.0
  0
LINE
  8
OUTLINE
  6
CONTINUOUS
 62
     3
 10
-59.000000018290052
 20
-34.75000001077251
 30
0.0
 11
59.00000001829028
 21
-34.75000001077251
 31
0.0
  0
LINE
  8
OUTLINE
  6
CONTINUOUS
 62
     3
 10
61.0000000189101
 20
-34.75000001077251
 30
0.0
 11
198.00000006138029
 21
-34.75000001077251
 31
0.0
  0
LINE
  8
OUTLINE
  6
CONTINUOUS
 62
     3
 10
200.00000006200011
 20
-34.75000001077251
 30
0.0
 11
204.00000006324021
 21
-34.75000001077251
 31
0.0
  0
LINE
  8
OUTLINE
  6
CONTINUOUS
 62
     3
 10
206.00000006386011
 20
-34.75000001077251
 30
0.0
 11
207.00000006417019
 21
-34.75000001077251
 31
0.0
  0
LINE
  8
OUTLINE
  6
CONTINUOUS
 62
     3
 10
-204.0000000632399
 20
-32.75000001015249
 30
0.0
 11
-200.000000062
 21
-32.75000001015249
 31
0.0
  0
LINE
  8
OUTLINE
  6
CONTINUOUS
 62
     3
 10
-198.00000006138001
 20
-32.75000001015249
 30
0.0
 11
-61.000000018909873
 21
-32.75000001015249
 31
0.0
  0
LINE
  8
OUTLINE
  6
CONTINUOUS
 62
     3
 10
-59.000000018290052
 20
-32.75000001015249
 30
0.0
 11
59.00000001829028
 21
-32.75000001015249
 31
0.0
  0
LINE
  8
OUTLINE
  6
CONTINUOUS
 62
     3
 10
61.0000000189101
 20
-32.75000001015249
 30
0.0
 11
198.00000006138029
 21
-32.75000001015249
 31
0.0
  0
LINE
  8
OUTLINE
  6
CONTINUOUS
 62
     3
 10
200.00000006200011
 20
-32.75000001015249
 30
0.0
 11
204.00000006324021
 21
-32.75000001015249
 31
0.0
  0
LINE
  8
OUTLINE
  6
CONTINUOUS
 62
     3
 10
206.00000006386011
 20
-32.75000001015249
 30
0.0
 11
207.00000006417019
 21
-32.75000001015249
 31
0.0
  0
LINE
  8
OUTLINE
  6
CONTINUOUS
 62
     3
 10
-204.0000000632399
 20
-27.250000008447529
 30
0.0
 11
-200.000000062
 21
-27.250000008447529
 31
0.0
  0
LINE
  8
OUTLINE
  6
CONTINUOUS
 62
     3
 10
-198.00000006138001
 20
-27.250000008447529
 30
0.0
 11
-61.000000018909873
 21
-27.250000008447529
 31
0.0
  0
LINE
  8
OUTLINE
  6
CONTINUOUS
 62
     3
 10
-59.000000018290052
 20
-27.250000008447529
 30
0.0
 11
59.00000001829028
 21
-27.250000008447529
 31
0.0
  0
LINE
  8
OUTLINE
  6
CONTINUOUS
 62
     3
 10
61.0000000189101
 20
-27.250000008447529
 30
0.0
 11
198.00000006138029
 21
-27.250000008447529
 31
0.0
  0
LINE
  8
OUTLINE
  6
CONTINUOUS
 62
     3
 10
200.00000006200011
 20
-27.250000008447529
 30
0.0
 11
204.00000006324021
 21
-27.250000008447529
 31
0.0
  0
LINE
  8
OUTLINE
  6
CONTINUOUS
 62
     3
 10
206.00000006386011
 20
-27.250000008447529
 30
0.0
 11
207.00000006417019
 21
-27.250000008447529
 31
0.0
  0
LINE
  8
OUTLINE
  6
CONTINUOUS
 62
     3
 10
-204.0000000632399
 20
-25.250000007827509
 30
0.0
 11
-200.000000062
 21
-25.250000007827509
 31
0.0
  0
LINE
  8
OUTLINE
  6
CONTINUOUS
 62
     3
 10
-198.00000006138001
 20
-25.250000007827509
 30
0.0
 11
-61.000000018909873
 21
-25.250000007827509
 31
0.0
  0
LINE
  8
OUTLINE
  6
CONTINUOUS
 62
     3
 10
-59.000000018290052
 20
-25.250000007827509
 30
0.0
 11
59.00000001829028
 21
-25.250000007827509
 31
0.0
  0
LINE
  8
OUTLINE
  6
CONTINUOUS
 62
     3
 10
61.0000000189101
 20
-25.250000007827509
 30
0.0
 11
198.00000006138029
 21
-25.250000007827509
 31
0.0
  0
LINE
  8
OUTLINE
  6
CONTINUOUS
 62
     3
 10
200.00000006200011
 20
-25.250000007827509
 30
0.0
 11
204.00000006324021
 21
-25.250000007827509
 31
0.0
  0
LINE
  8
OUTLINE
  6
CONTINUOUS
 62
     3
 10
206.00000006386011
 20
-25.250000007827509
 30
0.0
 11
207.00000006417019
 21
-25.250000007827509
 31
0.0
  0
LINE
  8
OUTLINE
  6
CONTINUOUS
 62
     3
 10
-204.0000000632399
 20
-19.750000006122519
 30
0.0
 11
-200.000000062
 21
-19.750000006122519
 31
0.0
  0
LINE
  8
OUTLINE
  6
CONTINUOUS
 62
     3
 10
-198.00000006138001
 20
-19.750000006122519
 30
0.0
 11
-61.000000018909873
 21
-19.750000006122519
 31
0.0
  0
LINE
  8
OUTLINE
  6
CONTINUOUS
 62
     3
 10
-59.000000018290052
 20
-19.750000006122519
 30
0.0
 11
59.00000001829028
 21
-19.750000006122519
 31
0.0
  0
LINE
  8
OUTLINE
  6
CONTINUOUS
 62
     3
 10
61.0000000189101
 20
-19.750000006122519
 30
0.0
 11
198.00000006138029
 21
-19.750000006122519
 31
0.0
  0
LINE
  8
OUTLINE
  6
CONTINUOUS
 62
     3
 10
200.00000006200011
 20
-19.750000006122519
 30
0.0
 11
204.00000006324021
 21
-19.750000006122519
 31
0.0
  0
LINE
  8
OUTLINE
  6
CONTINUOUS
 62
     3
 10
206.00000006386011
 20
-19.750000006122519
 30
0.0
 11
207.00000006417019
 21
-19.750000006122519
 31
0.0
  0
LINE
  8
OUTLINE
  6
CONTINUOUS
 62
     3
 10
-204.0000000632399
 20
-17.750000005502532
 30
0.0
 11
-200.000000062
 21
-17.750000005502532
 31
0.0
  0
LINE
  8
OUTLINE
  6
CONTINUOUS
 62
     3
 10
-198.00000006138001
 20
-17.750000005502532
 30
0.0
 11
-61.000000018909873
 21
-17.750000005502532
 31
0.0
  0
LINE
  8
OUTLINE
  6
CONTINUOUS
 62
     3
 10
-59.000000018290052
 20
-17.750000005502532
 30
0.0
 11
59.00000001829028
 21
-17.750000005502532
 31
0.0
  0
LINE
  8
OUTLINE
  6
CONTINUOUS
 62
     3
 10
61.0000000189101
 20
-17.750000005502532
 30
0.0
 11
198.00000006138029
 21
-17.750000005502532
 31
0.0
  0
LINE
  8
OUTLINE
  6
CONTINUOUS
 62
     3
 10
200.00000006200011
 20
-17.750000005502532
 30
0.0
 11
204.00000006324021
 21
-17.750000005502532
 31
0.0
  0
LINE
  8
OUTLINE
  6
CONTINUOUS
 62
     3
 10
206.00000006386011
 20
-17.750000005502532
 30
0.0
 11
207.00000006417019
 21
-17.750000005502532
 31
0.0
  0
LINE
  8
OUTLINE
  6
CONTINUOUS
 62
     3
 10
-204.0000000632399
 20
-12.25000000379751
 30
0.0
 11
-200.000000062
 21
-12.25000000379751
 31
0.0
  0
LINE
  8
OUTLINE
  6
CONTINUOUS
 62
     3
 10
-198.00000006138001
 20
-12.25000000379751
 30
0.0
 11
-61.000000018909873
 21
-12.25000000379751
 31
0.0
  0
LINE
  8
OUTLINE
  6
CONTINUOUS
 62
     3
 10
-59.000000018290052
 20
-12.25000000379751
 30
0.0
 11
59.00000001829028
 21
-12.25000000379751
 31
0.0
  0
LINE
  8
OUTLINE
  6
CONTINUOUS
 62
     3
 10
61.0000000189101
 20
-12.25000000379751
 30
0.0
 11
198.00000006138029
 21
-12.25000000379751
 31
0.0
  0
LINE
  8
OUTLINE
  6
CONTINUOUS
 62
     3
 10
200.00000006200011
 20
-12.25000000379751
 30
0.0
 11
204.00000006324021
 21
-12.25000000379751
 31
0.0
  0
LINE
  8
OUTLINE
  6
CONTINUOUS
 62
     3
 10
206.00000006386011
 20
-12.25000000379751
 30
0.0
 11
207.00000006417019
 21
-12.25000000379751
 31
0.0
  0
LINE
  8
OUTLINE
  6
CONTINUOUS
 62
     3
 10
-204.0000000632399
 20
-10.25000000317752
 30
0.0
 11
-200.000000062
 21
-10.25000000317752
 31
0.0
  0
LINE
  8
OUTLINE
  6
CONTINUOUS
 62
     3
 10
-198.00000006138001
 20
-10.25000000317752
 30
0.0
 11
-61.000000018909873
 21
-10.25000000317752
 31
0.0
  0
LINE
  8
OUTLINE
  6
CONTINUOUS
 62
     3
 10
-59.000000018290052
 20
-10.25000000317752
 30
0.0
 11
59.00000001829028
 21
-10.25000000317752
 31
0.0
  0
LINE
  8
OUTLINE
  6
CONTINUOUS
 62
     3
 10
61.0000000189101
 20
-10.25000000317752
 30
0.0
 11
198.00000006138029
 21
-10.25000000317752
 31
0.0
  0
LINE
  8
OUTLINE
  6
CONTINUOUS
 62
     3
 10
200.00000006200011
 20
-10.25000000317752
 30
0.0
 11
204.00000006324021
 21
-10.25000000317752
 31
0.0
  0
LINE
  8
OUTLINE
  6
CONTINUOUS
 62
     3
 10
206.00000006386011
 20
-10.25000000317752
 30
0.0
 11
207.00000006417019
 21
-10.25000000317752
 31
0.0
  0
LINE
  8
OUTLINE
  6
CONTINUOUS
 62
     3
 10
-204.0000000632399
 20
-4.7500000014725003
 30
0.0
 11
-200.000000062
 21
-4.7500000014725003
 31
0.0
  0
LINE
  8
OUTLINE
  6
CONTINUOUS
 62
     3
 10
-198.00000006138001
 20
-4.7500000014725003
 30
0.0
 11
-61.000000018909873
 21
-4.7500000014725003
 31
0.0
  0
LINE
  8
OUTLINE
  6
CONTINUOUS
 62
     3
 10
-59.000000018290052
 20
-4.7500000014725003
 30
0.0
 11
59.00000001829028
 21
-4.7500000014725003
 31
0.0
  0
LINE
  8
OUTLINE
  6
CONTINUOUS
 62
     3
 10
61.0000000189101
 20
-4.7500000014725003
 30
0.0
 11
198.00000006138029
 21
-4.7500000014725003
 31
0.0
  0
LINE
  8
OUTLINE
  6
CONTINUOUS
 62
     3
 10
200.00000006200011
 20
-4.7500000014725003
 30
0.0
 11
204.00000006324021
 21
-4.7500000014725003
 31
0.0
  0
LINE
  8
OUTLINE
  6
CONTINUOUS
 62
     3
 10
206.00000006386011
 20
-4.7500000014725003
 30
0.0
 11
207.00000006417019
 21
-4.7500000014725003
 31
0.0
  0
LINE
  8
OUTLINE
  6
CONTINUOUS
 62
     3
 10
-204.0000000632399
 20
-2.7500000008525092
 30
0.0
 11
-200.000000062
 21
-2.7500000008525092
 31
0.0
  0
LINE
  8
OUTLINE
  6
CONTINUOUS
 62
     3
 10
-198.00000006138001
 20
-2.7500000008525092
 30
0.0
 11
-61.000000018909873
 21
-2.7500000008525092
 31
0.0
  0
LINE
  8
OUTLINE
  6
CONTINUOUS
 62
     3
 10
-59.000000018290052
 20
-2.7500000008525092
 30
0.0
 11
59.00000001829028
 21
-2.7500000008525092
 31
0.0
  0
LINE
  8
OUTLINE
  6
CONTINUOUS
 62
     3
 10
61.0000000189101
 20
-2.7500000008525092
 30
0.0
 11
198.00000006138029
 21
-2.7500000008525092
 31
0.0
  0
LINE
  8
OUTLINE
  6
CONTINUOUS
 62
     3
 10
200.00000006200011
 20
-2.7500000008525092
 30
0.0
 11
204.00000006324021
 21
-2.7500000008525092
 31
0.0
  0
LINE
  8
OUTLINE
  6
CONTINUOUS
 62
     3
 10
206.00000006386011
 20
-2.7500000008525092
 30
0.0
 11
207.00000006417019
 21
-2.7500000008525092
 31
0.0
  0
LINE
  8
OUTLINE
  6
CONTINUOUS
 62
     3
 10
-99.000000030689648
 20
75.50000002340505
 30
0.0
 11
-96.00000002975969
 21
72.500000022474978
 31
0.0
  0
LINE
  8
OUTLINE
  6
CONTINUOUS
 62
     3
 10
-99.000000030689648
 20
93.500000028985028
 30
0.0
 11
-96.00000002975969
 21
90.500000028054956
 31
0.0
  0
LINE
  8
OUTLINE
  6
CONTINUOUS
 62
     3
 10
96.000000029759917
 20
90.500000028054956
 30
0.0
 11
99.000000030689876
 21
93.500000028985028
 31
0.0
  0
LINE
  8
OUTLINE
  6
CONTINUOUS
 62
     3
 10
96.000000029759917
 20
72.500000022474978
 30
0.0
 11
99.000000030689876
 21
75.50000002340505
 31
0.0
  0
LINE
  8
OUTLINE
  6
CONTINUOUS
 62
     3
 10
-204.0000000632399
 20
2.7500000008524812
 30
0.0
 11
-200.000000062
 21
2.7500000008524812
 31
0.0
  0
LINE
  8
OUTLINE
  6
CONTINUOUS
 62
     3
 10
-198.00000006138001
 20
2.7500000008524812
 30
0.0
 11
-61.000000018909873
 21
2.7500000008524812
 31
0.0
  0
LINE
  8
OUTLINE
  6
CONTINUOUS
 62
     3
 10
-59.000000018290052
 20
2.7500000008524812
 30
0.0
 11
59.00000001829028
 21
2.7500000008524812
 31
0.0
  0
LINE
  8
OUTLINE
  6
CONTINUOUS
 62
     3
 10
61.0000000189101
 20
2.7500000008524812
 30
0.0
 11
198.00000006138029
 21
2.7500000008524812
 31
0.0
  0
LINE
  8
OUTLINE
  6
CONTINUOUS
 62
     3
 10
200.00000006200011
 20
2.7500000008524812
 30
0.0
 11
204.00000006324021
 21
2.7500000008524812
 31
0.0
  0
LINE
  8
OUTLINE
  6
CONTINUOUS
 62
     3
 10
206.00000006386011
 20
2.7500000008524812
 30
0.0
 11
207.00000006417019
 21
2.7500000008524812
 31
0.0
  0
LINE
  8
OUTLINE
  6
CONTINUOUS
 62
     3
 10
-204.0000000632399
 20
4.7500000014725003
 30
0.0
 11
-200.000000062
 21
4.7500000014725003
 31
0.0
  0
LINE
  8
OUTLINE
  6
CONTINUOUS
 62
     3
 10
-198.00000006138001
 20
4.7500000014725003
 30
0.0
 11
-61.000000018909873
 21
4.7500000014725003
 31
0.0
  0
LINE
  8
OUTLINE
  6
CONTINUOUS
 62
     3
 10
-59.000000018290052
 20
4.7500000014725003
 30
0.0
 11
59.00000001829028
 21
4.7500000014725003
 31
0.0
  0
LINE
  8
OUTLINE
  6
CONTINUOUS
 62
     3
 10
61.0000000189101
 20
4.7500000014725003
 30
0.0
 11
198.00000006138029
 21
4.7500000014725003
 31
0.0
  0
LINE
  8
OUTLINE
  6
CONTINUOUS
 62
     3
 10
200.00000006200011
 20
4.7500000014725003
 30
0.0
 11
204.00000006324021
 21
4.7500000014725003
 31
0.0
  0
LINE
  8
OUTLINE
  6
CONTINUOUS
 62
     3
 10
206.00000006386011
 20
4.7500000014725003
 30
0.0
 11
207.00000006417019
 21
4.7500000014725003
 31
0.0
  0
LINE
  8
OUTLINE
  6
CONTINUOUS
 62
     3
 10
-204.0000000632399
 20
10.25000000317749
 30
0.0
 11
-200.000000062
 21
10.25000000317749
 31
0.0
  0
LINE
  8
OUTLINE
  6
CONTINUOUS
 62
     3
 10
-198.00000006138001
 20
10.25000000317749
 30
0.0
 11
-61.000000018909873
 21
10.25000000317749
 31
0.0
  0
LINE
  8
OUTLINE
  6
CONTINUOUS
 62
     3
 10
-59.000000018290052
 20
10.25000000317749
 30
0.0
 11
59.00000001829028
 21
10.25000000317749
 31
0.0
  0
LINE
  8
OUTLINE
  6
CONTINUOUS
 62
     3
 10
61.0000000189101
 20
10.25000000317749
 30
0.0
 11
198.00000006138029
 21
10.25000000317749
 31
0.0
  0
LINE
  8
OUTLINE
  6
CONTINUOUS
 62
     3
 10
200.00000006200011
 20
10.25000000317749
 30
0.0
 11
204.00000006324021
 21
10.25000000317749
 31
0.0
  0
LINE
  8
OUTLINE
  6
CONTINUOUS
 62
     3
 10
206.00000006386011
 20
10.25000000317749
 30
0.0
 11
207.00000006417019
 21
10.25000000317749
 31
0.0
  0
LINE
  8
OUTLINE
  6
CONTINUOUS
 62
     3
 10
-204.0000000632399
 20
12.25000000379751
 30
0.0
 11
-200.000000062
 21
12.25000000379751
 31
0.0
  0
LINE
  8
OUTLINE
  6
CONTINUOUS
 62
     3
 10
-198.00000006138001
 20
12.25000000379751
 30
0.0
 11
-61.000000018909873
 21
12.25000000379751
 31
0.0
  0
LINE
  8
OUTLINE
  6
CONTINUOUS
 62
     3
 10
-59.000000018290052
 20
12.25000000379751
 30
0.0
 11
59.00000001829028
 21
12.25000000379751
 31
0.0
  0
LINE
  8
OUTLINE
  6
CONTINUOUS
 62
     3
 10
61.0000000189101
 20
12.25000000379751
 30
0.0
 11
198.00000006138029
 21
12.25000000379751
 31
0.0
  0
LINE
  8
OUTLINE
  6
CONTINUOUS
 62
     3
 10
200.00000006200011
 20
12.25000000379751
 30
0.0
 11
204.00000006324021
 21
12.25000000379751
 31
0.0
  0
LINE
  8
OUTLINE
  6
CONTINUOUS
 62
     3
 10
206.00000006386011
 20
12.25000000379751
 30
0.0
 11
207.00000006417019
 21
12.25000000379751
 31
0.0
  0
LINE
  8
OUTLINE
  6
CONTINUOUS
 62
     3
 10
-204.0000000632399
 20
17.7500000055025
 30
0.0
 11
-200.000000062
 21
17.7500000055025
 31
0.0
  0
LINE
  8
OUTLINE
  6
CONTINUOUS
 62
     3
 10
-198.00000006138001
 20
17.7500000055025
 30
0.0
 11
-61.000000018909873
 21
17.7500000055025
 31
0.0
  0
LINE
  8
OUTLINE
  6
CONTINUOUS
 62
     3
 10
-59.000000018290052
 20
17.7500000055025
 30
0.0
 11
59.00000001829028
 21
17.7500000055025
 31
0.0
  0
LINE
  8
OUTLINE
  6
CONTINUOUS
 62
     3
 10
61.0000000189101
 20
17.7500000055025
 30
0.0
 11
198.00000006138029
 21
17.7500000055025
 31
0.0
  0
LINE
  8
OUTLINE
  6
CONTINUOUS
 62
     3
 10
200.00000006200011
 20
17.7500000055025
 30
0.0
 11
204.00000006324021
 21
17.7500000055025
 31
0.0
  0
LINE
  8
OUTLINE
  6
CONTINUOUS
 62
     3
 10
206.00000006386011
 20
17.7500000055025
 30
0.0
 11
207.00000006417019
 21
17.7500000055025
 31
0.0
  0
LINE
  8
OUTLINE
  6
CONTINUOUS
 62
     3
 10
-204.0000000632399
 20
19.750000006122491
 30
0.0
 11
-200.000000062
 21
19.750000006122491
 31
0.0
  0
LINE
  8
OUTLINE
  6
CONTINUOUS
 62
     3
 10
-198.00000006138001
 20
19.750000006122491
 30
0.0
 11
-61.000000018909873
 21
19.750000006122491
 31
0.0
  0
LINE
  8
OUTLINE
  6
CONTINUOUS
 62
     3
 10
-59.000000018290052
 20
19.750000006122491
 30
0.0
 11
59.00000001829028
 21
19.750000006122491
 31
0.0
  0
LINE
  8
OUTLINE
  6
CONTINUOUS
 62
     3
 10
61.0000000189101
 20
19.750000006122491
 30
0.0
 11
198.00000006138029
 21
19.750000006122491
 31
0.0
  0
LINE
  8
OUTLINE
  6
CONTINUOUS
 62
     3
 10
200.00000006200011
 20
19.750000006122491
 30
0.0
 11
204.00000006324021
 21
19.750000006122491
 31
0.0
  0
LINE
  8
OUTLINE
  6
CONTINUOUS
 62
     3
 10
206.00000006386011
 20
19.750000006122491
 30
0.0
 11
207.00000006417019
 21
19.750000006122491
 31
0.0
  0
LINE
  8
OUTLINE
  6
CONTINUOUS
 62
     3
 10
-204.0000000632399
 20
25.250000007827481
 30
0.0
 11
-200.000000062
 21
25.250000007827481
 31
0.0
  0
LINE
  8
OUTLINE
  6
CONTINUOUS
 62
     3
 10
-198.00000006138001
 20
25.250000007827481
 30
0.0
 11
-61.000000018909873
 21
25.250000007827481
 31
0.0
  0
LINE
  8
OUTLINE
  6
CONTINUOUS
 62
     3
 10
-59.000000018290052
 20
25.250000007827481
 30
0.0
 11
59.00000001829028
 21
25.250000007827481
 31
0.0
  0
LINE
  8
OUTLINE
  6
CONTINUOUS
 62
     3
 10
61.0000000189101
 20
25.250000007827481
 30
0.0
 11
198.00000006138029
 21
25.250000007827481
 31
0.0
  0
LINE
  8
OUTLINE
  6
CONTINUOUS
 62
     3
 10
200.00000006200011
 20
25.250000007827481
 30
0.0
 11
204.00000006324021
 21
25.250000007827481
 31
0.0
  0
LINE
  8
OUTLINE
  6
CONTINUOUS
 62
     3
 10
206.00000006386011
 20
25.250000007827481
 30
0.0
 11
207.00000006417019
 21
25.250000007827481
 31
0.0
  0
LINE
  8
OUTLINE
  6
CONTINUOUS
 62
     3
 10
-204.0000000632399
 20
27.250000008447469
 30
0.0
 11
-200.000000062
 21
27.250000008447469
 31
0.0
  0
LINE
  8
OUTLINE
  6
CONTINUOUS
 62
     3
 10
-198.00000006138001
 20
27.250000008447469
 30
0.0
 11
-61.000000018909873
 21
27.250000008447469
 31
0.0
  0
LINE
  8
OUTLINE
  6
CONTINUOUS
 62
     3
 10
-59.000000018290052
 20
27.250000008447469
 30
0.0
 11
59.00000001829028
 21
27.250000008447469
 31
0.0
  0
LINE
  8
OUTLINE
  6
CONTINUOUS
 62
     3
 10
61.0000000189101
 20
27.250000008447469
 30
0.0
 11
198.00000006138029
 21
27.250000008447469
 31
0.0
  0
LINE
  8
OUTLINE
  6
CONTINUOUS
 62
     3
 10
200.00000006200011
 20
27.250000008447469
 30
0.0
 11
204.00000006324021
 21
27.250000008447469
 31
0.0
  0
LINE
  8
OUTLINE
  6
CONTINUOUS
 62
     3
 10
206.00000006386011
 20
27.250000008447469
 30
0.0
 11
207.00000006417019
 21
27.250000008447469
 31
0.0
  0
LINE
  8
OUTLINE
  6
CONTINUOUS
 62
     3
 10
-204.0000000632399
 20
32.75000001015249
 30
0.0
 11
-200.000000062
 21
32.75000001015249
 31
0.0
  0
LINE
  8
OUTLINE
  6
CONTINUOUS
 62
     3
 10
-198.00000006138001
 20
32.75000001015249
 30
0.0
 11
-61.000000018909873
 21
32.75000001015249
 31
0.0
  0
LINE
  8
OUTLINE
  6
CONTINUOUS
 62
     3
 10
-59.000000018290052
 20
32.75000001015249
 30
0.0
 11
59.00000001829028
 21
32.75000001015249
 31
0.0
  0
LINE
  8
OUTLINE
  6
CONTINUOUS
 62
     3
 10
61.0000000189101
 20
32.75000001015249
 30
0.0
 11
198.00000006138029
 21
32.75000001015249
 31
0.0
  0
LINE
  8
OUTLINE
  6
CONTINUOUS
 62
     3
 10
200.00000006200011
 20
32.75000001015249
 30
0.0
 11
204.00000006324021
 21
32.75000001015249
 31
0.0
  0
LINE
  8
OUTLINE
  6
CONTINUOUS
 62
     3
 10
206.00000006386011
 20
32.75000001015249
 30
0.0
 11
207.00000006417019
 21
32.75000001015249
 31
0.0
  0
LINE
  8
OUTLINE
  6
CONTINUOUS
 62
     3
 10
-204.0000000632399
 20
34.750000010772482
 30
0.0
 11
-200.000000062
 21
34.750000010772482
 31
0.0
  0
LINE
  8
OUTLINE
  6
CONTINUOUS
 62
     3
 10
-198.00000006138001
 20
34.750000010772482
 30
0.0
 11
-61.000000018909873
 21
34.750000010772482
 31
0.0
  0
LINE
  8
OUTLINE
  6
CONTINUOUS
 62
     3
 10
-59.000000018290052
 20
34.750000010772482
 30
0.0
 11
59.00000001829028
 21
34.750000010772482
 31
0.0
  0
LINE
  8
OUTLINE
  6
CONTINUOUS
 62
     3
 10
61.0000000189101
 20
34.750000010772482
 30
0.0
 11
198.00000006138029
 21
34.750000010772482
 31
0.0
  0
LINE
  8
OUTLINE
  6
CONTINUOUS
 62
     3
 10
200.00000006200011
 20
34.750000010772482
 30
0.0
 11
204.00000006324021
 21
34.750000010772482
 31
0.0
  0
LINE
  8
OUTLINE
  6
CONTINUOUS
 62
     3
 10
206.00000006386011
 20
34.750000010772482
 30
0.0
 11
207.00000006417019
 21
34.750000010772482
 31
0.0
  0
LINE
  8
OUTLINE
  6
CONTINUOUS
 62
     3
 10
-204.0000000632399
 20
40.2500000124775
 30
0.0
 11
-200.000000062
 21
40.2500000124775
 31
0.0
  0
LINE
  8
OUTLINE
  6
CONTINUOUS
 62
     3
 10
-198.00000006138001
 20
40.2500000124775
 30
0.0
 11
-61.000000018909873
 21
40.2500000124775
 31
0.0
  0
LINE
  8
OUTLINE
  6
CONTINUOUS
 62
     3
 10
-59.000000018290052
 20
40.2500000124775
 30
0.0
 11
59.00000001829028
 21
40.2500000124775
 31
0.0
  0
LINE
  8
OUTLINE
  6
CONTINUOUS
 62
     3
 10
61.0000000189101
 20
40.2500000124775
 30
0.0
 11
198.00000006138029
 21
40.2500000124775
 31
0.0
  0
LINE
  8
OUTLINE
  6
CONTINUOUS
 62
     3
 10
200.00000006200011
 20
40.2500000124775
 30
0.0
 11
204.00000006324021
 21
40.2500000124775
 31
0.0
  0
LINE
  8
OUTLINE
  6
CONTINUOUS
 62
     3
 10
206.00000006386011
 20
40.2500000124775
 30
0.0
 11
207.00000006417019
 21
40.2500000124775
 31
0.0
  0
LINE
  8
OUTLINE
  6
CONTINUOUS
 62
     3
 10
57.000000017669997
 20
206.25000006393751
 30
0.0
 11
57.000000017669997
 21
204.25000006331749
 31
0.0
  0
LINE
  8
OUTLINE
  6
CONTINUOUS
 62
     3
 10
57.000000017669997
 20
-206.25000006393751
 30
0.0
 11
57.000000017669997
 21
-204.25000006331749
 31
0.0
  0
LINE
  8
OUTLINE
  6
CONTINUOUS
 62
     3
 10
59.00000001829028
 20
203.25000006300749
 30
0.0
 11
59.00000001829028
 21
-203.25000006300749
 31
0.0
  0
LINE
  8
OUTLINE
  6
CONTINUOUS
 62
     3
 10
61.0000000189101
 20
203.25000006300749
 30
0.0
 11
61.0000000189101
 21
95.100000029480952
 31
0.0
  0
LINE
  8
OUTLINE
  6
CONTINUOUS
 62
     3
 10
61.0000000189101
 20
93.500000028985028
 30
0.0
 11
61.0000000189101
 21
-203.25000006300749
 31
0.0
  0
LINE
  8
OUTLINE
  6
CONTINUOUS
 62
     3
 10
61.0000000189101
 20
93.500000028985028
 30
0.0
 11
61.0000000189101
 21
95.100000029480952
 31
0.0
  0
LINE
  8
OUTLINE
  6
CONTINUOUS
 62
     3
 10
-204.0000000632399
 20
42.250000013097491
 30
0.0
 11
-200.000000062
 21
42.250000013097491
 31
0.0
  0
LINE
  8
OUTLINE
  6
CONTINUOUS
 62
     3
 10
-198.00000006138001
 20
42.250000013097491
 30
0.0
 11
-61.000000018909873
 21
42.250000013097491
 31
0.0
  0
LINE
  8
OUTLINE
  6
CONTINUOUS
 62
     3
 10
-59.000000018290052
 20
42.250000013097491
 30
0.0
 11
59.00000001829028
 21
42.250000013097491
 31
0.0
  0
LINE
  8
OUTLINE
  6
CONTINUOUS
 62
     3
 10
61.0000000189101
 20
42.250000013097491
 30
0.0
 11
198.00000006138029
 21
42.250000013097491
 31
0.0
  0
LINE
  8
OUTLINE
  6
CONTINUOUS
 62
     3
 10
200.00000006200011
 20
42.250000013097491
 30
0.0
 11
204.00000006324021
 21
42.250000013097491
 31
0.0
  0
LINE
  8
OUTLINE
  6
CONTINUOUS
 62
     3
 10
206.00000006386011
 20
42.250000013097491
 30
0.0
 11
207.00000006417019
 21
42.250000013097491
 31
0.0
  0
LINE
  8
OUTLINE
  6
CONTINUOUS
 62
     3
 10
-204.0000000632399
 20
47.750000014802509
 30
0.0
 11
-200.000000062
 21
47.750000014802509
 31
0.0
  0
LINE
  8
OUTLINE
  6
CONTINUOUS
 62
     3
 10
-198.00000006138001
 20
47.750000014802509
 30
0.0
 11
-61.000000018909873
 21
47.750000014802509
 31
0.0
  0
LINE
  8
OUTLINE
  6
CONTINUOUS
 62
     3
 10
-59.000000018290052
 20
47.750000014802509
 30
0.0
 11
59.00000001829028
 21
47.750000014802509
 31
0.0
  0
LINE
  8
OUTLINE
  6
CONTINUOUS
 62
     3
 10
61.0000000189101
 20
47.750000014802509
 30
0.0
 11
198.00000006138029
 21
47.750000014802509
 31
0.0
  0
LINE
  8
OUTLINE
  6
CONTINUOUS
 62
     3
 10
200.00000006200011
 20
47.750000014802509
 30
0.0
 11
204.00000006324021
 21
47.750000014802509
 31
0.0
  0
LINE
  8
OUTLINE
  6
CONTINUOUS
 62
     3
 10
206.00000006386011
 20
47.750000014802509
 30
0.0
 11
207.00000006417019
 21
47.750000014802509
 31
0.0
  0
LINE
  8
OUTLINE
  6
CONTINUOUS
 62
     3
 10
-204.0000000632399
 20
49.750000015422529
 30
0.0
 11
-200.000000062
 21
49.750000015422529
 31
0.0
  0
LINE
  8
OUTLINE
  6
CONTINUOUS
 62
     3
 10
-198.00000006138001
 20
49.750000015422529
 30
0.0
 11
-61.000000018909873
 21
49.750000015422529
 31
0.0
  0
LINE
  8
OUTLINE
  6
CONTINUOUS
 62
     3
 10
-59.000000018290052
 20
49.750000015422529
 30
0.0
 11
59.00000001829028
 21
49.750000015422529
 31
0.0
  0
LINE
  8
OUTLINE
  6
CONTINUOUS
 62
     3
 10
61.0000000189101
 20
49.750000015422529
 30
0.0
 11
198.00000006138029
 21
49.750000015422529
 31
0.0
  0
LINE
  8
OUTLINE
  6
CONTINUOUS
 62
     3
 10
200.00000006200011
 20
49.750000015422529
 30
0.0
 11
204.00000006324021
 21
49.750000015422529
 31
0.0
  0
LINE
  8
OUTLINE
  6
CONTINUOUS
 62
     3
 10
206.00000006386011
 20
49.750000015422529
 30
0.0
 11
207.00000006417019
 21
49.750000015422529
 31
0.0
  0
LINE
  8
OUTLINE
  6
CONTINUOUS
 62
     3
 10
-204.0000000632399
 20
55.250000017127491
 30
0.0
 11
-200.000000062
 21
55.250000017127491
 31
0.0
  0
LINE
  8
OUTLINE
  6
CONTINUOUS
 62
     3
 10
-198.00000006138001
 20
55.250000017127491
 30
0.0
 11
-61.000000018909873
 21
55.250000017127491
 31
0.0
  0
LINE
  8
OUTLINE
  6
CONTINUOUS
 62
     3
 10
-59.000000018290052
 20
55.250000017127491
 30
0.0
 11
59.00000001829028
 21
55.250000017127491
 31
0.0
  0
LINE
  8
OUTLINE
  6
CONTINUOUS
 62
     3
 10
61.0000000189101
 20
55.250000017127491
 30
0.0
 11
198.00000006138029
 21
55.250000017127491
 31
0.0
  0
LINE
  8
OUTLINE
  6
CONTINUOUS
 62
     3
 10
200.00000006200011
 20
55.250000017127491
 30
0.0
 11
204.00000006324021
 21
55.250000017127491
 31
0.0
  0
LINE
  8
OUTLINE
  6
CONTINUOUS
 62
     3
 10
206.00000006386011
 20
55.250000017127491
 30
0.0
 11
207.00000006417019
 21
55.250000017127491
 31
0.0
  0
LINE
  8
OUTLINE
  6
CONTINUOUS
 62
     3
 10
-204.0000000632399
 20
57.250000017747539
 30
0.0
 11
-200.000000062
 21
57.250000017747539
 31
0.0
  0
LINE
  8
OUTLINE
  6
CONTINUOUS
 62
     3
 10
-198.00000006138001
 20
57.250000017747539
 30
0.0
 11
-61.000000018909873
 21
57.250000017747539
 31
0.0
  0
LINE
  8
OUTLINE
  6
CONTINUOUS
 62
     3
 10
-59.000000018290052
 20
57.250000017747539
 30
0.0
 11
59.00000001829028
 21
57.250000017747539
 31
0.0
  0
LINE
  8
OUTLINE
  6
CONTINUOUS
 62
     3
 10
61.0000000189101
 20
57.250000017747539
 30
0.0
 11
198.00000006138029
 21
57.250000017747539
 31
0.0
  0
LINE
  8
OUTLINE
  6
CONTINUOUS
 62
     3
 10
200.00000006200011
 20
57.250000017747539
 30
0.0
 11
204.00000006324021
 21
57.250000017747539
 31
0.0
  0
LINE
  8
OUTLINE
  6
CONTINUOUS
 62
     3
 10
206.00000006386011
 20
57.250000017747539
 30
0.0
 11
207.00000006417019
 21
57.250000017747539
 31
0.0
  0
LINE
  8
OUTLINE
  6
CONTINUOUS
 62
     3
 10
77.200000023932148
 20
82.500000025574991
 30
0.0
 11
77.200000023932148
 21
80.000000024799988
 31
0.0
  0
LINE
  8
OUTLINE
  6
CONTINUOUS
 62
     3
 10
-204.0000000632399
 20
62.7500000194525
 30
0.0
 11
-200.000000062
 21
62.7500000194525
 31
0.0
  0
LINE
  8
OUTLINE
  6
CONTINUOUS
 62
     3
 10
-198.00000006138001
 20
62.7500000194525
 30
0.0
 11
-61.000000018909873
 21
62.7500000194525
 31
0.0
  0
LINE
  8
OUTLINE
  6
CONTINUOUS
 62
     3
 10
-59.000000018290052
 20
62.7500000194525
 30
0.0
 11
59.00000001829028
 21
62.7500000194525
 31
0.0
  0
LINE
  8
OUTLINE
  6
CONTINUOUS
 62
     3
 10
61.0000000189101
 20
62.7500000194525
 30
0.0
 11
198.00000006138029
 21
62.7500000194525
 31
0.0
  0
LINE
  8
OUTLINE
  6
CONTINUOUS
 62
     3
 10
200.00000006200011
 20
62.7500000194525
 30
0.0
 11
204.00000006324021
 21
62.7500000194525
 31
0.0
  0
LINE
  8
OUTLINE
  6
CONTINUOUS
 62
     3
 10
206.00000006386011
 20
62.7500000194525
 30
0.0
 11
207.00000006417019
 21
62.7500000194525
 31
0.0
  0
LINE
  8
OUTLINE
  6
CONTINUOUS
 62
     3
 10
-204.0000000632399
 20
64.750000020072434
 30
0.0
 11
-200.000000062
 21
64.750000020072434
 31
0.0
  0
LINE
  8
OUTLINE
  6
CONTINUOUS
 62
     3
 10
-198.00000006138001
 20
64.750000020072434
 30
0.0
 11
-61.000000018909873
 21
64.750000020072434
 31
0.0
  0
LINE
  8
OUTLINE
  6
CONTINUOUS
 62
     3
 10
-59.000000018290052
 20
64.750000020072434
 30
0.0
 11
59.00000001829028
 21
64.750000020072434
 31
0.0
  0
LINE
  8
OUTLINE
  6
CONTINUOUS
 62
     3
 10
61.0000000189101
 20
64.750000020072434
 30
0.0
 11
198.00000006138029
 21
64.750000020072434
 31
0.0
  0
LINE
  8
OUTLINE
  6
CONTINUOUS
 62
     3
 10
200.00000006200011
 20
64.750000020072434
 30
0.0
 11
204.00000006324021
 21
64.750000020072434
 31
0.0
  0
LINE
  8
OUTLINE
  6
CONTINUOUS
 62
     3
 10
206.00000006386011
 20
64.750000020072434
 30
0.0
 11
207.00000006417019
 21
64.750000020072434
 31
0.0
  0
LINE
  8
OUTLINE
  6
CONTINUOUS
 62
     3
 10
-204.0000000632399
 20
70.25000002177751
 30
0.0
 11
-200.000000062
 21
70.25000002177751
 31
0.0
  0
LINE
  8
OUTLINE
  6
CONTINUOUS
 62
     3
 10
-198.00000006138001
 20
70.25000002177751
 30
0.0
 11
-61.000000018909873
 21
70.25000002177751
 31
0.0
  0
LINE
  8
OUTLINE
  6
CONTINUOUS
 62
     3
 10
-59.000000018290052
 20
70.25000002177751
 30
0.0
 11
59.00000001829028
 21
70.25000002177751
 31
0.0
  0
LINE
  8
OUTLINE
  6
CONTINUOUS
 62
     3
 10
61.0000000189101
 20
70.25000002177751
 30
0.0
 11
198.00000006138029
 21
70.25000002177751
 31
0.0
  0
LINE
  8
OUTLINE
  6
CONTINUOUS
 62
     3
 10
200.00000006200011
 20
70.25000002177751
 30
0.0
 11
204.00000006324021
 21
70.25000002177751
 31
0.0
  0
LINE
  8
OUTLINE
  6
CONTINUOUS
 62
     3
 10
206.00000006386011
 20
70.25000002177751
 30
0.0
 11
207.00000006417019
 21
70.25000002177751
 31
0.0
  0
LINE
  8
OUTLINE
  6
CONTINUOUS
 62
     3
 10
-204.0000000632399
 20
72.250000022397558
 30
0.0
 11
-200.000000062
 21
72.250000022397558
 31
0.0
  0
LINE
  8
OUTLINE
  6
CONTINUOUS
 62
     3
 10
-198.00000006138001
 20
72.250000022397558
 30
0.0
 11
-61.000000018909873
 21
72.250000022397558
 31
0.0
  0
LINE
  8
OUTLINE
  6
CONTINUOUS
 62
     3
 10
-59.000000018290052
 20
72.250000022397558
 30
0.0
 11
59.00000001829028
 21
72.250000022397558
 31
0.0
  0
LINE
  8
OUTLINE
  6
CONTINUOUS
 62
     3
 10
61.0000000189101
 20
72.250000022397558
 30
0.0
 11
198.00000006138029
 21
72.250000022397558
 31
0.0
  0
LINE
  8
OUTLINE
  6
CONTINUOUS
 62
     3
 10
200.00000006200011
 20
72.250000022397558
 30
0.0
 11
204.00000006324021
 21
72.250000022397558
 31
0.0
  0
LINE
  8
OUTLINE
  6
CONTINUOUS
 62
     3
 10
206.00000006386011
 20
72.250000022397558
 30
0.0
 11
207.00000006417019
 21
72.250000022397558
 31
0.0
  0
LINE
  8
OUTLINE
  6
CONTINUOUS
 62
     3
 10
-96.00000002975969
 20
72.500000022474978
 30
0.0
 11
-64.000000019839831
 21
72.500000022474978
 31
0.0
  0
LINE
  8
OUTLINE
  6
CONTINUOUS
 62
     3
 10
64.000000019840058
 20
72.500000022474978
 30
0.0
 11
96.000000029759917
 21
72.500000022474978
 31
0.0
  0
LINE
  8
OUTLINE
  6
CONTINUOUS
 62
     3
 10
-204.0000000632399
 20
77.750000024102519
 30
0.0
 11
-200.000000062
 21
77.750000024102519
 31
0.0
  0
LINE
  8
OUTLINE
  6
CONTINUOUS
 62
     3
 10
-198.00000006138001
 20
77.750000024102519
 30
0.0
 11
-61.000000018909873
 21
77.750000024102519
 31
0.0
  0
LINE
  8
OUTLINE
  6
CONTINUOUS
 62
     3
 10
-59.000000018290052
 20
77.750000024102519
 30
0.0
 11
59.00000001829028
 21
77.750000024102519
 31
0.0
  0
LINE
  8
OUTLINE
  6
CONTINUOUS
 62
     3
 10
61.0000000189101
 20
77.750000024102519
 30
0.0
 11
198.00000006138029
 21
77.750000024102519
 31
0.0
  0
LINE
  8
OUTLINE
  6
CONTINUOUS
 62
     3
 10
200.00000006200011
 20
77.750000024102519
 30
0.0
 11
204.00000006324021
 21
77.750000024102519
 31
0.0
  0
LINE
  8
OUTLINE
  6
CONTINUOUS
 62
     3
 10
206.00000006386011
 20
77.750000024102519
 30
0.0
 11
207.00000006417019
 21
77.750000024102519
 31
0.0
  0
LINE
  8
OUTLINE
  6
CONTINUOUS
 62
     3
 10
-204.0000000632399
 20
79.750000024722453
 30
0.0
 11
-200.000000062
 21
79.750000024722453
 31
0.0
  0
LINE
  8
OUTLINE
  6
CONTINUOUS
 62
     3
 10
-198.00000006138001
 20
79.750000024722453
 30
0.0
 11
-61.000000018909873
 21
79.750000024722453
 31
0.0
  0
LINE
  8
OUTLINE
  6
CONTINUOUS
 62
     3
 10
-59.000000018290052
 20
79.750000024722453
 30
0.0
 11
59.00000001829028
 21
79.750000024722453
 31
0.0
  0
LINE
  8
OUTLINE
  6
CONTINUOUS
 62
     3
 10
61.0000000189101
 20
79.750000024722453
 30
0.0
 11
198.00000006138029
 21
79.750000024722453
 31
0.0
  0
LINE
  8
OUTLINE
  6
CONTINUOUS
 62
     3
 10
200.00000006200011
 20
79.750000024722453
 30
0.0
 11
204.00000006324021
 21
79.750000024722453
 31
0.0
  0
LINE
  8
OUTLINE
  6
CONTINUOUS
 62
     3
 10
206.00000006386011
 20
79.750000024722453
 30
0.0
 11
207.00000006417019
 21
79.750000024722453
 31
0.0
  0
LINE
  8
OUTLINE
  6
CONTINUOUS
 62
     3
 10
82.800000025668282
 20
80.000000024799988
 30
0.0
 11
82.800000025668282
 21
82.500000025574991
 31
0.0
  0
LINE
  8
OUTLINE
  6
CONTINUOUS
 62
     3
 10
99.000000030689876
 20
75.50000002340505
 30
0.0
 11
99.000000030689876
 21
77.750000024102519
 31
0.0
  0
LINE
  8
OUTLINE
  6
CONTINUOUS
 62
     3
 10
99.000000030689876
 20
79.750000024722453
 30
0.0
 11
99.000000030689876
 21
85.250000026427529
 31
0.0
  0
LINE
  8
OUTLINE
  6
CONTINUOUS
 62
     3
 10
99.000000030689876
 20
87.250000027047463
 30
0.0
 11
99.000000030689876
 21
92.750000028752538
 31
0.0
  0
LINE
  8
OUTLINE
  6
CONTINUOUS
 62
     3
 10
99.000000030689876
 20
93.500000028985028
 30
0.0
 11
99.000000030689876
 21
95.100000029480952
 31
0.0
  0
LINE
  8
OUTLINE
  6
CONTINUOUS
 62
     3
 10
-204.0000000632399
 20
85.250000026427529
 30
0.0
 11
-200.000000062
 21
85.250000026427529
 31
0.0
  0
LINE
  8
OUTLINE
  6
CONTINUOUS
 62
     3
 10
-198.00000006138001
 20
85.250000026427529
 30
0.0
 11
-61.000000018909873
 21
85.250000026427529
 31
0.0
  0
LINE
  8
OUTLINE
  6
CONTINUOUS
 62
     3
 10
-59.000000018290052
 20
85.250000026427529
 30
0.0
 11
59.00000001829028
 21
85.250000026427529
 31
0.0
  0
LINE
  8
OUTLINE
  6
CONTINUOUS
 62
     3
 10
61.0000000189101
 20
85.250000026427529
 30
0.0
 11
198.00000006138029
 21
85.250000026427529
 31
0.0
  0
LINE
  8
OUTLINE
  6
CONTINUOUS
 62
     3
 10
200.00000006200011
 20
85.250000026427529
 30
0.0
 11
204.00000006324021
 21
85.250000026427529
 31
0.0
  0
LINE
  8
OUTLINE
  6
CONTINUOUS
 62
     3
 10
206.00000006386011
 20
85.250000026427529
 30
0.0
 11
207.00000006417019
 21
85.250000026427529
 31
0.0
  0
LINE
  8
OUTLINE
  6
CONTINUOUS
 62
     3
 10
-204.0000000632399
 20
87.250000027047463
 30
0.0
 11
-200.000000062
 21
87.250000027047463
 31
0.0
  0
LINE
  8
OUTLINE
  6
CONTINUOUS
 62
     3
 10
-198.00000006138001
 20
87.250000027047463
 30
0.0
 11
-61.000000018909873
 21
87.250000027047463
 31
0.0
  0
LINE
  8
OUTLINE
  6
CONTINUOUS
 62
     3
 10
-59.000000018290052
 20
87.250000027047463
 30
0.0
 11
59.00000001829028
 21
87.250000027047463
 31
0.0
  0
LINE
  8
OUTLINE
  6
CONTINUOUS
 62
     3
 10
61.0000000189101
 20
87.250000027047463
 30
0.0
 11
198.00000006138029
 21
87.250000027047463
 31
0.0
  0
LINE
  8
OUTLINE
  6
CONTINUOUS
 62
     3
 10
200.00000006200011
 20
87.250000027047463
 30
0.0
 11
204.00000006324021
 21
87.250000027047463
 31
0.0
  0
LINE
  8
OUTLINE
  6
CONTINUOUS
 62
     3
 10
206.00000006386011
 20
87.250000027047463
 30
0.0
 11
207.00000006417019
 21
87.250000027047463
 31
0.0
  0
LINE
  8
OUTLINE
  6
CONTINUOUS
 62
     3
 10
96.000000029759917
 20
90.500000028054956
 30
0.0
 11
64.000000019840058
 21
90.500000028054956
 31
0.0
  0
LINE
  8
OUTLINE
  6
CONTINUOUS
 62
     3
 10
-64.000000019839831
 20
90.500000028054956
 30
0.0
 11
-96.00000002975969
 21
90.500000028054956
 31
0.0
  0
LINE
  8
OUTLINE
  6
CONTINUOUS
 62
     3
 10
-204.0000000632399
 20
92.750000028752538
 30
0.0
 11
-200.000000062
 21
92.750000028752538
 31
0.0
  0
LINE
  8
OUTLINE
  6
CONTINUOUS
 62
     3
 10
-198.00000006138001
 20
92.750000028752538
 30
0.0
 11
-98.250000030457272
 21
92.750000028752538
 31
0.0
  0
LINE
  8
OUTLINE
  6
CONTINUOUS
 62
     3
 10
-61.750000019142249
 20
92.750000028752538
 30
0.0
 11
-61.000000018909873
 21
92.750000028752538
 31
0.0
  0
LINE
  8
OUTLINE
  6
CONTINUOUS
 62
     3
 10
-59.000000018290052
 20
92.750000028752538
 30
0.0
 11
59.00000001829028
 21
92.750000028752538
 31
0.0
  0
LINE
  8
OUTLINE
  6
CONTINUOUS
 62
     3
 10
61.0000000189101
 20
92.750000028752538
 30
0.0
 11
61.750000019142483
 21
92.750000028752538
 31
0.0
  0
LINE
  8
OUTLINE
  6
CONTINUOUS
 62
     3
 10
98.2500000304575
 20
92.750000028752538
 30
0.0
 11
198.00000006138029
 21
92.750000028752538
 31
0.0
  0
LINE
  8
OUTLINE
  6
CONTINUOUS
 62
     3
 10
200.00000006200011
 20
92.750000028752538
 30
0.0
 11
204.00000006324021
 21
92.750000028752538
 31
0.0
  0
LINE
  8
OUTLINE
  6
CONTINUOUS
 62
     3
 10
206.00000006386011
 20
92.750000028752538
 30
0.0
 11
207.00000006417019
 21
92.750000028752538
 31
0.0
  0
LINE
  8
OUTLINE
  6
CONTINUOUS
 62
     3
 10
-204.0000000632399
 20
94.750000029372472
 30
0.0
 11
-200.000000062
 21
94.750000029372472
 31
0.0
  0
LINE
  8
OUTLINE
  6
CONTINUOUS
 62
     3
 10
-198.00000006138001
 20
94.750000029372472
 30
0.0
 11
-99.000000030689648
 21
94.750000029372472
 31
0.0
  0
LINE
  8
OUTLINE
  6
CONTINUOUS
 62
     3
 10
-59.000000018290052
 20
94.750000029372472
 30
0.0
 11
59.00000001829028
 21
94.750000029372472
 31
0.0
  0
LINE
  8
OUTLINE
  6
CONTINUOUS
 62
     3
 10
99.000000030689876
 20
94.750000029372472
 30
0.0
 11
198.00000006138029
 21
94.750000029372472
 31
0.0
  0
LINE
  8
OUTLINE
  6
CONTINUOUS
 62
     3
 10
200.00000006200011
 20
94.750000029372472
 30
0.0
 11
204.00000006324021
 21
94.750000029372472
 31
0.0
  0
LINE
  8
OUTLINE
  6
CONTINUOUS
 62
     3
 10
206.00000006386011
 20
94.750000029372472
 30
0.0
 11
207.00000006417019
 21
94.750000029372472
 31
0.0
  0
LINE
  8
OUTLINE
  6
CONTINUOUS
 62
     3
 10
99.000000030689876
 20
95.100000029480952
 30
0.0
 11
61.0000000189101
 21
95.100000029480952
 31
0.0
  0
LINE
  8
OUTLINE
  6
CONTINUOUS
 62
     3
 10
-61.000000018909873
 20
95.100000029480952
 30
0.0
 11
-99.000000030689648
 21
95.100000029480952
 31
0.0
  0
LINE
  8
OUTLINE
  6
CONTINUOUS
 62
     3
 10
-204.0000000632399
 20
100.25000003107741
 30
0.0
 11
-200.000000062
 21
100.25000003107741
 31
0.0
  0
LINE
  8
OUTLINE
  6
CONTINUOUS
 62
     3
 10
-198.00000006138001
 20
100.25000003107741
 30
0.0
 11
-61.000000018909873
 21
100.25000003107741
 31
0.0
  0
LINE
  8
OUTLINE
  6
CONTINUOUS
 62
     3
 10
-59.000000018290052
 20
100.25000003107741
 30
0.0
 11
59.00000001829028
 21
100.25000003107741
 31
0.0
  0
LINE
  8
OUTLINE
  6
CONTINUOUS
 62
     3
 10
61.0000000189101
 20
100.25000003107741
 30
0.0
 11
198.00000006138029
 21
100.25000003107741
 31
0.0
  0
LINE
  8
OUTLINE
  6
CONTINUOUS
 62
     3
 10
200.00000006200011
 20
100.25000003107741
 30
0.0
 11
204.00000006324021
 21
100.25000003107741
 31
0.0
  0
LINE
  8
OUTLINE
  6
CONTINUOUS
 62
     3
 10
206.00000006386011
 20
100.25000003107741
 30
0.0
 11
207.00000006417019
 21
100.25000003107741
 31
0.0
  0
LINE
  8
OUTLINE
  6
CONTINUOUS
 62
     3
 10
61.0000000189101
 20
75.50000002340505
 30
0.0
 11
64.000000019840058
 21
72.500000022474978
 31
0.0
  0
LINE
  8
OUTLINE
  6
CONTINUOUS
 62
     3
 10
-204.0000000632399
 20
102.2500000316975
 30
0.0
 11
-200.000000062
 21
102.2500000316975
 31
0.0
  0
LINE
  8
OUTLINE
  6
CONTINUOUS
 62
     3
 10
-198.00000006138001
 20
102.2500000316975
 30
0.0
 11
-61.000000018909873
 21
102.2500000316975
 31
0.0
  0
LINE
  8
OUTLINE
  6
CONTINUOUS
 62
     3
 10
-59.000000018290052
 20
102.2500000316975
 30
0.0
 11
59.00000001829028
 21
102.2500000316975
 31
0.0
  0
LINE
  8
OUTLINE
  6
CONTINUOUS
 62
     3
 10
61.0000000189101
 20
102.2500000316975
 30
0.0
 11
198.00000006138029
 21
102.2500000316975
 31
0.0
  0
LINE
  8
OUTLINE
  6
CONTINUOUS
 62
     3
 10
200.00000006200011
 20
102.2500000316975
 30
0.0
 11
204.00000006324021
 21
102.2500000316975
 31
0.0
  0
LINE
  8
OUTLINE
  6
CONTINUOUS
 62
     3
 10
206.00000006386011
 20
102.2500000316975
 30
0.0
 11
207.00000006417019
 21
102.2500000316975
 31
0.0
  0
LINE
  8
OUTLINE
  6
CONTINUOUS
 62
     3
 10
-204.0000000632399
 20
107.7500000334026
 30
0.0
 11
-200.000000062
 21
107.7500000334026
 31
0.0
  0
LINE
  8
OUTLINE
  6
CONTINUOUS
 62
     3
 10
-198.00000006138001
 20
107.7500000334026
 30
0.0
 11
-61.000000018909873
 21
107.7500000334026
 31
0.0
  0
LINE
  8
OUTLINE
  6
CONTINUOUS
 62
     3
 10
-59.000000018290052
 20
107.7500000334026
 30
0.0
 11
59.00000001829028
 21
107.7500000334026
 31
0.0
  0
LINE
  8
OUTLINE
  6
CONTINUOUS
 62
     3
 10
61.0000000189101
 20
107.7500000334026
 30
0.0
 11
198.00000006138029
 21
107.7500000334026
 31
0.0
  0
LINE
  8
OUTLINE
  6
CONTINUOUS
 62
     3
 10
200.00000006200011
 20
107.7500000334026
 30
0.0
 11
204.00000006324021
 21
107.7500000334026
 31
0.0
  0
LINE
  8
OUTLINE
  6
CONTINUOUS
 62
     3
 10
206.00000006386011
 20
107.7500000334026
 30
0.0
 11
207.00000006417019
 21
107.7500000334026
 31
0.0
  0
LINE
  8
OUTLINE
  6
CONTINUOUS
 62
     3
 10
-204.0000000632399
 20
109.75000003402251
 30
0.0
 11
-200.000000062
 21
109.75000003402251
 31
0.0
  0
LINE
  8
OUTLINE
  6
CONTINUOUS
 62
     3
 10
-198.00000006138001
 20
109.75000003402251
 30
0.0
 11
-61.000000018909873
 21
109.75000003402251
 31
0.0
  0
LINE
  8
OUTLINE
  6
CONTINUOUS
 62
     3
 10
-59.000000018290052
 20
109.75000003402251
 30
0.0
 11
59.00000001829028
 21
109.75000003402251
 31
0.0
  0
LINE
  8
OUTLINE
  6
CONTINUOUS
 62
     3
 10
61.0000000189101
 20
109.75000003402251
 30
0.0
 11
198.00000006138029
 21
109.75000003402251
 31
0.0
  0
LINE
  8
OUTLINE
  6
CONTINUOUS
 62
     3
 10
200.00000006200011
 20
109.75000003402251
 30
0.0
 11
204.00000006324021
 21
109.75000003402251
 31
0.0
  0
LINE
  8
OUTLINE
  6
CONTINUOUS
 62
     3
 10
206.00000006386011
 20
109.75000003402251
 30
0.0
 11
207.00000006417019
 21
109.75000003402251
 31
0.0
  0
LINE
  8
OUTLINE
  6
CONTINUOUS
 62
     3
 10
-204.0000000632399
 20
115.2500000357276
 30
0.0
 11
-200.000000062
 21
115.2500000357276
 31
0.0
  0
LINE
  8
OUTLINE
  6
CONTINUOUS
 62
     3
 10
-198.00000006138001
 20
115.2500000357276
 30
0.0
 11
-61.000000018909873
 21
115.2500000357276
 31
0.0
  0
LINE
  8
OUTLINE
  6
CONTINUOUS
 62
     3
 10
-59.000000018290052
 20
115.2500000357276
 30
0.0
 11
59.00000001829028
 21
115.2500000357276
 31
0.0
  0
LINE
  8
OUTLINE
  6
CONTINUOUS
 62
     3
 10
61.0000000189101
 20
115.2500000357276
 30
0.0
 11
198.00000006138029
 21
115.2500000357276
 31
0.0
  0
LINE
  8
OUTLINE
  6
CONTINUOUS
 62
     3
 10
200.00000006200011
 20
115.2500000357276
 30
0.0
 11
204.00000006324021
 21
115.2500000357276
 31
0.0
  0
LINE
  8
OUTLINE
  6
CONTINUOUS
 62
     3
 10
206.00000006386011
 20
115.2500000357276
 30
0.0
 11
207.00000006417019
 21
115.2500000357276
 31
0.0
  0
LINE
  8
OUTLINE
  6
CONTINUOUS
 62
     3
 10
-204.0000000632399
 20
117.2500000363475
 30
0.0
 11
-200.000000062
 21
117.2500000363475
 31
0.0
  0
LINE
  8
OUTLINE
  6
CONTINUOUS
 62
     3
 10
-198.00000006138001
 20
117.2500000363475
 30
0.0
 11
-61.000000018909873
 21
117.2500000363475
 31
0.0
  0
LINE
  8
OUTLINE
  6
CONTINUOUS
 62
     3
 10
-59.000000018290052
 20
117.2500000363475
 30
0.0
 11
59.00000001829028
 21
117.2500000363475
 31
0.0
  0
LINE
  8
OUTLINE
  6
CONTINUOUS
 62
     3
 10
61.0000000189101
 20
117.2500000363475
 30
0.0
 11
198.00000006138029
 21
117.2500000363475
 31
0.0
  0
LINE
  8
OUTLINE
  6
CONTINUOUS
 62
     3
 10
200.00000006200011
 20
117.2500000363475
 30
0.0
 11
204.00000006324021
 21
117.2500000363475
 31
0.0
  0
LINE
  8
OUTLINE
  6
CONTINUOUS
 62
     3
 10
206.00000006386011
 20
117.2500000363475
 30
0.0
 11
207.00000006417019
 21
117.2500000363475
 31
0.0
  0
LINE
  8
OUTLINE
  6
CONTINUOUS
 62
     3
 10
61.0000000189101
 20
93.500000028985028
 30
0.0
 11
64.000000019840058
 21
90.500000028054956
 31
0.0
  0
LINE
  8
OUTLINE
  6
CONTINUOUS
 62
     3
 10
-204.0000000632399
 20
122.75000003805251
 30
0.0
 11
-200.000000062
 21
122.75000003805251
 31
0.0
  0
LINE
  8
OUTLINE
  6
CONTINUOUS
 62
     3
 10
-198.00000006138001
 20
122.75000003805251
 30
0.0
 11
-61.000000018909873
 21
122.75000003805251
 31
0.0
  0
LINE
  8
OUTLINE
  6
CONTINUOUS
 62
     3
 10
-59.000000018290052
 20
122.75000003805251
 30
0.0
 11
59.00000001829028
 21
122.75000003805251
 31
0.0
  0
LINE
  8
OUTLINE
  6
CONTINUOUS
 62
     3
 10
61.0000000189101
 20
122.75000003805251
 30
0.0
 11
198.00000006138029
 21
122.75000003805251
 31
0.0
  0
LINE
  8
OUTLINE
  6
CONTINUOUS
 62
     3
 10
200.00000006200011
 20
122.75000003805251
 30
0.0
 11
204.00000006324021
 21
122.75000003805251
 31
0.0
  0
LINE
  8
OUTLINE
  6
CONTINUOUS
 62
     3
 10
206.00000006386011
 20
122.75000003805251
 30
0.0
 11
207.00000006417019
 21
122.75000003805251
 31
0.0
  0
LINE
  8
OUTLINE
  6
CONTINUOUS
 62
     3
 10
-204.0000000632399
 20
124.7500000386725
 30
0.0
 11
-200.000000062
 21
124.7500000386725
 31
0.0
  0
LINE
  8
OUTLINE
  6
CONTINUOUS
 62
     3
 10
-198.00000006138001
 20
124.7500000386725
 30
0.0
 11
-61.000000018909873
 21
124.7500000386725
 31
0.0
  0
LINE
  8
OUTLINE
  6
CONTINUOUS
 62
     3
 10
-59.000000018290052
 20
124.7500000386725
 30
0.0
 11
59.00000001829028
 21
124.7500000386725
 31
0.0
  0
LINE
  8
OUTLINE
  6
CONTINUOUS
 62
     3
 10
61.0000000189101
 20
124.7500000386725
 30
0.0
 11
198.00000006138029
 21
124.7500000386725
 31
0.0
  0
LINE
  8
OUTLINE
  6
CONTINUOUS
 62
     3
 10
200.00000006200011
 20
124.7500000386725
 30
0.0
 11
204.00000006324021
 21
124.7500000386725
 31
0.0
  0
LINE
  8
OUTLINE
  6
CONTINUOUS
 62
     3
 10
206.00000006386011
 20
124.7500000386725
 30
0.0
 11
207.00000006417019
 21
124.7500000386725
 31
0.0
  0
LINE
  8
OUTLINE
  6
CONTINUOUS
 62
     3
 10
-204.0000000632399
 20
130.2500000403775
 30
0.0
 11
-200.000000062
 21
130.2500000403775
 31
0.0
  0
LINE
  8
OUTLINE
  6
CONTINUOUS
 62
     3
 10
-198.00000006138001
 20
130.2500000403775
 30
0.0
 11
-61.000000018909873
 21
130.2500000403775
 31
0.0
  0
LINE
  8
OUTLINE
  6
CONTINUOUS
 62
     3
 10
-59.000000018290052
 20
130.2500000403775
 30
0.0
 11
59.00000001829028
 21
130.2500000403775
 31
0.0
  0
LINE
  8
OUTLINE
  6
CONTINUOUS
 62
     3
 10
61.0000000189101
 20
130.2500000403775
 30
0.0
 11
198.00000006138029
 21
130.2500000403775
 31
0.0
  0
LINE
  8
OUTLINE
  6
CONTINUOUS
 62
     3
 10
200.00000006200011
 20
130.2500000403775
 30
0.0
 11
204.00000006324021
 21
130.2500000403775
 31
0.0
  0
LINE
  8
OUTLINE
  6
CONTINUOUS
 62
     3
 10
206.00000006386011
 20
130.2500000403775
 30
0.0
 11
207.00000006417019
 21
130.2500000403775
 31
0.0
  0
LINE
  8
OUTLINE
  6
CONTINUOUS
 62
     3
 10
-204.0000000632399
 20
132.25000004099749
 30
0.0
 11
-200.000000062
 21
132.25000004099749
 31
0.0
  0
LINE
  8
OUTLINE
  6
CONTINUOUS
 62
     3
 10
-198.00000006138001
 20
132.25000004099749
 30
0.0
 11
-61.000000018909873
 21
132.25000004099749
 31
0.0
  0
LINE
  8
OUTLINE
  6
CONTINUOUS
 62
     3
 10
-59.000000018290052
 20
132.25000004099749
 30
0.0
 11
59.00000001829028
 21
132.25000004099749
 31
0.0
  0
LINE
  8
OUTLINE
  6
CONTINUOUS
 62
     3
 10
61.0000000189101
 20
132.25000004099749
 30
0.0
 11
198.00000006138029
 21
132.25000004099749
 31
0.0
  0
LINE
  8
OUTLINE
  6
CONTINUOUS
 62
     3
 10
200.00000006200011
 20
132.25000004099749
 30
0.0
 11
204.00000006324021
 21
132.25000004099749
 31
0.0
  0
LINE
  8
OUTLINE
  6
CONTINUOUS
 62
     3
 10
206.00000006386011
 20
132.25000004099749
 30
0.0
 11
207.00000006417019
 21
132.25000004099749
 31
0.0
  0
LINE
  8
OUTLINE
  6
CONTINUOUS
 62
     3
 10
-204.0000000632399
 20
137.75000004270251
 30
0.0
 11
-200.000000062
 21
137.75000004270251
 31
0.0
  0
LINE
  8
OUTLINE
  6
CONTINUOUS
 62
     3
 10
-198.00000006138001
 20
137.75000004270251
 30
0.0
 11
-61.000000018909873
 21
137.75000004270251
 31
0.0
  0
LINE
  8
OUTLINE
  6
CONTINUOUS
 62
     3
 10
-59.000000018290052
 20
137.75000004270251
 30
0.0
 11
59.00000001829028
 21
137.75000004270251
 31
0.0
  0
LINE
  8
OUTLINE
  6
CONTINUOUS
 62
     3
 10
61.0000000189101
 20
137.75000004270251
 30
0.0
 11
198.00000006138029
 21
137.75000004270251
 31
0.0
  0
LINE
  8
OUTLINE
  6
CONTINUOUS
 62
     3
 10
200.00000006200011
 20
137.75000004270251
 30
0.0
 11
204.00000006324021
 21
137.75000004270251
 31
0.0
  0
LINE
  8
OUTLINE
  6
CONTINUOUS
 62
     3
 10
206.00000006386011
 20
137.75000004270251
 30
0.0
 11
207.00000006417019
 21
137.75000004270251
 31
0.0
  0
LINE
  8
OUTLINE
  6
CONTINUOUS
 62
     3
 10
-204.0000000632399
 20
139.7500000433225
 30
0.0
 11
-200.000000062
 21
139.7500000433225
 31
0.0
  0
LINE
  8
OUTLINE
  6
CONTINUOUS
 62
     3
 10
-198.00000006138001
 20
139.7500000433225
 30
0.0
 11
-61.000000018909873
 21
139.7500000433225
 31
0.0
  0
LINE
  8
OUTLINE
  6
CONTINUOUS
 62
     3
 10
-59.000000018290052
 20
139.7500000433225
 30
0.0
 11
59.00000001829028
 21
139.7500000433225
 31
0.0
  0
LINE
  8
OUTLINE
  6
CONTINUOUS
 62
     3
 10
61.0000000189101
 20
139.7500000433225
 30
0.0
 11
198.00000006138029
 21
139.7500000433225
 31
0.0
  0
LINE
  8
OUTLINE
  6
CONTINUOUS
 62
     3
 10
200.00000006200011
 20
139.7500000433225
 30
0.0
 11
204.00000006324021
 21
139.7500000433225
 31
0.0
  0
LINE
  8
OUTLINE
  6
CONTINUOUS
 62
     3
 10
206.00000006386011
 20
139.7500000433225
 30
0.0
 11
207.00000006417019
 21
139.7500000433225
 31
0.0
  0
LINE
  8
OUTLINE
  6
CONTINUOUS
 62
     3
 10
-204.0000000632399
 20
145.25000004502749
 30
0.0
 11
-200.000000062
 21
145.25000004502749
 31
0.0
  0
LINE
  8
OUTLINE
  6
CONTINUOUS
 62
     3
 10
-198.00000006138001
 20
145.25000004502749
 30
0.0
 11
-61.000000018909873
 21
145.25000004502749
 31
0.0
  0
LINE
  8
OUTLINE
  6
CONTINUOUS
 62
     3
 10
-59.000000018290052
 20
145.25000004502749
 30
0.0
 11
59.00000001829028
 21
145.25000004502749
 31
0.0
  0
LINE
  8
OUTLINE
  6
CONTINUOUS
 62
     3
 10
61.0000000189101
 20
145.25000004502749
 30
0.0
 11
198.00000006138029
 21
145.25000004502749
 31
0.0
  0
LINE
  8
OUTLINE
  6
CONTINUOUS
 62
     3
 10
200.00000006200011
 20
145.25000004502749
 30
0.0
 11
204.00000006324021
 21
145.25000004502749
 31
0.0
  0
LINE
  8
OUTLINE
  6
CONTINUOUS
 62
     3
 10
206.00000006386011
 20
145.25000004502749
 30
0.0
 11
207.00000006417019
 21
145.25000004502749
 31
0.0
  0
LINE
  8
OUTLINE
  6
CONTINUOUS
 62
     3
 10
-204.0000000632399
 20
147.25000004564751
 30
0.0
 11
-200.000000062
 21
147.25000004564751
 31
0.0
  0
LINE
  8
OUTLINE
  6
CONTINUOUS
 62
     3
 10
-198.00000006138001
 20
147.25000004564751
 30
0.0
 11
-61.000000018909873
 21
147.25000004564751
 31
0.0
  0
LINE
  8
OUTLINE
  6
CONTINUOUS
 62
     3
 10
-59.000000018290052
 20
147.25000004564751
 30
0.0
 11
59.00000001829028
 21
147.25000004564751
 31
0.0
  0
LINE
  8
OUTLINE
  6
CONTINUOUS
 62
     3
 10
61.0000000189101
 20
147.25000004564751
 30
0.0
 11
198.00000006138029
 21
147.25000004564751
 31
0.0
  0
LINE
  8
OUTLINE
  6
CONTINUOUS
 62
     3
 10
200.00000006200011
 20
147.25000004564751
 30
0.0
 11
204.00000006324021
 21
147.25000004564751
 31
0.0
  0
LINE
  8
OUTLINE
  6
CONTINUOUS
 62
     3
 10
206.00000006386011
 20
147.25000004564751
 30
0.0
 11
207.00000006417019
 21
147.25000004564751
 31
0.0
  0
LINE
  8
OUTLINE
  6
CONTINUOUS
 62
     3
 10
-204.0000000632399
 20
152.7500000473525
 30
0.0
 11
-200.000000062
 21
152.7500000473525
 31
0.0
  0
LINE
  8
OUTLINE
  6
CONTINUOUS
 62
     3
 10
-198.00000006138001
 20
152.7500000473525
 30
0.0
 11
-61.000000018909873
 21
152.7500000473525
 31
0.0
  0
LINE
  8
OUTLINE
  6
CONTINUOUS
 62
     3
 10
-59.000000018290052
 20
152.7500000473525
 30
0.0
 11
59.00000001829028
 21
152.7500000473525
 31
0.0
  0
LINE
  8
OUTLINE
  6
CONTINUOUS
 62
     3
 10
61.0000000189101
 20
152.7500000473525
 30
0.0
 11
198.00000006138029
 21
152.7500000473525
 31
0.0
  0
LINE
  8
OUTLINE
  6
CONTINUOUS
 62
     3
 10
200.00000006200011
 20
152.7500000473525
 30
0.0
 11
204.00000006324021
 21
152.7500000473525
 31
0.0
  0
LINE
  8
OUTLINE
  6
CONTINUOUS
 62
     3
 10
206.00000006386011
 20
152.7500000473525
 30
0.0
 11
207.00000006417019
 21
152.7500000473525
 31
0.0
  0
LINE
  8
OUTLINE
  6
CONTINUOUS
 62
     3
 10
-204.0000000632399
 20
154.75000004797241
 30
0.0
 11
-200.000000062
 21
154.75000004797241
 31
0.0
  0
LINE
  8
OUTLINE
  6
CONTINUOUS
 62
     3
 10
-198.00000006138001
 20
154.75000004797241
 30
0.0
 11
-61.000000018909873
 21
154.75000004797241
 31
0.0
  0
LINE
  8
OUTLINE
  6
CONTINUOUS
 62
     3
 10
-59.000000018290052
 20
154.75000004797241
 30
0.0
 11
59.00000001829028
 21
154.75000004797241
 31
0.0
  0
LINE
  8
OUTLINE
  6
CONTINUOUS
 62
     3
 10
61.0000000189101
 20
154.75000004797241
 30
0.0
 11
198.00000006138029
 21
154.75000004797241
 31
0.0
  0
LINE
  8
OUTLINE
  6
CONTINUOUS
 62
     3
 10
200.00000006200011
 20
154.75000004797241
 30
0.0
 11
204.00000006324021
 21
154.75000004797241
 31
0.0
  0
LINE
  8
OUTLINE
  6
CONTINUOUS
 62
     3
 10
206.00000006386011
 20
154.75000004797241
 30
0.0
 11
207.00000006417019
 21
154.75000004797241
 31
0.0
  0
LINE
  8
OUTLINE
  6
CONTINUOUS
 62
     3
 10
-204.0000000632399
 20
160.25000004967751
 30
0.0
 11
-200.000000062
 21
160.25000004967751
 31
0.0
  0
LINE
  8
OUTLINE
  6
CONTINUOUS
 62
     3
 10
-198.00000006138001
 20
160.25000004967751
 30
0.0
 11
-61.000000018909873
 21
160.25000004967751
 31
0.0
  0
LINE
  8
OUTLINE
  6
CONTINUOUS
 62
     3
 10
-59.000000018290052
 20
160.25000004967751
 30
0.0
 11
59.00000001829028
 21
160.25000004967751
 31
0.0
  0
LINE
  8
OUTLINE
  6
CONTINUOUS
 62
     3
 10
61.0000000189101
 20
160.25000004967751
 30
0.0
 11
198.00000006138029
 21
160.25000004967751
 31
0.0
  0
LINE
  8
OUTLINE
  6
CONTINUOUS
 62
     3
 10
200.00000006200011
 20
160.25000004967751
 30
0.0
 11
204.00000006324021
 21
160.25000004967751
 31
0.0
  0
LINE
  8
OUTLINE
  6
CONTINUOUS
 62
     3
 10
206.00000006386011
 20
160.25000004967751
 30
0.0
 11
207.00000006417019
 21
160.25000004967751
 31
0.0
  0
LINE
  8
OUTLINE
  6
CONTINUOUS
 62
     3
 10
-204.0000000632399
 20
162.25000005029759
 30
0.0
 11
-200.000000062
 21
162.25000005029759
 31
0.0
  0
LINE
  8
OUTLINE
  6
CONTINUOUS
 62
     3
 10
-198.00000006138001
 20
162.25000005029759
 30
0.0
 11
-61.000000018909873
 21
162.25000005029759
 31
0.0
  0
LINE
  8
OUTLINE
  6
CONTINUOUS
 62
     3
 10
-59.000000018290052
 20
162.25000005029759
 30
0.0
 11
59.00000001829028
 21
162.25000005029759
 31
0.0
  0
LINE
  8
OUTLINE
  6
CONTINUOUS
 62
     3
 10
61.0000000189101
 20
162.25000005029759
 30
0.0
 11
198.00000006138029
 21
162.25000005029759
 31
0.0
  0
LINE
  8
OUTLINE
  6
CONTINUOUS
 62
     3
 10
200.00000006200011
 20
162.25000005029759
 30
0.0
 11
204.00000006324021
 21
162.25000005029759
 31
0.0
  0
LINE
  8
OUTLINE
  6
CONTINUOUS
 62
     3
 10
206.00000006386011
 20
162.25000005029759
 30
0.0
 11
207.00000006417019
 21
162.25000005029759
 31
0.0
  0
LINE
  8
OUTLINE
  6
CONTINUOUS
 62
     3
 10
-204.0000000632399
 20
167.75000005200249
 30
0.0
 11
-200.000000062
 21
167.75000005200249
 31
0.0
  0
LINE
  8
OUTLINE
  6
CONTINUOUS
 62
     3
 10
-198.00000006138001
 20
167.75000005200249
 30
0.0
 11
-61.000000018909873
 21
167.75000005200249
 31
0.0
  0
LINE
  8
OUTLINE
  6
CONTINUOUS
 62
     3
 10
-59.000000018290052
 20
167.75000005200249
 30
0.0
 11
59.00000001829028
 21
167.75000005200249
 31
0.0
  0
LINE
  8
OUTLINE
  6
CONTINUOUS
 62
     3
 10
61.0000000189101
 20
167.75000005200249
 30
0.0
 11
198.00000006138029
 21
167.75000005200249
 31
0.0
  0
LINE
  8
OUTLINE
  6
CONTINUOUS
 62
     3
 10
200.00000006200011
 20
167.75000005200249
 30
0.0
 11
204.00000006324021
 21
167.75000005200249
 31
0.0
  0
LINE
  8
OUTLINE
  6
CONTINUOUS
 62
     3
 10
206.00000006386011
 20
167.75000005200249
 30
0.0
 11
207.00000006417019
 21
167.75000005200249
 31
0.0
  0
LINE
  8
OUTLINE
  6
CONTINUOUS
 62
     3
 10
-204.0000000632399
 20
169.7500000526226
 30
0.0
 11
-200.000000062
 21
169.7500000526226
 31
0.0
  0
LINE
  8
OUTLINE
  6
CONTINUOUS
 62
     3
 10
-198.00000006138001
 20
169.7500000526226
 30
0.0
 11
-61.000000018909873
 21
169.7500000526226
 31
0.0
  0
LINE
  8
OUTLINE
  6
CONTINUOUS
 62
     3
 10
-59.000000018290052
 20
169.7500000526226
 30
0.0
 11
59.00000001829028
 21
169.7500000526226
 31
0.0
  0
LINE
  8
OUTLINE
  6
CONTINUOUS
 62
     3
 10
61.0000000189101
 20
169.7500000526226
 30
0.0
 11
198.00000006138029
 21
169.7500000526226
 31
0.0
  0
LINE
  8
OUTLINE
  6
CONTINUOUS
 62
     3
 10
200.00000006200011
 20
169.7500000526226
 30
0.0
 11
204.00000006324021
 21
169.7500000526226
 31
0.0
  0
LINE
  8
OUTLINE
  6
CONTINUOUS
 62
     3
 10
206.00000006386011
 20
169.7500000526226
 30
0.0
 11
207.00000006417019
 21
169.7500000526226
 31
0.0
  0
LINE
  8
OUTLINE
  6
CONTINUOUS
 62
     3
 10
-204.0000000632399
 20
175.2500000543275
 30
0.0
 11
-200.000000062
 21
175.2500000543275
 31
0.0
  0
LINE
  8
OUTLINE
  6
CONTINUOUS
 62
     3
 10
-198.00000006138001
 20
175.2500000543275
 30
0.0
 11
-61.000000018909873
 21
175.2500000543275
 31
0.0
  0
LINE
  8
OUTLINE
  6
CONTINUOUS
 62
     3
 10
-59.000000018290052
 20
175.2500000543275
 30
0.0
 11
59.00000001829028
 21
175.2500000543275
 31
0.0
  0
LINE
  8
OUTLINE
  6
CONTINUOUS
 62
     3
 10
61.0000000189101
 20
175.2500000543275
 30
0.0
 11
198.00000006138029
 21
175.2500000543275
 31
0.0
  0
LINE
  8
OUTLINE
  6
CONTINUOUS
 62
     3
 10
200.00000006200011
 20
175.2500000543275
 30
0.0
 11
204.00000006324021
 21
175.2500000543275
 31
0.0
  0
LINE
  8
OUTLINE
  6
CONTINUOUS
 62
     3
 10
206.00000006386011
 20
175.2500000543275
 30
0.0
 11
207.00000006417019
 21
175.2500000543275
 31
0.0
  0
LINE
  8
OUTLINE
  6
CONTINUOUS
 62
     3
 10
-204.0000000632399
 20
177.25000005494749
 30
0.0
 11
-200.000000062
 21
177.25000005494749
 31
0.0
  0
LINE
  8
OUTLINE
  6
CONTINUOUS
 62
     3
 10
-198.00000006138001
 20
177.25000005494749
 30
0.0
 11
-61.000000018909873
 21
177.25000005494749
 31
0.0
  0
LINE
  8
OUTLINE
  6
CONTINUOUS
 62
     3
 10
-59.000000018290052
 20
177.25000005494749
 30
0.0
 11
59.00000001829028
 21
177.25000005494749
 31
0.0
  0
LINE
  8
OUTLINE
  6
CONTINUOUS
 62
     3
 10
61.0000000189101
 20
177.25000005494749
 30
0.0
 11
198.00000006138029
 21
177.25000005494749
 31
0.0
  0
LINE
  8
OUTLINE
  6
CONTINUOUS
 62
     3
 10
200.00000006200011
 20
177.25000005494749
 30
0.0
 11
204.00000006324021
 21
177.25000005494749
 31
0.0
  0
LINE
  8
OUTLINE
  6
CONTINUOUS
 62
     3
 10
206.00000006386011
 20
177.25000005494749
 30
0.0
 11
207.00000006417019
 21
177.25000005494749
 31
0.0
  0
LINE
  8
OUTLINE
  6
CONTINUOUS
 62
     3
 10
-204.0000000632399
 20
182.75000005665251
 30
0.0
 11
-200.000000062
 21
182.75000005665251
 31
0.0
  0
LINE
  8
OUTLINE
  6
CONTINUOUS
 62
     3
 10
-198.00000006138001
 20
182.75000005665251
 30
0.0
 11
-61.000000018909873
 21
182.75000005665251
 31
0.0
  0
LINE
  8
OUTLINE
  6
CONTINUOUS
 62
     3
 10
-59.000000018290052
 20
182.75000005665251
 30
0.0
 11
59.00000001829028
 21
182.75000005665251
 31
0.0
  0
LINE
  8
OUTLINE
  6
CONTINUOUS
 62
     3
 10
61.0000000189101
 20
182.75000005665251
 30
0.0
 11
198.00000006138029
 21
182.75000005665251
 31
0.0
  0
LINE
  8
OUTLINE
  6
CONTINUOUS
 62
     3
 10
200.00000006200011
 20
182.75000005665251
 30
0.0
 11
204.00000006324021
 21
182.75000005665251
 31
0.0
  0
LINE
  8
OUTLINE
  6
CONTINUOUS
 62
     3
 10
206.00000006386011
 20
182.75000005665251
 30
0.0
 11
207.00000006417019
 21
182.75000005665251
 31
0.0
  0
LINE
  8
OUTLINE
  6
CONTINUOUS
 62
     3
 10
-204.0000000632399
 20
184.7500000572725
 30
0.0
 11
-200.000000062
 21
184.7500000572725
 31
0.0
  0
LINE
  8
OUTLINE
  6
CONTINUOUS
 62
     3
 10
-198.00000006138001
 20
184.7500000572725
 30
0.0
 11
-61.000000018909873
 21
184.7500000572725
 31
0.0
  0
LINE
  8
OUTLINE
  6
CONTINUOUS
 62
     3
 10
-59.000000018290052
 20
184.7500000572725
 30
0.0
 11
59.00000001829028
 21
184.7500000572725
 31
0.0
  0
LINE
  8
OUTLINE
  6
CONTINUOUS
 62
     3
 10
61.0000000189101
 20
184.7500000572725
 30
0.0
 11
198.00000006138029
 21
184.7500000572725
 31
0.0
  0
LINE
  8
OUTLINE
  6
CONTINUOUS
 62
     3
 10
200.00000006200011
 20
184.7500000572725
 30
0.0
 11
204.00000006324021
 21
184.7500000572725
 31
0.0
  0
LINE
  8
OUTLINE
  6
CONTINUOUS
 62
     3
 10
206.00000006386011
 20
184.7500000572725
 30
0.0
 11
207.00000006417019
 21
184.7500000572725
 31
0.0
  0
LINE
  8
OUTLINE
  6
CONTINUOUS
 62
     3
 10
-204.0000000632399
 20
190.25000005897749
 30
0.0
 11
-200.000000062
 21
190.25000005897749
 31
0.0
  0
LINE
  8
OUTLINE
  6
CONTINUOUS
 62
     3
 10
-198.00000006138001
 20
190.25000005897749
 30
0.0
 11
-61.000000018909873
 21
190.25000005897749
 31
0.0
  0
LINE
  8
OUTLINE
  6
CONTINUOUS
 62
     3
 10
-59.000000018290052
 20
190.25000005897749
 30
0.0
 11
59.00000001829028
 21
190.25000005897749
 31
0.0
  0
LINE
  8
OUTLINE
  6
CONTINUOUS
 62
     3
 10
61.0000000189101
 20
190.25000005897749
 30
0.0
 11
198.00000006138029
 21
190.25000005897749
 31
0.0
  0
LINE
  8
OUTLINE
  6
CONTINUOUS
 62
     3
 10
200.00000006200011
 20
190.25000005897749
 30
0.0
 11
204.00000006324021
 21
190.25000005897749
 31
0.0
  0
LINE
  8
OUTLINE
  6
CONTINUOUS
 62
     3
 10
206.00000006386011
 20
190.25000005897749
 30
0.0
 11
207.00000006417019
 21
190.25000005897749
 31
0.0
  0
LINE
  8
OUTLINE
  6
CONTINUOUS
 62
     3
 10
-204.0000000632399
 20
192.25000005959751
 30
0.0
 11
-200.000000062
 21
192.25000005959751
 31
0.0
  0
LINE
  8
OUTLINE
  6
CONTINUOUS
 62
     3
 10
-198.00000006138001
 20
192.25000005959751
 30
0.0
 11
-61.000000018909873
 21
192.25000005959751
 31
0.0
  0
LINE
  8
OUTLINE
  6
CONTINUOUS
 62
     3
 10
-59.000000018290052
 20
192.25000005959751
 30
0.0
 11
59.00000001829028
 21
192.25000005959751
 31
0.0
  0
LINE
  8
OUTLINE
  6
CONTINUOUS
 62
     3
 10
61.0000000189101
 20
192.25000005959751
 30
0.0
 11
198.00000006138029
 21
192.25000005959751
 31
0.0
  0
LINE
  8
OUTLINE
  6
CONTINUOUS
 62
     3
 10
200.00000006200011
 20
192.25000005959751
 30
0.0
 11
204.00000006324021
 21
192.25000005959751
 31
0.0
  0
LINE
  8
OUTLINE
  6
CONTINUOUS
 62
     3
 10
206.00000006386011
 20
192.25000005959751
 30
0.0
 11
207.00000006417019
 21
192.25000005959751
 31
0.0
  0
LINE
  8
OUTLINE
  6
CONTINUOUS
 62
     3
 10
-204.0000000632399
 20
197.75000006130239
 30
0.0
 11
-200.000000062
 21
197.75000006130239
 31
0.0
  0
LINE
  8
OUTLINE
  6
CONTINUOUS
 62
     3
 10
-198.00000006138001
 20
197.75000006130239
 30
0.0
 11
-61.000000018909873
 21
197.75000006130239
 31
0.0
  0
LINE
  8
OUTLINE
  6
CONTINUOUS
 62
     3
 10
-59.000000018290052
 20
197.75000006130239
 30
0.0
 11
59.00000001829028
 21
197.75000006130239
 31
0.0
  0
LINE
  8
OUTLINE
  6
CONTINUOUS
 62
     3
 10
61.0000000189101
 20
197.75000006130239
 30
0.0
 11
198.00000006138029
 21
197.75000006130239
 31
0.0
  0
LINE
  8
OUTLINE
  6
CONTINUOUS
 62
     3
 10
200.00000006200011
 20
197.75000006130239
 30
0.0
 11
204.00000006324021
 21
197.75000006130239
 31
0.0
  0
LINE
  8
OUTLINE
  6
CONTINUOUS
 62
     3
 10
206.00000006386011
 20
197.75000006130239
 30
0.0
 11
207.00000006417019
 21
197.75000006130239
 31
0.0
  0
LINE
  8
OUTLINE
  6
CONTINUOUS
 62
     3
 10
198.00000006138029
 20
203.25000006300749
 30
0.0
 11
198.00000006138029
 21
-203.25000006300749
 31
0.0
  0
LINE
  8
OUTLINE
  6
CONTINUOUS
 62
     3
 10
200.00000006200011
 20
203.25000006300749
 30
0.0
 11
200.00000006200011
 21
-203.25000006300749
 31
0.0
  0
LINE
  8
OUTLINE
  6
CONTINUOUS
 62
     3
 10
204.00000006324021
 20
202.2500000626975
 30
0.0
 11
204.00000006324021
 21
-202.2500000626975
 31
0.0
  0
LINE
  8
OUTLINE
  6
CONTINUOUS
 62
     3
 10
206.00000006386011
 20
202.2500000626975
 30
0.0
 11
206.00000006386011
 21
-202.2500000626975
 31
0.0
  0
LINE
  8
OUTLINE
  6
CONTINUOUS
 62
     3
 10
-204.0000000632399
 20
199.75000006192249
 30
0.0
 11
-200.000000062
 21
199.75000006192249
 31
0.0
  0
LINE
  8
OUTLINE
  6
CONTINUOUS
 62
     3
 10
-198.00000006138001
 20
199.75000006192249
 30
0.0
 11
-61.000000018909873
 21
199.75000006192249
 31
0.0
  0
LINE
  8
OUTLINE
  6
CONTINUOUS
 62
     3
 10
-59.000000018290052
 20
199.75000006192249
 30
0.0
 11
59.00000001829028
 21
199.75000006192249
 31
0.0
  0
LINE
  8
OUTLINE
  6
CONTINUOUS
 62
     3
 10
61.0000000189101
 20
199.75000006192249
 30
0.0
 11
198.00000006138029
 21
199.75000006192249
 31
0.0
  0
LINE
  8
OUTLINE
  6
CONTINUOUS
 62
     3
 10
200.00000006200011
 20
199.75000006192249
 30
0.0
 11
204.00000006324021
 21
199.75000006192249
 31
0.0
  0
LINE
  8
OUTLINE
  6
CONTINUOUS
 62
     3
 10
206.00000006386011
 20
199.75000006192249
 30
0.0
 11
207.00000006417019
 21
199.75000006192249
 31
0.0
  0
LINE
  8
OUTLINE
  6
CONTINUOUS
 62
     3
 10
-202.00000006261979
 20
204.25000006331749
 30
0.0
 11
202.00000006261999
 21
204.25000006331749
 31
0.0
  0
LINE
  8
OUTLINE
  6
CONTINUOUS
 62
     3
 10
-202.00000006261979
 20
206.25000006393751
 30
0.0
 11
202.00000006261999
 21
206.25000006393751
 31
0.0
  0
ARC
  8
OUTLINE
  6
CONTINUOUS
 62
     3
 10
-202.00000006261979
 20
-202.2500000626975
 30
0.0
 40
4.0000000012400001
 50
180.0
 51
270.0
  0
ARC
  8
OUTLINE
  6
CONTINUOUS
 62
     3
 10
-202.00000006261979
 20
-202.2500000626975
 30
0.0
 40
2.0000000006200001
 50
180.0
 51
270.0
  0
CIRCLE
  8
OUTLINE
  6
CONTINUOUS
 62
     3
 10
-199.00000006168989
 20
-203.25000006300749
 30
0.0
 40
1.00000000031
  0
CIRCLE
  8
OUTLINE
  6
CONTINUOUS
 62
     3
 10
-207.00000006416991
 20
-161.25000004998751
 30
0.0
 40
1.00000000031
  0
CIRCLE
  8
OUTLINE
  6
CONTINUOUS
 62
     3
 10
-207.00000006416991
 20
-153.7500000476625
 30
0.0
 40
1.00000000031
  0
CIRCLE
  8
OUTLINE
  6
CONTINUOUS
 62
     3
 10
-207.00000006416991
 20
-146.25000004533749
 30
0.0
 40
1.00000000031
  0
CIRCLE
  8
OUTLINE
  6
CONTINUOUS
 62
     3
 10
-207.00000006416991
 20
-138.75000004301251
 30
0.0
 40
1.00000000031
  0
CIRCLE
  8
OUTLINE
  6
CONTINUOUS
 62
     3
 10
-207.00000006416991
 20
-131.2500000406875
 30
0.0
 40
1.00000000031
  0
CIRCLE
  8
OUTLINE
  6
CONTINUOUS
 62
     3
 10
-207.00000006416991
 20
-123.7500000383625
 30
0.0
 40
1.00000000031
  0
CIRCLE
  8
OUTLINE
  6
CONTINUOUS
 62
     3
 10
-207.00000006416991
 20
-116.25000003603751
 30
0.0
 40
1.00000000031
  0
CIRCLE
  8
OUTLINE
  6
CONTINUOUS
 62
     3
 10
-207.00000006416991
 20
-108.7500000337125
 30
0.0
 40
1.00000000031
  0
CIRCLE
  8
OUTLINE
  6
CONTINUOUS
 62
     3
 10
-207.00000006416991
 20
-168.75000005231249
 30
0.0
 40
1.00000000031
  0
CIRCLE
  8
OUTLINE
  6
CONTINUOUS
 62
     3
 10
-207.00000006416991
 20
-176.2500000546375
 30
0.0
 40
1.00000000031
  0
CIRCLE
  8
OUTLINE
  6
CONTINUOUS
 62
     3
 10
-207.00000006416991
 20
-198.7500000616125
 30
0.0
 40
1.00000000031
  0
CIRCLE
  8
OUTLINE
  6
CONTINUOUS
 62
     3
 10
-207.00000006416991
 20
-191.25000005928749
 30
0.0
 40
1.00000000031
  0
CIRCLE
  8
OUTLINE
  6
CONTINUOUS
 62
     3
 10
-207.00000006416991
 20
-183.75000005696251
 30
0.0
 40
1.00000000031
  0
CIRCLE
  8
OUTLINE
  6
CONTINUOUS
 62
     3
 10
-207.00000006416991
 20
-86.250000026737496
 30
0.0
 40
1.00000000031
  0
CIRCLE
  8
OUTLINE
  6
CONTINUOUS
 62
     3
 10
-207.00000006416991
 20
-78.750000024412486
 30
0.0
 40
1.00000000031
  0
CIRCLE
  8
OUTLINE
  6
CONTINUOUS
 62
     3
 10
-207.00000006416991
 20
-71.250000022087477
 30
0.0
 40
1.00000000031
  0
CIRCLE
  8
OUTLINE
  6
CONTINUOUS
 62
     3
 10
-207.00000006416991
 20
-63.750000019762517
 30
0.0
 40
1.00000000031
  0
CIRCLE
  8
OUTLINE
  6
CONTINUOUS
 62
     3
 10
-207.00000006416991
 20
-56.250000017437507
 30
0.0
 40
1.00000000031
  0
CIRCLE
  8
OUTLINE
  6
CONTINUOUS
 62
     3
 10
-207.00000006416991
 20
-48.750000015112512
 30
0.0
 40
1.00000000031
  0
CIRCLE
  8
OUTLINE
  6
CONTINUOUS
 62
     3
 10
-207.00000006416991
 20
-41.250000012787503
 30
0.0
 40
1.00000000031
  0
CIRCLE
  8
OUTLINE
  6
CONTINUOUS
 62
     3
 10
-207.00000006416991
 20
-33.750000010462507
 30
0.0
 40
1.00000000031
  0
CIRCLE
  8
OUTLINE
  6
CONTINUOUS
 62
     3
 10
-207.00000006416991
 20
-26.250000008137501
 30
0.0
 40
1.00000000031
  0
CIRCLE
  8
OUTLINE
  6
CONTINUOUS
 62
     3
 10
-207.00000006416991
 20
-18.75000000581252
 30
0.0
 40
1.00000000031
  0
CIRCLE
  8
OUTLINE
  6
CONTINUOUS
 62
     3
 10
-207.00000006416991
 20
-101.2500000313875
 30
0.0
 40
1.00000000031
  0
CIRCLE
  8
OUTLINE
  6
CONTINUOUS
 62
     3
 10
-207.00000006416991
 20
-93.750000029062505
 30
0.0
 40
1.00000000031
  0
CIRCLE
  8
OUTLINE
  6
CONTINUOUS
 62
     3
 10
-207.00000006416991
 20
-11.250000003487489
 30
0.0
 40
1.00000000031
  0
CIRCLE
  8
OUTLINE
  6
CONTINUOUS
 62
     3
 10
-207.00000006416991
 20
-3.7500000011625052
 30
0.0
 40
1.00000000031
  0
CIRCLE
  8
OUTLINE
  6
CONTINUOUS
 62
     3
 10
-60.000000018599742
 20
-203.25000006300749
 30
0.0
 40
1.00000000031
  0
CIRCLE
  8
OUTLINE
  6
CONTINUOUS
 62
     3
 10
-207.00000006416991
 20
101.2500000313875
 30
0.0
 40
1.00000000031
  0
CIRCLE
  8
OUTLINE
  6
CONTINUOUS
 62
     3
 10
-207.00000006416991
 20
3.7500000011625052
 30
0.0
 40
1.00000000031
  0
CIRCLE
  8
OUTLINE
  6
CONTINUOUS
 62
     3
 10
-207.00000006416991
 20
11.250000003487489
 30
0.0
 40
1.00000000031
  0
CIRCLE
  8
OUTLINE
  6
CONTINUOUS
 62
     3
 10
-207.00000006416991
 20
18.750000005812471
 30
0.0
 40
1.00000000031
  0
CIRCLE
  8
OUTLINE
  6
CONTINUOUS
 62
     3
 10
-207.00000006416991
 20
26.250000008137501
 30
0.0
 40
1.00000000031
  0
CIRCLE
  8
OUTLINE
  6
CONTINUOUS
 62
     3
 10
-207.00000006416991
 20
33.750000010462507
 30
0.0
 40
1.00000000031
  0
CIRCLE
  8
OUTLINE
  6
CONTINUOUS
 62
     3
 10
-207.00000006416991
 20
41.250000012787467
 30
0.0
 40
1.00000000031
  0
CIRCLE
  8
OUTLINE
  6
CONTINUOUS
 62
     3
 10
-207.00000006416991
 20
48.750000015112477
 30
0.0
 40
1.00000000031
  0
CIRCLE
  8
OUTLINE
  6
CONTINUOUS
 62
     3
 10
-207.00000006416991
 20
93.750000029062562
 30
0.0
 40
1.00000000031
  0
CIRCLE
  8
OUTLINE
  6
CONTINUOUS
 62
     3
 10
-207.00000006416991
 20
86.250000026737439
 30
0.0
 40
1.00000000031
  0
CIRCLE
  8
OUTLINE
  6
CONTINUOUS
 62
     3
 10
-207.00000006416991
 20
78.750000024412429
 30
0.0
 40
1.00000000031
  0
CIRCLE
  8
OUTLINE
  6
CONTINUOUS
 62
     3
 10
-207.00000006416991
 20
71.250000022087534
 30
0.0
 40
1.00000000031
  0
CIRCLE
  8
OUTLINE
  6
CONTINUOUS
 62
     3
 10
-207.00000006416991
 20
63.750000019762517
 30
0.0
 40
1.00000000031
  0
CIRCLE
  8
OUTLINE
  6
CONTINUOUS
 62
     3
 10
-207.00000006416991
 20
56.250000017437507
 30
0.0
 40
1.00000000031
  0
ARC
  8
OUTLINE
  6
CONTINUOUS
 62
     3
 10
-202.00000006261979
 20
202.2500000626975
 30
0.0
 40
4.0000000012400001
 50
90.0
 51
180.0
  0
ARC
  8
OUTLINE
  6
CONTINUOUS
 62
     3
 10
-202.00000006261979
 20
202.2500000626975
 30
0.0
 40
2.0000000006200001
 50
90.0
 51
180.0
  0
CIRCLE
  8
OUTLINE
  6
CONTINUOUS
 62
     3
 10
-199.00000006168989
 20
203.25000006300749
 30
0.0
 40
1.00000000031
  0
CIRCLE
  8
OUTLINE
  6
CONTINUOUS
 62
     3
 10
-207.00000006416991
 20
108.7500000337125
 30
0.0
 40
1.00000000031
  0
CIRCLE
  8
OUTLINE
  6
CONTINUOUS
 62
     3
 10
-207.00000006416991
 20
116.25000003603751
 30
0.0
 40
1.00000000031
  0
CIRCLE
  8
OUTLINE
  6
CONTINUOUS
 62
     3
 10
-207.00000006416991
 20
123.7500000383625
 30
0.0
 40
1.00000000031
  0
CIRCLE
  8
OUTLINE
  6
CONTINUOUS
 62
     3
 10
-207.00000006416991
 20
131.2500000406875
 30
0.0
 40
1.00000000031
  0
CIRCLE
  8
OUTLINE
  6
CONTINUOUS
 62
     3
 10
-207.00000006416991
 20
138.75000004301251
 30
0.0
 40
1.00000000031
  0
CIRCLE
  8
OUTLINE
  6
CONTINUOUS
 62
     3
 10
-207.00000006416991
 20
146.25000004533749
 30
0.0
 40
1.00000000031
  0
CIRCLE
  8
OUTLINE
  6
CONTINUOUS
 62
     3
 10
-207.00000006416991
 20
153.7500000476625
 30
0.0
 40
1.00000000031
  0
CIRCLE
  8
OUTLINE
  6
CONTINUOUS
 62
     3
 10
-207.00000006416991
 20
161.25000004998751
 30
0.0
 40
1.00000000031
  0
CIRCLE
  8
OUTLINE
  6
CONTINUOUS
 62
     3
 10
-207.00000006416991
 20
168.75000005231249
 30
0.0
 40
1.00000000031
  0
CIRCLE
  8
OUTLINE
  6
CONTINUOUS
 62
     3
 10
-207.00000006416991
 20
176.25000005463741
 30
0.0
 40
1.00000000031
  0
CIRCLE
  8
OUTLINE
  6
CONTINUOUS
 62
     3
 10
-207.00000006416991
 20
183.75000005696259
 30
0.0
 40
1.00000000031
  0
CIRCLE
  8
OUTLINE
  6
CONTINUOUS
 62
     3
 10
-207.00000006416991
 20
191.25000005928749
 30
0.0
 40
1.00000000031
  0
CIRCLE
  8
OUTLINE
  6
CONTINUOUS
 62
     3
 10
-207.00000006416991
 20
198.7500000616125
 30
0.0
 40
1.00000000031
  0
ARC
  8
OUTLINE
  6
CONTINUOUS
 62
     3
 10
-80.000000024800215
 20
82.500000025574991
 30
0.0
 40
2.8000000008680002
 50
100.2270293044036
 51
180.0
  0
ARC
  8
OUTLINE
  6
CONTINUOUS
 62
     3
 10
-80.000000024800215
 20
82.500000025574991
 30
0.0
 40
2.8000000008680002
 50
0.0
 51
79.772970695596413
  0
ARC
  8
OUTLINE
  6
CONTINUOUS
 62
     3
 10
-80.000000024800215
 20
80.000000024799988
 30
0.0
 40
2.8000000008680002
 50
354.84907425609788
 51
0.0
  0
ARC
  8
OUTLINE
  6
CONTINUOUS
 62
     3
 10
-80.000000024800215
 20
80.000000024799988
 30
0.0
 40
2.8000000008680002
 50
233.56821977879861
 51
306.43178022120139
  0
ARC
  8
OUTLINE
  6
CONTINUOUS
 62
     3
 10
-80.000000024800215
 20
80.000000024799988
 30
0.0
 40
2.8000000008680002
 50
180.0
 51
185.1509257438004
  0
CIRCLE
  8
OUTLINE
  6
CONTINUOUS
 62
     3
 10
-60.000000018599742
 20
203.25000006300749
 30
0.0
 40
1.00000000031
  0
CIRCLE
  8
OUTLINE
  6
CONTINUOUS
 62
     3
 10
60.000000018599962
 20
-203.25000006300749
 30
0.0
 40
1.00000000031
  0
ARC
  8
OUTLINE
  6
CONTINUOUS
 62
     3
 10
202.00000006261999
 20
-202.2500000626975
 30
0.0
 40
4.0000000012400001
 50
270.0
 51
0.0
  0
ARC
  8
OUTLINE
  6
CONTINUOUS
 62
     3
 10
202.00000006261999
 20
-202.2500000626975
 30
0.0
 40
2.0000000006200001
 50
270.0
 51
0.0
  0
CIRCLE
  8
OUTLINE
  6
CONTINUOUS
 62
     3
 10
199.00000006169
 20
-203.25000006300749
 30
0.0
 40
1.00000000031
  0
CIRCLE
  8
OUTLINE
  6
CONTINUOUS
 62
     3
 10
207.00000006417019
 20
-161.25000004998751
 30
0.0
 40
1.00000000031
  0
CIRCLE
  8
OUTLINE
  6
CONTINUOUS
 62
     3
 10
207.00000006417019
 20
-153.7500000476625
 30
0.0
 40
1.00000000031
  0
CIRCLE
  8
OUTLINE
  6
CONTINUOUS
 62
     3
 10
207.00000006417019
 20
-146.25000004533749
 30
0.0
 40
1.00000000031
  0
CIRCLE
  8
OUTLINE
  6
CONTINUOUS
 62
     3
 10
207.00000006417019
 20
-138.75000004301251
 30
0.0
 40
1.00000000031
  0
CIRCLE
  8
OUTLINE
  6
CONTINUOUS
 62
     3
 10
207.00000006417019
 20
-131.2500000406875
 30
0.0
 40
1.00000000031
  0
CIRCLE
  8
OUTLINE
  6
CONTINUOUS
 62
     3
 10
207.00000006417019
 20
-123.7500000383625
 30
0.0
 40
1.00000000031
  0
CIRCLE
  8
OUTLINE
  6
CONTINUOUS
 62
     3
 10
207.00000006417019
 20
-116.25000003603751
 30
0.0
 40
1.00000000031
  0
CIRCLE
  8
OUTLINE
  6
CONTINUOUS
 62
     3
 10
207.00000006417019
 20
-108.7500000337125
 30
0.0
 40
1.00000000031
  0
CIRCLE
  8
OUTLINE
  6
CONTINUOUS
 62
     3
 10
207.00000006417019
 20
-168.75000005231249
 30
0.0
 40
1.00000000031
  0
CIRCLE
  8
OUTLINE
  6
CONTINUOUS
 62
     3
 10
207.00000006417019
 20
-176.2500000546375
 30
0.0
 40
1.00000000031
  0
CIRCLE
  8
OUTLINE
  6
CONTINUOUS
 62
     3
 10
207.00000006417019
 20
-198.7500000616125
 30
0.0
 40
1.00000000031
  0
CIRCLE
  8
OUTLINE
  6
CONTINUOUS
 62
     3
 10
207.00000006417019
 20
-191.25000005928749
 30
0.0
 40
1.00000000031
  0
CIRCLE
  8
OUTLINE
  6
CONTINUOUS
 62
     3
 10
207.00000006417019
 20
-183.75000005696251
 30
0.0
 40
1.00000000031
  0
CIRCLE
  8
OUTLINE
  6
CONTINUOUS
 62
     3
 10
207.00000006417019
 20
-86.250000026737496
 30
0.0
 40
1.00000000031
  0
CIRCLE
  8
OUTLINE
  6
CONTINUOUS
 62
     3
 10
207.00000006417019
 20
-78.750000024412486
 30
0.0
 40
1.00000000031
  0
CIRCLE
  8
OUTLINE
  6
CONTINUOUS
 62
     3
 10
207.00000006417019
 20
-71.250000022087477
 30
0.0
 40
1.00000000031
  0
CIRCLE
  8
OUTLINE
  6
CONTINUOUS
 62
     3
 10
207.00000006417019
 20
-63.750000019762517
 30
0.0
 40
1.00000000031
  0
CIRCLE
  8
OUTLINE
  6
CONTINUOUS
 62
     3
 10
207.00000006417019
 20
-56.250000017437507
 30
0.0
 40
1.00000000031
  0
CIRCLE
  8
OUTLINE
  6
CONTINUOUS
 62
     3
 10
207.00000006417019
 20
-48.750000015112512
 30
0.0
 40
1.00000000031
  0
CIRCLE
  8
OUTLINE
  6
CONTINUOUS
 62
     3
 10
207.00000006417019
 20
-41.250000012787503
 30
0.0
 40
1.00000000031
  0
CIRCLE
  8
OUTLINE
  6
CONTINUOUS
 62
     3
 10
207.00000006417019
 20
-33.750000010462507
 30
0.0
 40
1.00000000031
  0
CIRCLE
  8
OUTLINE
  6
CONTINUOUS
 62
     3
 10
207.00000006417019
 20
-26.250000008137501
 30
0.0
 40
1.00000000031
  0
CIRCLE
  8
OUTLINE
  6
CONTINUOUS
 62
     3
 10
207.00000006417019
 20
-18.75000000581252
 30
0.0
 40
1.00000000031
  0
CIRCLE
  8
OUTLINE
  6
CONTINUOUS
 62
     3
 10
207.00000006417019
 20
-101.2500000313875
 30
0.0
 40
1.00000000031
  0
CIRCLE
  8
OUTLINE
  6
CONTINUOUS
 62
     3
 10
207.00000006417019
 20
-93.750000029062505
 30
0.0
 40
1.00000000031
  0
CIRCLE
  8
OUTLINE
  6
CONTINUOUS
 62
     3
 10
207.00000006417019
 20
-11.250000003487489
 30
0.0
 40
1.00000000031
  0
CIRCLE
  8
OUTLINE
  6
CONTINUOUS
 62
     3
 10
207.00000006417019
 20
-3.7500000011625052
 30
0.0
 40
1.00000000031
  0
ARC
  8
OUTLINE
  6
CONTINUOUS
 62
     3
 10
80.000000024799988
 20
82.500000025574991
 30
0.0
 40
2.8000000008680002
 50
100.2270293044036
 51
180.0
  0
ARC
  8
OUTLINE
  6
CONTINUOUS
 62
     3
 10
80.000000024799988
 20
82.500000025574991
 30
0.0
 40
2.8000000008680002
 50
0.0
 51
79.772970695596413
  0
ARC
  8
OUTLINE
  6
CONTINUOUS
 62
     3
 10
80.000000024799988
 20
80.000000024799988
 30
0.0
 40
2.8000000008680002
 50
354.84907425609788
 51
0.0
  0
ARC
  8
OUTLINE
  6
CONTINUOUS
 62
     3
 10
80.000000024799988
 20
80.000000024799988
 30
0.0
 40
2.8000000008680002
 50
233.56821977879861
 51
306.43178022120139
  0
ARC
  8
OUTLINE
  6
CONTINUOUS
 62
     3
 10
80.000000024799988
 20
80.000000024799988
 30
0.0
 40
2.8000000008680002
 50
180.0
 51
185.1509257438004
  0
CIRCLE
  8
OUTLINE
  6
CONTINUOUS
 62
     3
 10
60.000000018599962
 20
203.25000006300749
 30
0.0
 40
1.00000000031
  0
CIRCLE
  8
OUTLINE
  6
CONTINUOUS
 62
     3
 10
207.00000006417019
 20
101.2500000313875
 30
0.0
 40
1.00000000031
  0
CIRCLE
  8
OUTLINE
  6
CONTINUOUS
 62
     3
 10
207.00000006417019
 20
3.7500000011625052
 30
0.0
 40
1.00000000031
  0
CIRCLE
  8
OUTLINE
  6
CONTINUOUS
 62
     3
 10
207.00000006417019
 20
11.250000003487489
 30
0.0
 40
1.00000000031
  0
CIRCLE
  8
OUTLINE
  6
CONTINUOUS
 62
     3
 10
207.00000006417019
 20
18.750000005812471
 30
0.0
 40
1.00000000031
  0
CIRCLE
  8
OUTLINE
  6
CONTINUOUS
 62
     3
 10
207.00000006417019
 20
26.250000008137501
 30
0.0
 40
1.00000000031
  0
CIRCLE
  8
OUTLINE
  6
CONTINUOUS
 62
     3
 10
207.00000006417019
 20
33.750000010462507
 30
0.0
 40
1.00000000031
  0
CIRCLE
  8
OUTLINE
  6
CONTINUOUS
 62
     3
 10
207.00000006417019
 20
41.250000012787467
 30
0.0
 40
1.00000000031
  0
CIRCLE
  8
OUTLINE
  6
CONTINUOUS
 62
     3
 10
207.00000006417019
 20
48.750000015112477
 30
0.0
 40
1.00000000031
  0
CIRCLE
  8
OUTLINE
  6
CONTINUOUS
 62
     3
 10
207.00000006417019
 20
93.750000029062562
 30
0.0
 40
1.00000000031
  0
CIRCLE
  8
OUTLINE
  6
CONTINUOUS
 62
     3
 10
207.00000006417019
 20
86.250000026737439
 30
0.0
 40
1.00000000031
  0
CIRCLE
  8
OUTLINE
  6
CONTINUOUS
 62
     3
 10
207.00000006417019
 20
78.750000024412429
 30
0.0
 40
1.00000000031
  0
CIRCLE
  8
OUTLINE
  6
CONTINUOUS
 62
     3
 10
207.00000006417019
 20
71.250000022087534
 30
0.0
 40
1.00000000031
  0
CIRCLE
  8
OUTLINE
  6
CONTINUOUS
 62
     3
 10
207.00000006417019
 20
63.750000019762517
 30
0.0
 40
1.00000000031
  0
CIRCLE
  8
OUTLINE
  6
CONTINUOUS
 62
     3
 10
207.00000006417019
 20
56.250000017437507
 30
0.0
 40
1.00000000031
  0
ARC
  8
OUTLINE
  6
CONTINUOUS
 62
     3
 10
202.00000006261999
 20
202.2500000626975
 30
0.0
 40
4.0000000012400001
 50
0.0
 51
90.0
  0
ARC
  8
OUTLINE
  6
CONTINUOUS
 62
     3
 10
202.00000006261999
 20
202.2500000626975
 30
0.0
 40
2.0000000006200001
 50
0.0
 51
90.0
  0
CIRCLE
  8
OUTLINE
  6
CONTINUOUS
 62
     3
 10
199.00000006169
 20
203.25000006300749
 30
0.0
 40
1.00000000031
  0
CIRCLE
  8
OUTLINE
  6
CONTINUOUS
 62
     3
 10
207.00000006417019
 20
108.7500000337125
 30
0.0
 40
1.00000000031
  0
CIRCLE
  8
OUTLINE
  6
CONTINUOUS
 62
     3
 10
207.00000006417019
 20
116.25000003603751
 30
0.0
 40
1.00000000031
  0
CIRCLE
  8
OUTLINE
  6
CONTINUOUS
 62
     3
 10
207.00000006417019
 20
123.7500000383625
 30
0.0
 40
1.00000000031
  0
CIRCLE
  8
OUTLINE
  6
CONTINUOUS
 62
     3
 10
207.00000006417019
 20
131.2500000406875
 30
0.0
 40
1.00000000031
  0
CIRCLE
  8
OUTLINE
  6
CONTINUOUS
 62
     3
 10
207.00000006417019
 20
138.75000004301251
 30
0.0
 40
1.00000000031
  0
CIRCLE
  8
OUTLINE
  6
CONTINUOUS
 62
     3
 10
207.00000006417019
 20
146.25000004533749
 30
0.0
 40
1.00000000031
  0
CIRCLE
  8
OUTLINE
  6
CONTINUOUS
 62
     3
 10
207.00000006417019
 20
153.7500000476625
 30
0.0
 40
1.00000000031
  0
CIRCLE
  8
OUTLINE
  6
CONTINUOUS
 62
     3
 10
207.00000006417019
 20
161.25000004998751
 30
0.0
 40
1.00000000031
  0
CIRCLE
  8
OUTLINE
  6
CONTINUOUS
 62
     3
 10
207.00000006417019
 20
168.75000005231249
 30
0.0
 40
1.00000000031
  0
CIRCLE
  8
OUTLINE
  6
CONTINUOUS
 62
     3
 10
207.00000006417019
 20
176.25000005463741
 30
0.0
 40
1.00000000031
  0
CIRCLE
  8
OUTLINE
  6
CONTINUOUS
 62
     3
 10
207.00000006417019
 20
183.75000005696259
 30
0.0
 40
1.00000000031
  0
CIRCLE
  8
OUTLINE
  6
CONTINUOUS
 62
     3
 10
207.00000006417019
 20
191.25000005928749
 30
0.0
 40
1.00000000031
  0
CIRCLE
  8
OUTLINE
  6
CONTINUOUS
 62
     3
 10
207.00000006417019
 20
198.7500000616125
 30
0.0
 40
1.00000000031
  0
LINE
  8
DETAIL
  6
CONTINUOUS
 62
     5
 10
-206.0000000638598
 20
-202.2500000626975
 30
0.0
 11
-206.0000000638598
 21
202.2500000626975
 31
0.0
  0
LINE
  8
DETAIL
  6
CONTINUOUS
 62
     5
 10
-204.00000006324001
 20
-202.2500000626975
 30
0.0
 11
-204.00000006324001
 21
202.2500000626975
 31
0.0
  0
LINE
  8
DETAIL
  6
CONTINUOUS
 62
     5
 10
-200.00000006199991
 20
203.25000006300749
 30
0.0
 11
-200.00000006199991
 21
-203.25000006300749
 31
0.0
  0
LINE
  8
DETAIL
  6
CONTINUOUS
 62
     5
 10
-198.00000006138009
 20
203.25000006300749
 30
0.0
 11
-198.00000006138009
 21
-203.25000006300749
 31
0.0
  0
LINE
  8
DETAIL
  6
CONTINUOUS
 62
     5
 10
202.00000006261999
 20
-206.25000006393751
 30
0.0
 11
-202.0000000626197
 21
-206.25000006393751
 31
0.0
  0
LINE
  8
DETAIL
  6
CONTINUOUS
 62
     5
 10
202.00000006261999
 20
-204.25000006331749
 30
0.0
 11
-202.0000000626197
 21
-204.25000006331749
 31
0.0
  0
LINE
  8
DETAIL
  6
CONTINUOUS
 62
     5
 10
-204.00000006324001
 20
-199.75000006192249
 30
0.0
 11
-200.00000006199991
 21
-199.75000006192249
 31
0.0
  0
LINE
  8
DETAIL
  6
CONTINUOUS
 62
     5
 10
-198.00000006138009
 20
-199.75000006192249
 30
0.0
 11
-61.000000018909873
 21
-199.75000006192249
 31
0.0
  0
LINE
  8
DETAIL
  6
CONTINUOUS
 62
     5
 10
-59.000000018290052
 20
-199.75000006192249
 30
0.0
 11
59.00000001829028
 21
-199.75000006192249
 31
0.0
  0
LINE
  8
DETAIL
  6
CONTINUOUS
 62
     5
 10
61.0000000189101
 20
-199.75000006192249
 30
0.0
 11
198.00000006138029
 21
-199.75000006192249
 31
0.0
  0
LINE
  8
DETAIL
  6
CONTINUOUS
 62
     5
 10
200.00000006200011
 20
-199.75000006192249
 30
0.0
 11
204.00000006324021
 21
-199.75000006192249
 31
0.0
  0
LINE
  8
DETAIL
  6
CONTINUOUS
 62
     5
 10
206.00000006386011
 20
-199.75000006192249
 30
0.0
 11
207.00000006417019
 21
-199.75000006192249
 31
0.0
  0
LINE
  8
DETAIL
  6
CONTINUOUS
 62
     5
 10
-204.00000006324001
 20
-197.7500000613025
 30
0.0
 11
-200.00000006199991
 21
-197.7500000613025
 31
0.0
  0
LINE
  8
DETAIL
  6
CONTINUOUS
 62
     5
 10
-198.00000006138009
 20
-197.7500000613025
 30
0.0
 11
-61.000000018909873
 21
-197.7500000613025
 31
0.0
  0
LINE
  8
DETAIL
  6
CONTINUOUS
 62
     5
 10
-59.000000018290052
 20
-197.7500000613025
 30
0.0
 11
59.00000001829028
 21
-197.7500000613025
 31
0.0
  0
LINE
  8
DETAIL
  6
CONTINUOUS
 62
     5
 10
61.0000000189101
 20
-197.7500000613025
 30
0.0
 11
198.00000006138029
 21
-197.7500000613025
 31
0.0
  0
LINE
  8
DETAIL
  6
CONTINUOUS
 62
     5
 10
200.00000006200011
 20
-197.7500000613025
 30
0.0
 11
204.00000006324021
 21
-197.7500000613025
 31
0.0
  0
LINE
  8
DETAIL
  6
CONTINUOUS
 62
     5
 10
206.00000006386011
 20
-197.7500000613025
 30
0.0
 11
207.00000006417019
 21
-197.7500000613025
 31
0.0
  0
LINE
  8
DETAIL
  6
CONTINUOUS
 62
     5
 10
-204.00000006324001
 20
-192.25000005959751
 30
0.0
 11
-200.00000006199991
 21
-192.25000005959751
 31
0.0
  0
LINE
  8
DETAIL
  6
CONTINUOUS
 62
     5
 10
-198.00000006138009
 20
-192.25000005959751
 30
0.0
 11
-61.000000018909873
 21
-192.25000005959751
 31
0.0
  0
LINE
  8
DETAIL
  6
CONTINUOUS
 62
     5
 10
-59.000000018290052
 20
-192.25000005959751
 30
0.0
 11
59.00000001829028
 21
-192.25000005959751
 31
0.0
  0
LINE
  8
DETAIL
  6
CONTINUOUS
 62
     5
 10
61.0000000189101
 20
-192.25000005959751
 30
0.0
 11
198.00000006138029
 21
-192.25000005959751
 31
0.0
  0
LINE
  8
DETAIL
  6
CONTINUOUS
 62
     5
 10
200.00000006200011
 20
-192.25000005959751
 30
0.0
 11
204.00000006324021
 21
-192.25000005959751
 31
0.0
  0
LINE
  8
DETAIL
  6
CONTINUOUS
 62
     5
 10
206.00000006386011
 20
-192.25000005959751
 30
0.0
 11
207.00000006417019
 21
-192.25000005959751
 31
0.0
  0
LINE
  8
DETAIL
  6
CONTINUOUS
 62
     5
 10
-204.00000006324001
 20
-190.25000005897749
 30
0.0
 11
-200.00000006199991
 21
-190.25000005897749
 31
0.0
  0
LINE
  8
DETAIL
  6
CONTINUOUS
 62
     5
 10
-198.00000006138009
 20
-190.25000005897749
 30
0.0
 11
-61.000000018909873
 21
-190.25000005897749
 31
0.0
  0
LINE
  8
DETAIL
  6
CONTINUOUS
 62
     5
 10
-59.000000018290052
 20
-190.25000005897749
 30
0.0
 11
59.00000001829028
 21
-190.25000005897749
 31
0.0
  0
LINE
  8
DETAIL
  6
CONTINUOUS
 62
     5
 10
61.0000000189101
 20
-190.25000005897749
 30
0.0
 11
198.00000006138029
 21
-190.25000005897749
 31
0.0
  0
LINE
  8
DETAIL
  6
CONTINUOUS
 62
     5
 10
200.00000006200011
 20
-190.25000005897749
 30
0.0
 11
204.00000006324021
 21
-190.25000005897749
 31
0.0
  0
LINE
  8
DETAIL
  6
CONTINUOUS
 62
     5
 10
206.00000006386011
 20
-190.25000005897749
 30
0.0
 11
207.00000006417019
 21
-190.25000005897749
 31
0.0
  0
LINE
  8
DETAIL
  6
CONTINUOUS
 62
     5
 10
-204.00000006324001
 20
-184.7500000572725
 30
0.0
 11
-200.00000006199991
 21
-184.7500000572725
 31
0.0
  0
LINE
  8
DETAIL
  6
CONTINUOUS
 62
     5
 10
-198.00000006138009
 20
-184.7500000572725
 30
0.0
 11
-61.000000018909873
 21
-184.7500000572725
 31
0.0
  0
LINE
  8
DETAIL
  6
CONTINUOUS
 62
     5
 10
-59.000000018290052
 20
-184.7500000572725
 30
0.0
 11
59.00000001829028
 21
-184.7500000572725
 31
0.0
  0
LINE
  8
DETAIL
  6
CONTINUOUS
 62
     5
 10
61.0000000189101
 20
-184.7500000572725
 30
0.0
 11
198.00000006138029
 21
-184.7500000572725
 31
0.0
  0
LINE
  8
DETAIL
  6
CONTINUOUS
 62
     5
 10
200.00000006200011
 20
-184.7500000572725
 30
0.0
 11
204.00000006324021
 21
-184.7500000572725
 31
0.0
  0
LINE
  8
DETAIL
  6
CONTINUOUS
 62
     5
 10
206.00000006386011
 20
-184.7500000572725
 30
0.0
 11
207.00000006417019
 21
-184.7500000572725
 31
0.0
  0
LINE
  8
DETAIL
  6
CONTINUOUS
 62
     5
 10
-204.00000006324001
 20
-182.75000005665251
 30
0.0
 11
-200.00000006199991
 21
-182.75000005665251
 31
0.0
  0
LINE
  8
DETAIL
  6
CONTINUOUS
 62
     5
 10
-198.00000006138009
 20
-182.75000005665251
 30
0.0
 11
-61.000000018909873
 21
-182.75000005665251
 31
0.0
  0
LINE
  8
DETAIL
  6
CONTINUOUS
 62
     5
 10
-59.000000018290052
 20
-182.75000005665251
 30
0.0
 11
59.00000001829028
 21
-182.75000005665251
 31
0.0
  0
LINE
  8
DETAIL
  6
CONTINUOUS
 62
     5
 10
61.0000000189101
 20
-182.75000005665251
 30
0.0
 11
198.00000006138029
 21
-182.75000005665251
 31
0.0
  0
LINE
  8
DETAIL
  6
CONTINUOUS
 62
     5
 10
200.00000006200011
 20
-182.75000005665251
 30
0.0
 11
204.00000006324021
 21
-182.75000005665251
 31
0.0
  0
LINE
  8
DETAIL
  6
CONTINUOUS
 62
     5
 10
206.00000006386011
 20
-182.75000005665251
 30
0.0
 11
207.00000006417019
 21
-182.75000005665251
 31
0.0
  0
LINE
  8
DETAIL
  6
CONTINUOUS
 62
     5
 10
-204.00000006324001
 20
-177.25000005494749
 30
0.0
 11
-200.00000006199991
 21
-177.25000005494749
 31
0.0
  0
LINE
  8
DETAIL
  6
CONTINUOUS
 62
     5
 10
-198.00000006138009
 20
-177.25000005494749
 30
0.0
 11
-61.000000018909873
 21
-177.25000005494749
 31
0.0
  0
LINE
  8
DETAIL
  6
CONTINUOUS
 62
     5
 10
-59.000000018290052
 20
-177.25000005494749
 30
0.0
 11
59.00000001829028
 21
-177.25000005494749
 31
0.0
  0
LINE
  8
DETAIL
  6
CONTINUOUS
 62
     5
 10
61.0000000189101
 20
-177.25000005494749
 30
0.0
 11
198.00000006138029
 21
-177.25000005494749
 31
0.0
  0
LINE
  8
DETAIL
  6
CONTINUOUS
 62
     5
 10
200.00000006200011
 20
-177.25000005494749
 30
0.0
 11
204.00000006324021
 21
-177.25000005494749
 31
0.0
  0
LINE
  8
DETAIL
  6
CONTINUOUS
 62
     5
 10
206.00000006386011
 20
-177.25000005494749
 30
0.0
 11
207.00000006417019
 21
-177.25000005494749
 31
0.0
  0
LINE
  8
DETAIL
  6
CONTINUOUS
 62
     5
 10
-204.00000006324001
 20
-175.2500000543275
 30
0.0
 11
-200.00000006199991
 21
-175.2500000543275
 31
0.0
  0
LINE
  8
DETAIL
  6
CONTINUOUS
 62
     5
 10
-198.00000006138009
 20
-175.2500000543275
 30
0.0
 11
-61.000000018909873
 21
-175.2500000543275
 31
0.0
  0
LINE
  8
DETAIL
  6
CONTINUOUS
 62
     5
 10
-59.000000018290052
 20
-175.2500000543275
 30
0.0
 11
59.00000001829028
 21
-175.2500000543275
 31
0.0
  0
LINE
  8
DETAIL
  6
CONTINUOUS
 62
     5
 10
61.0000000189101
 20
-175.2500000543275
 30
0.0
 11
198.00000006138029
 21
-175.2500000543275
 31
0.0
  0
LINE
  8
DETAIL
  6
CONTINUOUS
 62
     5
 10
200.00000006200011
 20
-175.2500000543275
 30
0.0
 11
204.00000006324021
 21
-175.2500000543275
 31
0.0
  0
LINE
  8
DETAIL
  6
CONTINUOUS
 62
     5
 10
206.00000006386011
 20
-175.2500000543275
 30
0.0
 11
207.00000006417019
 21
-175.2500000543275
 31
0.0
  0
LINE
  8
DETAIL
  6
CONTINUOUS
 62
     5
 10
-204.00000006324001
 20
-169.75000005262251
 30
0.0
 11
-200.00000006199991
 21
-169.75000005262251
 31
0.0
  0
LINE
  8
DETAIL
  6
CONTINUOUS
 62
     5
 10
-198.00000006138009
 20
-169.75000005262251
 30
0.0
 11
-61.000000018909873
 21
-169.75000005262251
 31
0.0
  0
LINE
  8
DETAIL
  6
CONTINUOUS
 62
     5
 10
-59.000000018290052
 20
-169.75000005262251
 30
0.0
 11
59.00000001829028
 21
-169.75000005262251
 31
0.0
  0
LINE
  8
DETAIL
  6
CONTINUOUS
 62
     5
 10
61.0000000189101
 20
-169.75000005262251
 30
0.0
 11
198.00000006138029
 21
-169.75000005262251
 31
0.0
  0
LINE
  8
DETAIL
  6
CONTINUOUS
 62
     5
 10
200.00000006200011
 20
-169.75000005262251
 30
0.0
 11
204.00000006324021
 21
-169.75000005262251
 31
0.0
  0
LINE
  8
DETAIL
  6
CONTINUOUS
 62
     5
 10
206.00000006386011
 20
-169.75000005262251
 30
0.0
 11
207.00000006417019
 21
-169.75000005262251
 31
0.0
  0
LINE
  8
DETAIL
  6
CONTINUOUS
 62
     5
 10
-204.00000006324001
 20
-167.75000005200249
 30
0.0
 11
-200.00000006199991
 21
-167.75000005200249
 31
0.0
  0
LINE
  8
DETAIL
  6
CONTINUOUS
 62
     5
 10
-198.00000006138009
 20
-167.75000005200249
 30
0.0
 11
-61.000000018909873
 21
-167.75000005200249
 31
0.0
  0
LINE
  8
DETAIL
  6
CONTINUOUS
 62
     5
 10
-59.000000018290052
 20
-167.75000005200249
 30
0.0
 11
59.00000001829028
 21
-167.75000005200249
 31
0.0
  0
LINE
  8
DETAIL
  6
CONTINUOUS
 62
     5
 10
61.0000000189101
 20
-167.75000005200249
 30
0.0
 11
198.00000006138029
 21
-167.75000005200249
 31
0.0
  0
LINE
  8
DETAIL
  6
CONTINUOUS
 62
     5
 10
200.00000006200011
 20
-167.75000005200249
 30
0.0
 11
204.00000006324021
 21
-167.75000005200249
 31
0.0
  0
LINE
  8
DETAIL
  6
CONTINUOUS
 62
     5
 10
206.00000006386011
 20
-167.75000005200249
 30
0.0
 11
207.00000006417019
 21
-167.75000005200249
 31
0.0
  0
LINE
  8
DETAIL
  6
CONTINUOUS
 62
     5
 10
-204.00000006324001
 20
-162.2500000502975
 30
0.0
 11
-200.00000006199991
 21
-162.2500000502975
 31
0.0
  0
LINE
  8
DETAIL
  6
CONTINUOUS
 62
     5
 10
-198.00000006138009
 20
-162.2500000502975
 30
0.0
 11
-61.000000018909873
 21
-162.2500000502975
 31
0.0
  0
LINE
  8
DETAIL
  6
CONTINUOUS
 62
     5
 10
-59.000000018290052
 20
-162.2500000502975
 30
0.0
 11
59.00000001829028
 21
-162.2500000502975
 31
0.0
  0
LINE
  8
DETAIL
  6
CONTINUOUS
 62
     5
 10
61.0000000189101
 20
-162.2500000502975
 30
0.0
 11
198.00000006138029
 21
-162.2500000502975
 31
0.0
  0
LINE
  8
DETAIL
  6
CONTINUOUS
 62
     5
 10
200.00000006200011
 20
-162.2500000502975
 30
0.0
 11
204.00000006324021
 21
-162.2500000502975
 31
0.0
  0
LINE
  8
DETAIL
  6
CONTINUOUS
 62
     5
 10
206.00000006386011
 20
-162.2500000502975
 30
0.0
 11
207.00000006417019
 21
-162.2500000502975
 31
0.0
  0
LINE
  8
DETAIL
  6
CONTINUOUS
 62
     5
 10
-204.00000006324001
 20
-160.25000004967751
 30
0.0
 11
-200.00000006199991
 21
-160.25000004967751
 31
0.0
  0
LINE
  8
DETAIL
  6
CONTINUOUS
 62
     5
 10
-198.00000006138009
 20
-160.25000004967751
 30
0.0
 11
-61.000000018909873
 21
-160.25000004967751
 31
0.0
  0
LINE
  8
DETAIL
  6
CONTINUOUS
 62
     5
 10
-59.000000018290052
 20
-160.25000004967751
 30
0.0
 11
59.00000001829028
 21
-160.25000004967751
 31
0.0
  0
LINE
  8
DETAIL
  6
CONTINUOUS
 62
     5
 10
61.0000000189101
 20
-160.25000004967751
 30
0.0
 11
198.00000006138029
 21
-160.25000004967751
 31
0.0
  0
LINE
  8
DETAIL
  6
CONTINUOUS
 62
     5
 10
200.00000006200011
 20
-160.25000004967751
 30
0.0
 11
204.00000006324021
 21
-160.25000004967751
 31
0.0
  0
LINE
  8
DETAIL
  6
CONTINUOUS
 62
     5
 10
206.00000006386011
 20
-160.25000004967751
 30
0.0
 11
207.00000006417019
 21
-160.25000004967751
 31
0.0
  0
LINE
  8
DETAIL
  6
CONTINUOUS
 62
     5
 10
-204.00000006324001
 20
-154.75000004797249
 30
0.0
 11
-200.00000006199991
 21
-154.75000004797249
 31
0.0
  0
LINE
  8
DETAIL
  6
CONTINUOUS
 62
     5
 10
-198.00000006138009
 20
-154.75000004797249
 30
0.0
 11
-61.000000018909873
 21
-154.75000004797249
 31
0.0
  0
LINE
  8
DETAIL
  6
CONTINUOUS
 62
     5
 10
-59.000000018290052
 20
-154.75000004797249
 30
0.0
 11
59.00000001829028
 21
-154.75000004797249
 31
0.0
  0
LINE
  8
DETAIL
  6
CONTINUOUS
 62
     5
 10
61.0000000189101
 20
-154.75000004797249
 30
0.0
 11
198.00000006138029
 21
-154.75000004797249
 31
0.0
  0
LINE
  8
DETAIL
  6
CONTINUOUS
 62
     5
 10
200.00000006200011
 20
-154.75000004797249
 30
0.0
 11
204.00000006324021
 21
-154.75000004797249
 31
0.0
  0
LINE
  8
DETAIL
  6
CONTINUOUS
 62
     5
 10
206.00000006386011
 20
-154.75000004797249
 30
0.0
 11
207.00000006417019
 21
-154.75000004797249
 31
0.0
  0
LINE
  8
DETAIL
  6
CONTINUOUS
 62
     5
 10
-204.00000006324001
 20
-152.7500000473525
 30
0.0
 11
-200.00000006199991
 21
-152.7500000473525
 31
0.0
  0
LINE
  8
DETAIL
  6
CONTINUOUS
 62
     5
 10
-198.00000006138009
 20
-152.7500000473525
 30
0.0
 11
-61.000000018909873
 21
-152.7500000473525
 31
0.0
  0
LINE
  8
DETAIL
  6
CONTINUOUS
 62
     5
 10
-59.000000018290052
 20
-152.7500000473525
 30
0.0
 11
59.00000001829028
 21
-152.7500000473525
 31
0.0
  0
LINE
  8
DETAIL
  6
CONTINUOUS
 62
     5
 10
61.0000000189101
 20
-152.7500000473525
 30
0.0
 11
198.00000006138029
 21
-152.7500000473525
 31
0.0
  0
LINE
  8
DETAIL
  6
CONTINUOUS
 62
     5
 10
200.00000006200011
 20
-152.7500000473525
 30
0.0
 11
204.00000006324021
 21
-152.7500000473525
 31
0.0
  0
LINE
  8
DETAIL
  6
CONTINUOUS
 62
     5
 10
206.00000006386011
 20
-152.7500000473525
 30
0.0
 11
207.00000006417019
 21
-152.7500000473525
 31
0.0
  0
LINE
  8
DETAIL
  6
CONTINUOUS
 62
     5
 10
-204.00000006324001
 20
-147.25000004564751
 30
0.0
 11
-200.00000006199991
 21
-147.25000004564751
 31
0.0
  0
LINE
  8
DETAIL
  6
CONTINUOUS
 62
     5
 10
-198.00000006138009
 20
-147.25000004564751
 30
0.0
 11
-61.000000018909873
 21
-147.25000004564751
 31
0.0
  0
LINE
  8
DETAIL
  6
CONTINUOUS
 62
     5
 10
-59.000000018290052
 20
-147.25000004564751
 30
0.0
 11
59.00000001829028
 21
-147.25000004564751
 31
0.0
  0
LINE
  8
DETAIL
  6
CONTINUOUS
 62
     5
 10
61.0000000189101
 20
-147.25000004564751
 30
0.0
 11
198.00000006138029
 21
-147.25000004564751
 31
0.0
  0
LINE
  8
DETAIL
  6
CONTINUOUS
 62
     5
 10
200.00000006200011
 20
-147.25000004564751
 30
0.0
 11
204.00000006324021
 21
-147.25000004564751
 31
0.0
  0
LINE
  8
DETAIL
  6
CONTINUOUS
 62
     5
 10
206.00000006386011
 20
-147.25000004564751
 30
0.0
 11
207.00000006417019
 21
-147.25000004564751
 31
0.0
  0
LINE
  8
DETAIL
  6
CONTINUOUS
 62
     5
 10
-204.00000006324001
 20
-145.25000004502749
 30
0.0
 11
-200.00000006199991
 21
-145.25000004502749
 31
0.0
  0
LINE
  8
DETAIL
  6
CONTINUOUS
 62
     5
 10
-198.00000006138009
 20
-145.25000004502749
 30
0.0
 11
-61.000000018909873
 21
-145.25000004502749
 31
0.0
  0
LINE
  8
DETAIL
  6
CONTINUOUS
 62
     5
 10
-59.000000018290052
 20
-145.25000004502749
 30
0.0
 11
59.00000001829028
 21
-145.25000004502749
 31
0.0
  0
LINE
  8
DETAIL
  6
CONTINUOUS
 62
     5
 10
61.0000000189101
 20
-145.25000004502749
 30
0.0
 11
198.00000006138029
 21
-145.25000004502749
 31
0.0
  0
LINE
  8
DETAIL
  6
CONTINUOUS
 62
     5
 10
200.00000006200011
 20
-145.25000004502749
 30
0.0
 11
204.00000006324021
 21
-145.25000004502749
 31
0.0
  0
LINE
  8
DETAIL
  6
CONTINUOUS
 62
     5
 10
206.00000006386011
 20
-145.25000004502749
 30
0.0
 11
207.00000006417019
 21
-145.25000004502749
 31
0.0
  0
LINE
  8
DETAIL
  6
CONTINUOUS
 62
     5
 10
-204.00000006324001
 20
-139.7500000433225
 30
0.0
 11
-200.00000006199991
 21
-139.7500000433225
 31
0.0
  0
LINE
  8
DETAIL
  6
CONTINUOUS
 62
     5
 10
-198.00000006138009
 20
-139.7500000433225
 30
0.0
 11
-61.000000018909873
 21
-139.7500000433225
 31
0.0
  0
LINE
  8
DETAIL
  6
CONTINUOUS
 62
     5
 10
-59.000000018290052
 20
-139.7500000433225
 30
0.0
 11
59.00000001829028
 21
-139.7500000433225
 31
0.0
  0
LINE
  8
DETAIL
  6
CONTINUOUS
 62
     5
 10
61.0000000189101
 20
-139.7500000433225
 30
0.0
 11
198.00000006138029
 21
-139.7500000433225
 31
0.0
  0
LINE
  8
DETAIL
  6
CONTINUOUS
 62
     5
 10
200.00000006200011
 20
-139.7500000433225
 30
0.0
 11
204.00000006324021
 21
-139.7500000433225
 31
0.0
  0
LINE
  8
DETAIL
  6
CONTINUOUS
 62
     5
 10
206.00000006386011
 20
-139.7500000433225
 30
0.0
 11
207.00000006417019
 21
-139.7500000433225
 31
0.0
  0
LINE
  8
DETAIL
  6
CONTINUOUS
 62
     5
 10
-204.00000006324001
 20
-137.75000004270251
 30
0.0
 11
-200.00000006199991
 21
-137.75000004270251
 31
0.0
  0
LINE
  8
DETAIL
  6
CONTINUOUS
 62
     5
 10
-198.00000006138009
 20
-137.75000004270251
 30
0.0
 11
-61.000000018909873
 21
-137.75000004270251
 31
0.0
  0
LINE
  8
DETAIL
  6
CONTINUOUS
 62
     5
 10
-59.000000018290052
 20
-137.75000004270251
 30
0.0
 11
59.00000001829028
 21
-137.75000004270251
 31
0.0
  0
LINE
  8
DETAIL
  6
CONTINUOUS
 62
     5
 10
61.0000000189101
 20
-137.75000004270251
 30
0.0
 11
198.00000006138029
 21
-137.75000004270251
 31
0.0
  0
LINE
  8
DETAIL
  6
CONTINUOUS
 62
     5
 10
200.00000006200011
 20
-137.75000004270251
 30
0.0
 11
204.00000006324021
 21
-137.75000004270251
 31
0.0
  0
LINE
  8
DETAIL
  6
CONTINUOUS
 62
     5
 10
206.00000006386011
 20
-137.75000004270251
 30
0.0
 11
207.00000006417019
 21
-137.75000004270251
 31
0.0
  0
LINE
  8
DETAIL
  6
CONTINUOUS
 62
     5
 10
-204.00000006324001
 20
-132.25000004099749
 30
0.0
 11
-200.00000006199991
 21
-132.25000004099749
 31
0.0
  0
LINE
  8
DETAIL
  6
CONTINUOUS
 62
     5
 10
-198.00000006138009
 20
-132.25000004099749
 30
0.0
 11
-61.000000018909873
 21
-132.25000004099749
 31
0.0
  0
LINE
  8
DETAIL
  6
CONTINUOUS
 62
     5
 10
-59.000000018290052
 20
-132.25000004099749
 30
0.0
 11
59.00000001829028
 21
-132.25000004099749
 31
0.0
  0
LINE
  8
DETAIL
  6
CONTINUOUS
 62
     5
 10
61.0000000189101
 20
-132.25000004099749
 30
0.0
 11
198.00000006138029
 21
-132.25000004099749
 31
0.0
  0
LINE
  8
DETAIL
  6
CONTINUOUS
 62
     5
 10
200.00000006200011
 20
-132.25000004099749
 30
0.0
 11
204.00000006324021
 21
-132.25000004099749
 31
0.0
  0
LINE
  8
DETAIL
  6
CONTINUOUS
 62
     5
 10
206.00000006386011
 20
-132.25000004099749
 30
0.0
 11
207.00000006417019
 21
-132.25000004099749
 31
0.0
  0
LINE
  8
DETAIL
  6
CONTINUOUS
 62
     5
 10
-204.00000006324001
 20
-130.2500000403775
 30
0.0
 11
-200.00000006199991
 21
-130.2500000403775
 31
0.0
  0
LINE
  8
DETAIL
  6
CONTINUOUS
 62
     5
 10
-198.00000006138009
 20
-130.2500000403775
 30
0.0
 11
-61.000000018909873
 21
-130.2500000403775
 31
0.0
  0
LINE
  8
DETAIL
  6
CONTINUOUS
 62
     5
 10
-59.000000018290052
 20
-130.2500000403775
 30
0.0
 11
59.00000001829028
 21
-130.2500000403775
 31
0.0
  0
LINE
  8
DETAIL
  6
CONTINUOUS
 62
     5
 10
61.0000000189101
 20
-130.2500000403775
 30
0.0
 11
198.00000006138029
 21
-130.2500000403775
 31
0.0
  0
LINE
  8
DETAIL
  6
CONTINUOUS
 62
     5
 10
200.00000006200011
 20
-130.2500000403775
 30
0.0
 11
204.00000006324021
 21
-130.2500000403775
 31
0.0
  0
LINE
  8
DETAIL
  6
CONTINUOUS
 62
     5
 10
206.00000006386011
 20
-130.2500000403775
 30
0.0
 11
207.00000006417019
 21
-130.2500000403775
 31
0.0
  0
LINE
  8
DETAIL
  6
CONTINUOUS
 62
     5
 10
-204.00000006324001
 20
-124.7500000386725
 30
0.0
 11
-200.00000006199991
 21
-124.7500000386725
 31
0.0
  0
LINE
  8
DETAIL
  6
CONTINUOUS
 62
     5
 10
-198.00000006138009
 20
-124.7500000386725
 30
0.0
 11
-61.000000018909873
 21
-124.7500000386725
 31
0.0
  0
LINE
  8
DETAIL
  6
CONTINUOUS
 62
     5
 10
-59.000000018290052
 20
-124.7500000386725
 30
0.0
 11
59.00000001829028
 21
-124.7500000386725
 31
0.0
  0
LINE
  8
DETAIL
  6
CONTINUOUS
 62
     5
 10
61.0000000189101
 20
-124.7500000386725
 30
0.0
 11
198.00000006138029
 21
-124.7500000386725
 31
0.0
  0
LINE
  8
DETAIL
  6
CONTINUOUS
 62
     5
 10
200.00000006200011
 20
-124.7500000386725
 30
0.0
 11
204.00000006324021
 21
-124.7500000386725
 31
0.0
  0
LINE
  8
DETAIL
  6
CONTINUOUS
 62
     5
 10
206.00000006386011
 20
-124.7500000386725
 30
0.0
 11
207.00000006417019
 21
-124.7500000386725
 31
0.0
  0
LINE
  8
DETAIL
  6
CONTINUOUS
 62
     5
 10
-204.00000006324001
 20
-122.75000003805251
 30
0.0
 11
-200.00000006199991
 21
-122.75000003805251
 31
0.0
  0
LINE
  8
DETAIL
  6
CONTINUOUS
 62
     5
 10
-198.00000006138009
 20
-122.75000003805251
 30
0.0
 11
-61.000000018909873
 21
-122.75000003805251
 31
0.0
  0
LINE
  8
DETAIL
  6
CONTINUOUS
 62
     5
 10
-59.000000018290052
 20
-122.75000003805251
 30
0.0
 11
59.00000001829028
 21
-122.75000003805251
 31
0.0
  0
LINE
  8
DETAIL
  6
CONTINUOUS
 62
     5
 10
61.0000000189101
 20
-122.75000003805251
 30
0.0
 11
198.00000006138029
 21
-122.75000003805251
 31
0.0
  0
LINE
  8
DETAIL
  6
CONTINUOUS
 62
     5
 10
200.00000006200011
 20
-122.75000003805251
 30
0.0
 11
204.00000006324021
 21
-122.75000003805251
 31
0.0
  0
LINE
  8
DETAIL
  6
CONTINUOUS
 62
     5
 10
206.00000006386011
 20
-122.75000003805251
 30
0.0
 11
207.00000006417019
 21
-122.75000003805251
 31
0.0
  0
LINE
  8
DETAIL
  6
CONTINUOUS
 62
     5
 10
-204.00000006324001
 20
-117.2500000363475
 30
0.0
 11
-200.00000006199991
 21
-117.2500000363475
 31
0.0
  0
LINE
  8
DETAIL
  6
CONTINUOUS
 62
     5
 10
-198.00000006138009
 20
-117.2500000363475
 30
0.0
 11
-61.000000018909873
 21
-117.2500000363475
 31
0.0
  0
LINE
  8
DETAIL
  6
CONTINUOUS
 62
     5
 10
-59.000000018290052
 20
-117.2500000363475
 30
0.0
 11
59.00000001829028
 21
-117.2500000363475
 31
0.0
  0
LINE
  8
DETAIL
  6
CONTINUOUS
 62
     5
 10
61.0000000189101
 20
-117.2500000363475
 30
0.0
 11
198.00000006138029
 21
-117.2500000363475
 31
0.0
  0
LINE
  8
DETAIL
  6
CONTINUOUS
 62
     5
 10
200.00000006200011
 20
-117.2500000363475
 30
0.0
 11
204.00000006324021
 21
-117.2500000363475
 31
0.0
  0
LINE
  8
DETAIL
  6
CONTINUOUS
 62
     5
 10
206.00000006386011
 20
-117.2500000363475
 30
0.0
 11
207.00000006417019
 21
-117.2500000363475
 31
0.0
  0
LINE
  8
DETAIL
  6
CONTINUOUS
 62
     5
 10
-204.00000006324001
 20
-115.2500000357275
 30
0.0
 11
-200.00000006199991
 21
-115.2500000357275
 31
0.0
  0
LINE
  8
DETAIL
  6
CONTINUOUS
 62
     5
 10
-198.00000006138009
 20
-115.2500000357275
 30
0.0
 11
-61.000000018909873
 21
-115.2500000357275
 31
0.0
  0
LINE
  8
DETAIL
  6
CONTINUOUS
 62
     5
 10
-59.000000018290052
 20
-115.2500000357275
 30
0.0
 11
59.00000001829028
 21
-115.2500000357275
 31
0.0
  0
LINE
  8
DETAIL
  6
CONTINUOUS
 62
     5
 10
61.0000000189101
 20
-115.2500000357275
 30
0.0
 11
198.00000006138029
 21
-115.2500000357275
 31
0.0
  0
LINE
  8
DETAIL
  6
CONTINUOUS
 62
     5
 10
200.00000006200011
 20
-115.2500000357275
 30
0.0
 11
204.00000006324021
 21
-115.2500000357275
 31
0.0
  0
LINE
  8
DETAIL
  6
CONTINUOUS
 62
     5
 10
206.00000006386011
 20
-115.2500000357275
 30
0.0
 11
207.00000006417019
 21
-115.2500000357275
 31
0.0
  0
LINE
  8
DETAIL
  6
CONTINUOUS
 62
     5
 10
-99.000000030689648
 20
92.750000028752538
 30
0.0
 11
-99.000000030689648
 21
87.250000027047463
 31
0.0
  0
LINE
  8
DETAIL
  6
CONTINUOUS
 62
     5
 10
-99.000000030689648
 20
85.250000026427529
 30
0.0
 11
-99.000000030689648
 21
79.750000024722453
 31
0.0
  0
LINE
  8
DETAIL
  6
CONTINUOUS
 62
     5
 10
-99.000000030689648
 20
77.750000024102519
 30
0.0
 11
-99.000000030689648
 21
75.50000002340505
 31
0.0
  0
LINE
  8
DETAIL
  6
CONTINUOUS
 62
     5
 10
-99.000000030689648
 20
93.500000028985028
 30
0.0
 11
-99.000000030689648
 21
95.100000029480952
 31
0.0
  0
LINE
  8
DETAIL
  6
CONTINUOUS
 62
     5
 10
-64.000000019839831
 20
90.500000028054956
 30
0.0
 11
-61.000000018909873
 21
93.500000028985028
 31
0.0
  0
LINE
  8
DETAIL
  6
CONTINUOUS
 62
     5
 10
-64.000000019839831
 20
72.500000022474978
 30
0.0
 11
-61.000000018909873
 21
75.50000002340505
 31
0.0
  0
LINE
  8
DETAIL
  6
CONTINUOUS
 62
     5
 10
-204.00000006324001
 20
-109.75000003402251
 30
0.0
 11
-200.00000006199991
 21
-109.75000003402251
 31
0.0
  0
LINE
  8
DETAIL
  6
CONTINUOUS
 62
     5
 10
-198.00000006138009
 20
-109.75000003402251
 30
0.0
 11
-61.000000018909873
 21
-109.75000003402251
 31
0.0
  0
LINE
  8
DETAIL
  6
CONTINUOUS
 62
     5
 10
-59.000000018290052
 20
-109.75000003402251
 30
0.0
 11
59.00000001829028
 21
-109.75000003402251
 31
0.0
  0
LINE
  8
DETAIL
  6
CONTINUOUS
 62
     5
 10
61.0000000189101
 20
-109.75000003402251
 30
0.0
 11
198.00000006138029
 21
-109.75000003402251
 31
0.0
  0
LINE
  8
DETAIL
  6
CONTINUOUS
 62
     5
 10
200.00000006200011
 20
-109.75000003402251
 30
0.0
 11
204.00000006324021
 21
-109.75000003402251
 31
0.0
  0
LINE
  8
DETAIL
  6
CONTINUOUS
 62
     5
 10
206.00000006386011
 20
-109.75000003402251
 30
0.0
 11
207.00000006417019
 21
-109.75000003402251
 31
0.0
  0
LINE
  8
DETAIL
  6
CONTINUOUS
 62
     5
 10
-204.00000006324001
 20
-107.7500000334025
 30
0.0
 11
-200.00000006199991
 21
-107.7500000334025
 31
0.0
  0
LINE
  8
DETAIL
  6
CONTINUOUS
 62
     5
 10
-198.00000006138009
 20
-107.7500000334025
 30
0.0
 11
-61.000000018909873
 21
-107.7500000334025
 31
0.0
  0
LINE
  8
DETAIL
  6
CONTINUOUS
 62
     5
 10
-59.000000018290052
 20
-107.7500000334025
 30
0.0
 11
59.00000001829028
 21
-107.7500000334025
 31
0.0
  0
LINE
  8
DETAIL
  6
CONTINUOUS
 62
     5
 10
61.0000000189101
 20
-107.7500000334025
 30
0.0
 11
198.00000006138029
 21
-107.7500000334025
 31
0.0
  0
LINE
  8
DETAIL
  6
CONTINUOUS
 62
     5
 10
200.00000006200011
 20
-107.7500000334025
 30
0.0
 11
204.00000006324021
 21
-107.7500000334025
 31
0.0
  0
LINE
  8
DETAIL
  6
CONTINUOUS
 62
     5
 10
206.00000006386011
 20
-107.7500000334025
 30
0.0
 11
207.00000006417019
 21
-107.7500000334025
 31
0.0
  0
LINE
  8
DETAIL
  6
CONTINUOUS
 62
     5
 10
-204.00000006324001
 20
-102.2500000316975
 30
0.0
 11
-200.00000006199991
 21
-102.2500000316975
 31
0.0
  0
LINE
  8
DETAIL
  6
CONTINUOUS
 62
     5
 10
-198.00000006138009
 20
-102.2500000316975
 30
0.0
 11
-61.000000018909873
 21
-102.2500000316975
 31
0.0
  0
LINE
  8
DETAIL
  6
CONTINUOUS
 62
     5
 10
-59.000000018290052
 20
-102.2500000316975
 30
0.0
 11
59.00000001829028
 21
-102.2500000316975
 31
0.0
  0
LINE
  8
DETAIL
  6
CONTINUOUS
 62
     5
 10
61.0000000189101
 20
-102.2500000316975
 30
0.0
 11
198.00000006138029
 21
-102.2500000316975
 31
0.0
  0
LINE
  8
DETAIL
  6
CONTINUOUS
 62
     5
 10
200.00000006200011
 20
-102.2500000316975
 30
0.0
 11
204.00000006324021
 21
-102.2500000316975
 31
0.0
  0
LINE
  8
DETAIL
  6
CONTINUOUS
 62
     5
 10
206.00000006386011
 20
-102.2500000316975
 30
0.0
 11
207.00000006417019
 21
-102.2500000316975
 31
0.0
  0
LINE
  8
DETAIL
  6
CONTINUOUS
 62
     5
 10
-204.00000006324001
 20
-100.25000003107751
 30
0.0
 11
-200.00000006199991
 21
-100.25000003107751
 31
0.0
  0
LINE
  8
DETAIL
  6
CONTINUOUS
 62
     5
 10
-198.00000006138009
 20
-100.25000003107751
 30
0.0
 11
-61.000000018909873
 21
-100.25000003107751
 31
0.0
  0
LINE
  8
DETAIL
  6
CONTINUOUS
 62
     5
 10
-59.000000018290052
 20
-100.25000003107751
 30
0.0
 11
59.00000001829028
 21
-100.25000003107751
 31
0.0
  0
LINE
  8
DETAIL
  6
CONTINUOUS
 62
     5
 10
61.0000000189101
 20
-100.25000003107751
 30
0.0
 11
198.00000006138029
 21
-100.25000003107751
 31
0.0
  0
LINE
  8
DETAIL
  6
CONTINUOUS
 62
     5
 10
200.00000006200011
 20
-100.25000003107751
 30
0.0
 11
204.00000006324021
 21
-100.25000003107751
 31
0.0
  0
LINE
  8
DETAIL
  6
CONTINUOUS
 62
     5
 10
206.00000006386011
 20
-100.25000003107751
 30
0.0
 11
207.00000006417019
 21
-100.25000003107751
 31
0.0
  0
LINE
  8
DETAIL
  6
CONTINUOUS
 62
     5
 10
-82.800000025668055
 20
82.500000025574991
 30
0.0
 11
-82.800000025668055
 21
80.000000024799988
 31
0.0
  0
LINE
  8
DETAIL
  6
CONTINUOUS
 62
     5
 10
-77.200000023931921
 20
80.000000024799988
 30
0.0
 11
-77.200000023931921
 21
82.500000025574991
 31
0.0
  0
LINE
  8
DETAIL
  6
CONTINUOUS
 62
     5
 10
-204.00000006324001
 20
-94.750000029372472
 30
0.0
 11
-200.00000006199991
 21
-94.750000029372472
 31
0.0
  0
LINE
  8
DETAIL
  6
CONTINUOUS
 62
     5
 10
-198.00000006138009
 20
-94.750000029372472
 30
0.0
 11
-61.000000018909873
 21
-94.750000029372472
 31
0.0
  0
LINE
  8
DETAIL
  6
CONTINUOUS
 62
     5
 10
-59.000000018290052
 20
-94.750000029372472
 30
0.0
 11
59.00000001829028
 21
-94.750000029372472
 31
0.0
  0
LINE
  8
DETAIL
  6
CONTINUOUS
 62
     5
 10
61.0000000189101
 20
-94.750000029372472
 30
0.0
 11
198.00000006138029
 21
-94.750000029372472
 31
0.0
  0
LINE
  8
DETAIL
  6
CONTINUOUS
 62
     5
 10
200.00000006200011
 20
-94.750000029372472
 30
0.0
 11
204.00000006324021
 21
-94.750000029372472
 31
0.0
  0
LINE
  8
DETAIL
  6
CONTINUOUS
 62
     5
 10
206.00000006386011
 20
-94.750000029372472
 30
0.0
 11
207.00000006417019
 21
-94.750000029372472
 31
0.0
  0
LINE
  8
DETAIL
  6
CONTINUOUS
 62
     5
 10
-204.00000006324001
 20
-92.750000028752538
 30
0.0
 11
-200.00000006199991
 21
-92.750000028752538
 31
0.0
  0
LINE
  8
DETAIL
  6
CONTINUOUS
 62
     5
 10
-198.00000006138009
 20
-92.750000028752538
 30
0.0
 11
-61.000000018909873
 21
-92.750000028752538
 31
0.0
  0
LINE
  8
DETAIL
  6
CONTINUOUS
 62
     5
 10
-59.000000018290052
 20
-92.750000028752538
 30
0.0
 11
59.00000001829028
 21
-92.750000028752538
 31
0.0
  0
LINE
  8
DETAIL
  6
CONTINUOUS
 62
     5
 10
61.0000000189101
 20
-92.750000028752538
 30
0.0
 11
198.00000006138029
 21
-92.750000028752538
 31
0.0
  0
LINE
  8
DETAIL
  6
CONTINUOUS
 62
     5
 10
200.00000006200011
 20
-92.750000028752538
 30
0.0
 11
204.00000006324021
 21
-92.750000028752538
 31
0.0
  0
LINE
  8
DETAIL
  6
CONTINUOUS
 62
     5
 10
206.00000006386011
 20
-92.750000028752538
 30
0.0
 11
207.00000006417019
 21
-92.750000028752538
 31
0.0
  0
LINE
  8
DETAIL
  6
CONTINUOUS
 62
     5
 10
-204.00000006324001
 20
-87.250000027047463
 30
0.0
 11
-200.00000006199991
 21
-87.250000027047463
 31
0.0
  0
LINE
  8
DETAIL
  6
CONTINUOUS
 62
     5
 10
-198.00000006138009
 20
-87.250000027047463
 30
0.0
 11
-61.000000018909873
 21
-87.250000027047463
 31
0.0
  0
LINE
  8
DETAIL
  6
CONTINUOUS
 62
     5
 10
-59.000000018290052
 20
-87.250000027047463
 30
0.0
 11
59.00000001829028
 21
-87.250000027047463
 31
0.0
  0
LINE
  8
DETAIL
  6
CONTINUOUS
 62
     5
 10
61.0000000189101
 20
-87.250000027047463
 30
0.0
 11
198.00000006138029
 21
-87.250000027047463
 31
0.0
  0
LINE
  8
DETAIL
  6
CONTINUOUS
 62
     5
 10
200.00000006200011
 20
-87.250000027047463
 30
0.0
 11
204.00000006324021
 21
-87.250000027047463
 31
0.0
  0
LINE
  8
DETAIL
  6
CONTINUOUS
 62
     5
 10
206.00000006386011
 20
-87.250000027047463
 30
0.0
 11
207.00000006417019
 21
-87.250000027047463
 31
0.0
  0
LINE
  8
DETAIL
  6
CONTINUOUS
 62
     5
 10
-204.00000006324001
 20
-85.250000026427529
 30
0.0
 11
-200.00000006199991
 21
-85.250000026427529
 31
0.0
  0
LINE
  8
DETAIL
  6
CONTINUOUS
 62
     5
 10
-198.00000006138009
 20
-85.250000026427529
 30
0.0
 11
-61.000000018909873
 21
-85.250000026427529
 31
0.0
  0
LINE
  8
DETAIL
  6
CONTINUOUS
 62
     5
 10
-59.000000018290052
 20
-85.250000026427529
 30
0.0
 11
59.00000001829028
 21
-85.250000026427529
 31
0.0
  0
LINE
  8
DETAIL
  6
CONTINUOUS
 62
     5
 10
61.0000000189101
 20
-85.250000026427529
 30
0.0
 11
198.00000006138029
 21
-85.250000026427529
 31
0.0
  0
LINE
  8
DETAIL
  6
CONTINUOUS
 62
     5
 10
200.00000006200011
 20
-85.250000026427529
 30
0.0
 11
204.00000006324021
 21
-85.250000026427529
 31
0.0
  0
LINE
  8
DETAIL
  6
CONTINUOUS
 62
     5
 10
206.00000006386011
 20
-85.250000026427529
 30
0.0
 11
207.00000006417019
 21
-85.250000026427529
 31
0.0
  0
LINE
  8
DETAIL
  6
CONTINUOUS
 62
     5
 10
-204.00000006324001
 20
-79.750000024722453
 30
0.0
 11
-200.00000006199991
 21
-79.750000024722453
 31
0.0
  0
LINE
  8
DETAIL
  6
CONTINUOUS
 62
     5
 10
-198.00000006138009
 20
-79.750000024722453
 30
0.0
 11
-61.000000018909873
 21
-79.750000024722453
 31
0.0
  0
LINE
  8
DETAIL
  6
CONTINUOUS
 62
     5
 10
-59.000000018290052
 20
-79.750000024722453
 30
0.0
 11
59.00000001829028
 21
-79.750000024722453
 31
0.0
  0
LINE
  8
DETAIL
  6
CONTINUOUS
 62
     5
 10
61.0000000189101
 20
-79.750000024722453
 30
0.0
 11
198.00000006138029
 21
-79.750000024722453
 31
0.0
  0
LINE
  8
DETAIL
  6
CONTINUOUS
 62
     5
 10
200.00000006200011
 20
-79.750000024722453
 30
0.0
 11
204.00000006324021
 21
-79.750000024722453
 31
0.0
  0
LINE
  8
DETAIL
  6
CONTINUOUS
 62
     5
 10
206.00000006386011
 20
-79.750000024722453
 30
0.0
 11
207.00000006417019
 21
-79.750000024722453
 31
0.0
  0
LINE
  8
DETAIL
  6
CONTINUOUS
 62
     5
 10
-204.00000006324001
 20
-77.750000024102519
 30
0.0
 11
-200.00000006199991
 21
-77.750000024102519
 31
0.0
  0
LINE
  8
DETAIL
  6
CONTINUOUS
 62
     5
 10
-198.00000006138009
 20
-77.750000024102519
 30
0.0
 11
-61.000000018909873
 21
-77.750000024102519
 31
0.0
  0
LINE
  8
DETAIL
  6
CONTINUOUS
 62
     5
 10
-59.000000018290052
 20
-77.750000024102519
 30
0.0
 11
59.00000001829028
 21
-77.750000024102519
 31
0.0
  0
LINE
  8
DETAIL
  6
CONTINUOUS
 62
     5
 10
61.0000000189101
 20
-77.750000024102519
 30
0.0
 11
198.00000006138029
 21
-77.750000024102519
 31
0.0
  0
LINE
  8
DETAIL
  6
CONTINUOUS
 62
     5
 10
200.00000006200011
 20
-77.750000024102519
 30
0.0
 11
204.00000006324021
 21
-77.750000024102519
 31
0.0
  0
LINE
  8
DETAIL
  6
CONTINUOUS
 62
     5
 10
206.00000006386011
 20
-77.750000024102519
 30
0.0
 11
207.00000006417019
 21
-77.750000024102519
 31
0.0
  0
LINE
  8
DETAIL
  6
CONTINUOUS
 62
     5
 10
-61.000000018909873
 20
203.25000006300749
 30
0.0
 11
-61.000000018909873
 21
95.100000029480952
 31
0.0
  0
LINE
  8
DETAIL
  6
CONTINUOUS
 62
     5
 10
-61.000000018909873
 20
93.500000028985028
 30
0.0
 11
-61.000000018909873
 21
-203.25000006300749
 31
0.0
  0
LINE
  8
DETAIL
  6
CONTINUOUS
 62
     5
 10
-61.000000018909873
 20
93.500000028985028
 30
0.0
 11
-61.000000018909873
 21
95.100000029480952
 31
0.0
  0
LINE
  8
DETAIL
  6
CONTINUOUS
 62
     5
 10
-59.000000018290052
 20
203.25000006300749
 30
0.0
 11
-59.000000018290052
 21
-203.25000006300749
 31
0.0
  0
LINE
  8
DETAIL
  6
CONTINUOUS
 62
     5
 10
-57.000000017669777
 20
206.25000006393751
 30
0.0
 11
-57.000000017669777
 21
204.25000006331749
 31
0.0
  0
LINE
  8
DETAIL
  6
CONTINUOUS
 62
     5
 10
-57.000000017669777
 20
-206.25000006393751
 30
0.0
 11
-57.000000017669777
 21
-204.25000006331749
 31
0.0
  0
LINE
  8
DETAIL
  6
CONTINUOUS
 62
     5
 10
-204.00000006324001
 20
-72.250000022397501
 30
0.0
 11
-200.00000006199991
 21
-72.250000022397501
 31
0.0
  0
LINE
  8
DETAIL
  6
CONTINUOUS
 62
     5
 10
-198.00000006138009
 20
-72.250000022397501
 30
0.0
 11
-61.000000018909873
 21
-72.250000022397501
 31
0.0
  0
LINE
  8
DETAIL
  6
CONTINUOUS
 62
     5
 10
-59.000000018290052
 20
-72.250000022397501
 30
0.0
 11
59.00000001829028
 21
-72.250000022397501
 31
0.0
  0
LINE
  8
DETAIL
  6
CONTINUOUS
 62
     5
 10
61.0000000189101
 20
-72.250000022397501
 30
0.0
 11
198.00000006138029
 21
-72.250000022397501
 31
0.0
  0
LINE
  8
DETAIL
  6
CONTINUOUS
 62
     5
 10
200.00000006200011
 20
-72.250000022397501
 30
0.0
 11
204.00000006324021
 21
-72.250000022397501
 31
0.0
  0
LINE
  8
DETAIL
  6
CONTINUOUS
 62
     5
 10
206.00000006386011
 20
-72.250000022397501
 30
0.0
 11
207.00000006417019
 21
-72.250000022397501
 31
0.0
  0
LINE
  8
DETAIL
  6
CONTINUOUS
 62
     5
 10
-204.00000006324001
 20
-70.25000002177751
 30
0.0
 11
-200.00000006199991
 21
-70.25000002177751
 31
0.0
  0
LINE
  8
DETAIL
  6
CONTINUOUS
 62
     5
 10
-198.00000006138009
 20
-70.25000002177751
 30
0.0
 11
-61.000000018909873
 21
-70.25000002177751
 31
0.0
  0
LINE
  8
DETAIL
  6
CONTINUOUS
 62
     5
 10
-59.000000018290052
 20
-70.25000002177751
 30
0.0
 11
59.00000001829028
 21
-70.25000002177751
 31
0.0
  0
LINE
  8
DETAIL
  6
CONTINUOUS
 62
     5
 10
61.0000000189101
 20
-70.25000002177751
 30
0.0
 11
198.00000006138029
 21
-70.25000002177751
 31
0.0
  0
LINE
  8
DETAIL
  6
CONTINUOUS
 62
     5
 10
200.00000006200011
 20
-70.25000002177751
 30
0.0
 11
204.00000006324021
 21
-70.25000002177751
 31
0.0
  0
LINE
  8
DETAIL
  6
CONTINUOUS
 62
     5
 10
206.00000006386011
 20
-70.25000002177751
 30
0.0
 11
207.00000006417019
 21
-70.25000002177751
 31
0.0
  0
LINE
  8
DETAIL
  6
CONTINUOUS
 62
     5
 10
-204.00000006324001
 20
-64.750000020072548
 30
0.0
 11
-200.00000006199991
 21
-64.750000020072548
 31
0.0
  0
LINE
  8
DETAIL
  6
CONTINUOUS
 62
     5
 10
-198.00000006138009
 20
-64.750000020072548
 30
0.0
 11
-61.000000018909873
 21
-64.750000020072548
 31
0.0
  0
LINE
  8
DETAIL
  6
CONTINUOUS
 62
     5
 10
-59.000000018290052
 20
-64.750000020072548
 30
0.0
 11
59.00000001829028
 21
-64.750000020072548
 31
0.0
  0
LINE
  8
DETAIL
  6
CONTINUOUS
 62
     5
 10
61.0000000189101
 20
-64.750000020072548
 30
0.0
 11
198.00000006138029
 21
-64.750000020072548
 31
0.0
  0
LINE
  8
DETAIL
  6
CONTINUOUS
 62
     5
 10
200.00000006200011
 20
-64.750000020072548
 30
0.0
 11
204.00000006324021
 21
-64.750000020072548
 31
0.0
  0
LINE
  8
DETAIL
  6
CONTINUOUS
 62
     5
 10
206.00000006386011
 20
-64.750000020072548
 30
0.0
 11
207.00000006417019
 21
-64.750000020072548
 31
0.0
  0
LINE
  8
DETAIL
  6
CONTINUOUS
 62
     5
 10
-204.00000006324001
 20
-62.7500000194525
 30
0.0
 11
-200.00000006199991
 21
-62.7500000194525
 31
0.0
  0
LINE
  8
DETAIL
  6
CONTINUOUS
 62
     5
 10
-198.00000006138009
 20
-62.7500000194525
 30
0.0
 11
-61.000000018909873
 21
-62.7500000194525
 31
0.0
  0
LINE
  8
DETAIL
  6
CONTINUOUS
 62
     5
 10
-59.000000018290052
 20
-62.7500000194525
 30
0.0
 11
59.00000001829028
 21
-62.7500000194525
 31
0.0
  0
LINE
  8
DETAIL
  6
CONTINUOUS
 62
     5
 10
61.0000000189101
 20
-62.7500000194525
 30
0.0
 11
198.00000006138029
 21
-62.7500000194525
 31
0.0
  0
LINE
  8
DETAIL
  6
CONTINUOUS
 62
     5
 10
200.00000006200011
 20
-62.7500000194525
 30
0.0
 11
204.00000006324021
 21
-62.7500000194525
 31
0.0
  0
LINE
  8
DETAIL
  6
CONTINUOUS
 62
     5
 10
206.00000006386011
 20
-62.7500000194525
 30
0.0
 11
207.00000006417019
 21
-62.7500000194525
 31
0.0
  0
LINE
  8
DETAIL
  6
CONTINUOUS
 62
     5
 10
-204.00000006324001
 20
-57.250000017747539
 30
0.0
 11
-200.00000006199991
 21
-57.250000017747539
 31
0.0
  0
LINE
  8
DETAIL
  6
CONTINUOUS
 62
     5
 10
-198.00000006138009
 20
-57.250000017747539
 30
0.0
 11
-61.000000018909873
 21
-57.250000017747539
 31
0.0
  0
LINE
  8
DETAIL
  6
CONTINUOUS
 62
     5
 10
-59.000000018290052
 20
-57.250000017747539
 30
0.0
 11
59.00000001829028
 21
-57.250000017747539
 31
0.0
  0
LINE
  8
DETAIL
  6
CONTINUOUS
 62
     5
 10
61.0000000189101
 20
-57.250000017747539
 30
0.0
 11
198.00000006138029
 21
-57.250000017747539
 31
0.0
  0
LINE
  8
DETAIL
  6
CONTINUOUS
 62
     5
 10
200.00000006200011
 20
-57.250000017747539
 30
0.0
 11
204.00000006324021
 21
-57.250000017747539
 31
0.0
  0
LINE
  8
DETAIL
  6
CONTINUOUS
 62
     5
 10
206.00000006386011
 20
-57.250000017747539
 30
0.0
 11
207.00000006417019
 21
-57.250000017747539
 31
0.0
  0
LINE
  8
DETAIL
  6
CONTINUOUS
 62
     5
 10
-204.00000006324001
 20
-55.250000017127491
 30
0.0
 11
-200.00000006199991
 21
-55.250000017127491
 31
0.0
  0
LINE
  8
DETAIL
  6
CONTINUOUS
 62
     5
 10
-198.00000006138009
 20
-55.250000017127491
 30
0.0
 11
-61.000000018909873
 21
-55.250000017127491
 31
0.0
  0
LINE
  8
DETAIL
  6
CONTINUOUS
 62
     5
 10
-59.000000018290052
 20
-55.250000017127491
 30
0.0
 11
59.00000001829028
 21
-55.250000017127491
 31
0.0
  0
LINE
  8
DETAIL
  6
CONTINUOUS
 62
     5
 10
61.0000000189101
 20
-55.250000017127491
 30
0.0
 11
198.00000006138029
 21
-55.250000017127491
 31
0.0
  0
LINE
  8
DETAIL
  6
CONTINUOUS
 62
     5
 10
200.00000006200011
 20
-55.250000017127491
 30
0.0
 11
204.00000006324021
 21
-55.250000017127491
 31
0.0
  0
LINE
  8
DETAIL
  6
CONTINUOUS
 62
     5
 10
206.00000006386011
 20
-55.250000017127491
 30
0.0
 11
207.00000006417019
 21
-55.250000017127491
 31
0.0
  0
LINE
  8
DETAIL
  6
CONTINUOUS
 62
     5
 10
-204.00000006324001
 20
-49.750000015422529
 30
0.0
 11
-200.00000006199991
 21
-49.750000015422529
 31
0.0
  0
LINE
  8
DETAIL
  6
CONTINUOUS
 62
     5
 10
-198.00000006138009
 20
-49.750000015422529
 30
0.0
 11
-61.000000018909873
 21
-49.750000015422529
 31
0.0
  0
LINE
  8
DETAIL
  6
CONTINUOUS
 62
     5
 10
-59.000000018290052
 20
-49.750000015422529
 30
0.0
 11
59.00000001829028
 21
-49.750000015422529
 31
0.0
  0
LINE
  8
DETAIL
  6
CONTINUOUS
 62
     5
 10
61.0000000189101
 20
-49.750000015422529
 30
0.0
 11
198.00000006138029
 21
-49.750000015422529
 31
0.0
  0
LINE
  8
DETAIL
  6
CONTINUOUS
 62
     5
 10
200.00000006200011
 20
-49.750000015422529
 30
0.0
 11
204.00000006324021
 21
-49.750000015422529
 31
0.0
  0
LINE
  8
DETAIL
  6
CONTINUOUS
 62
     5
 10
206.00000006386011
 20
-49.750000015422529
 30
0.0
 11
207.00000006417019
 21
-49.750000015422529
 31
0.0
  0
LINE
  8
DETAIL
  6
CONTINUOUS
 62
     5
 10
-204.00000006324001
 20
-47.750000014802481
 30
0.0
 11
-200.00000006199991
 21
-47.750000014802481
 31
0.0
  0
LINE
  8
DETAIL
  6
CONTINUOUS
 62
     5
 10
-198.00000006138009
 20
-47.750000014802481
 30
0.0
 11
-61.000000018909873
 21
-47.750000014802481
 31
0.0
  0
LINE
  8
DETAIL
  6
CONTINUOUS
 62
     5
 10
-59.000000018290052
 20
-47.750000014802481
 30
0.0
 11
59.00000001829028
 21
-47.750000014802481
 31
0.0
  0
LINE
  8
DETAIL
  6
CONTINUOUS
 62
     5
 10
61.0000000189101
 20
-47.750000014802481
 30
0.0
 11
198.00000006138029
 21
-47.750000014802481
 31
0.0
  0
LINE
  8
DETAIL
  6
CONTINUOUS
 62
     5
 10
200.00000006200011
 20
-47.750000014802481
 30
0.0
 11
204.00000006324021
 21
-47.750000014802481
 31
0.0
  0
LINE
  8
DETAIL
  6
CONTINUOUS
 62
     5
 10
206.00000006386011
 20
-47.750000014802481
 30
0.0
 11
207.00000006417019
 21
-47.750000014802481
 31
0.0
  0
LINE
  8
DETAIL
  6
CONTINUOUS
 62
     5
 10
-204.00000006324001
 20
-42.25000001309752
 30
0.0
 11
-200.00000006199991
 21
-42.25000001309752
 31
0.0
  0
LINE
  8
DETAIL
  6
CONTINUOUS
 62
     5
 10
-198.00000006138009
 20
-42.25000001309752
 30
0.0
 11
-61.000000018909873
 21
-42.25000001309752
 31
0.0
  0
LINE
  8
DETAIL
  6
CONTINUOUS
 62
     5
 10
-59.000000018290052
 20
-42.25000001309752
 30
0.0
 11
59.00000001829028
 21
-42.25000001309752
 31
0.0
  0
LINE
  8
DETAIL
  6
CONTINUOUS
 62
     5
 10
61.0000000189101
 20
-42.25000001309752
 30
0.0
 11
198.00000006138029
 21
-42.25000001309752
 31
0.0
  0
LINE
  8
DETAIL
  6
CONTINUOUS
 62
     5
 10
200.00000006200011
 20
-42.25000001309752
 30
0.0
 11
204.00000006324021
 21
-42.25000001309752
 31
0.0
  0
LINE
  8
DETAIL
  6
CONTINUOUS
 62
     5
 10
206.00000006386011
 20
-42.25000001309752
 30
0.0
 11
207.00000006417019
 21
-42.25000001309752
 31
0.0
  0
LINE
  8
DETAIL
  6
CONTINUOUS
 62
     5
 10
-204.00000006324001
 20
-40.250000012477472
 30
0.0
 11
-200.00000006199991
 21
-40.250000012477472
 31
0.0
  0
LINE
  8
DETAIL
  6
CONTINUOUS
 62
     5
 10
-198.00000006138009
 20
-40.250000012477472
 30
0.0
 11
-61.000000018909873
 21
-40.250000012477472
 31
0.0
  0
LINE
  8
DETAIL
  6
CONTINUOUS
 62
     5
 10
-59.000000018290052
 20
-40.250000012477472
 30
0.0
 11
59.00000001829028
 21
-40.250000012477472
 31
0.0
  0
LINE
  8
DETAIL
  6
CONTINUOUS
 62
     5
 10
61.0000000189101
 20
-40.250000012477472
 30
0.0
 11
198.00000006138029
 21
-40.250000012477472
 31
0.0
  0
LINE
  8
DETAIL
  6
CONTINUOUS
 62
     5
 10
200.00000006200011
 20
-40.250000012477472
 30
0.0
 11
204.00000006324021
 21
-40.250000012477472
 31
0.0
  0
LINE
  8
DETAIL
  6
CONTINUOUS
 62
     5
 10
206.00000006386011
 20
-40.250000012477472
 30
0.0
 11
207.00000006417019
 21
-40.250000012477472
 31
0.0
  0
LINE
  8
DETAIL
  6
CONTINUOUS
 62
     5
 10
-204.00000006324001
 20
-34.75000001077251
 30
0.0
 11
-200.00000006199991
 21
-34.75000001077251
 31
0.0
  0
LINE
  8
DETAIL
  6
CONTINUOUS
 62
     5
 10
-198.00000006138009
 20
-34.75000001077251
 30
0.0
 11
-61.000000018909873
 21
-34.75000001077251
 31
0.0
  0
LINE
  8
DETAIL
  6
CONTINUOUS
 62
     5
 10
-59.000000018290052
 20
-34.75000001077251
 30
0.0
 11
59.00000001829028
 21
-34.75000001077251
 31
0.0
  0
LINE
  8
DETAIL
  6
CONTINUOUS
 62
     5
 10
61.0000000189101
 20
-34.75000001077251
 30
0.0
 11
198.00000006138029
 21
-34.75000001077251
 31
0.0
  0
LINE
  8
DETAIL
  6
CONTINUOUS
 62
     5
 10
200.00000006200011
 20
-34.75000001077251
 30
0.0
 11
204.00000006324021
 21
-34.75000001077251
 31
0.0
  0
LINE
  8
DETAIL
  6
CONTINUOUS
 62
     5
 10
206.00000006386011
 20
-34.75000001077251
 30
0.0
 11
207.00000006417019
 21
-34.75000001077251
 31
0.0
  0
LINE
  8
DETAIL
  6
CONTINUOUS
 62
     5
 10
-204.00000006324001
 20
-32.750000010152462
 30
0.0
 11
-200.00000006199991
 21
-32.750000010152462
 31
0.0
  0
LINE
  8
DETAIL
  6
CONTINUOUS
 62
     5
 10
-198.00000006138009
 20
-32.750000010152462
 30
0.0
 11
-61.000000018909873
 21
-32.750000010152462
 31
0.0
  0
LINE
  8
DETAIL
  6
CONTINUOUS
 62
     5
 10
-59.000000018290052
 20
-32.750000010152462
 30
0.0
 11
59.00000001829028
 21
-32.750000010152462
 31
0.0
  0
LINE
  8
DETAIL
  6
CONTINUOUS
 62
     5
 10
61.0000000189101
 20
-32.750000010152462
 30
0.0
 11
198.00000006138029
 21
-32.750000010152462
 31
0.0
  0
LINE
  8
DETAIL
  6
CONTINUOUS
 62
     5
 10
200.00000006200011
 20
-32.750000010152462
 30
0.0
 11
204.00000006324021
 21
-32.750000010152462
 31
0.0
  0
LINE
  8
DETAIL
  6
CONTINUOUS
 62
     5
 10
206.00000006386011
 20
-32.750000010152462
 30
0.0
 11
207.00000006417019
 21
-32.750000010152462
 31
0.0
  0
LINE
  8
DETAIL
  6
CONTINUOUS
 62
     5
 10
-204.00000006324001
 20
-27.2500000084475
 30
0.0
 11
-200.00000006199991
 21
-27.2500000084475
 31
0.0
  0
LINE
  8
DETAIL
  6
CONTINUOUS
 62
     5
 10
-198.00000006138009
 20
-27.2500000084475
 30
0.0
 11
-61.000000018909873
 21
-27.2500000084475
 31
0.0
  0
LINE
  8
DETAIL
  6
CONTINUOUS
 62
     5
 10
-59.000000018290052
 20
-27.2500000084475
 30
0.0
 11
59.00000001829028
 21
-27.2500000084475
 31
0.0
  0
LINE
  8
DETAIL
  6
CONTINUOUS
 62
     5
 10
61.0000000189101
 20
-27.2500000084475
 30
0.0
 11
198.00000006138029
 21
-27.2500000084475
 31
0.0
  0
LINE
  8
DETAIL
  6
CONTINUOUS
 62
     5
 10
200.00000006200011
 20
-27.2500000084475
 30
0.0
 11
204.00000006324021
 21
-27.2500000084475
 31
0.0
  0
LINE
  8
DETAIL
  6
CONTINUOUS
 62
     5
 10
206.00000006386011
 20
-27.2500000084475
 30
0.0
 11
207.00000006417019
 21
-27.2500000084475
 31
0.0
  0
LINE
  8
DETAIL
  6
CONTINUOUS
 62
     5
 10
-204.00000006324001
 20
-25.250000007827509
 30
0.0
 11
-200.00000006199991
 21
-25.250000007827509
 31
0.0
  0
LINE
  8
DETAIL
  6
CONTINUOUS
 62
     5
 10
-198.00000006138009
 20
-25.250000007827509
 30
0.0
 11
-61.000000018909873
 21
-25.250000007827509
 31
0.0
  0
LINE
  8
DETAIL
  6
CONTINUOUS
 62
     5
 10
-59.000000018290052
 20
-25.250000007827509
 30
0.0
 11
59.00000001829028
 21
-25.250000007827509
 31
0.0
  0
LINE
  8
DETAIL
  6
CONTINUOUS
 62
     5
 10
61.0000000189101
 20
-25.250000007827509
 30
0.0
 11
198.00000006138029
 21
-25.250000007827509
 31
0.0
  0
LINE
  8
DETAIL
  6
CONTINUOUS
 62
     5
 10
200.00000006200011
 20
-25.250000007827509
 30
0.0
 11
204.00000006324021
 21
-25.250000007827509
 31
0.0
  0
LINE
  8
DETAIL
  6
CONTINUOUS
 62
     5
 10
206.00000006386011
 20
-25.250000007827509
 30
0.0
 11
207.00000006417019
 21
-25.250000007827509
 31
0.0
  0
LINE
  8
DETAIL
  6
CONTINUOUS
 62
     5
 10
-204.00000006324001
 20
-19.750000006122491
 30
0.0
 11
-200.00000006199991
 21
-19.750000006122491
 31
0.0
  0
LINE
  8
DETAIL
  6
CONTINUOUS
 62
     5
 10
-198.00000006138009
 20
-19.750000006122491
 30
0.0
 11
-61.000000018909873
 21
-19.750000006122491
 31
0.0
  0
LINE
  8
DETAIL
  6
CONTINUOUS
 62
     5
 10
-59.000000018290052
 20
-19.750000006122491
 30
0.0
 11
59.00000001829028
 21
-19.750000006122491
 31
0.0
  0
LINE
  8
DETAIL
  6
CONTINUOUS
 62
     5
 10
61.0000000189101
 20
-19.750000006122491
 30
0.0
 11
198.00000006138029
 21
-19.750000006122491
 31
0.0
  0
LINE
  8
DETAIL
  6
CONTINUOUS
 62
     5
 10
200.00000006200011
 20
-19.750000006122491
 30
0.0
 11
204.00000006324021
 21
-19.750000006122491
 31
0.0
  0
LINE
  8
DETAIL
  6
CONTINUOUS
 62
     5
 10
206.00000006386011
 20
-19.750000006122491
 30
0.0
 11
207.00000006417019
 21
-19.750000006122491
 31
0.0
  0
LINE
  8
DETAIL
  6
CONTINUOUS
 62
     5
 10
-204.00000006324001
 20
-17.75000000550256
 30
0.0
 11
-200.00000006199991
 21
-17.75000000550256
 31
0.0
  0
LINE
  8
DETAIL
  6
CONTINUOUS
 62
     5
 10
-198.00000006138009
 20
-17.75000000550256
 30
0.0
 11
-61.000000018909873
 21
-17.75000000550256
 31
0.0
  0
LINE
  8
DETAIL
  6
CONTINUOUS
 62
     5
 10
-59.000000018290052
 20
-17.75000000550256
 30
0.0
 11
59.00000001829028
 21
-17.75000000550256
 31
0.0
  0
LINE
  8
DETAIL
  6
CONTINUOUS
 62
     5
 10
61.0000000189101
 20
-17.75000000550256
 30
0.0
 11
198.00000006138029
 21
-17.75000000550256
 31
0.0
  0
LINE
  8
DETAIL
  6
CONTINUOUS
 62
     5
 10
200.00000006200011
 20
-17.75000000550256
 30
0.0
 11
204.00000006324021
 21
-17.75000000550256
 31
0.0
  0
LINE
  8
DETAIL
  6
CONTINUOUS
 62
     5
 10
206.00000006386011
 20
-17.75000000550256
 30
0.0
 11
207.00000006417019
 21
-17.75000000550256
 31
0.0
  0
LINE
  8
DETAIL
  6
CONTINUOUS
 62
     5
 10
-204.00000006324001
 20
-12.25000000379748
 30
0.0
 11
-200.00000006199991
 21
-12.25000000379748
 31
0.0
  0
LINE
  8
DETAIL
  6
CONTINUOUS
 62
     5
 10
-198.00000006138009
 20
-12.25000000379748
 30
0.0
 11
-61.000000018909873
 21
-12.25000000379748
 31
0.0
  0
LINE
  8
DETAIL
  6
CONTINUOUS
 62
     5
 10
-59.000000018290052
 20
-12.25000000379748
 30
0.0
 11
59.00000001829028
 21
-12.25000000379748
 31
0.0
  0
LINE
  8
DETAIL
  6
CONTINUOUS
 62
     5
 10
61.0000000189101
 20
-12.25000000379748
 30
0.0
 11
198.00000006138029
 21
-12.25000000379748
 31
0.0
  0
LINE
  8
DETAIL
  6
CONTINUOUS
 62
     5
 10
200.00000006200011
 20
-12.25000000379748
 30
0.0
 11
204.00000006324021
 21
-12.25000000379748
 31
0.0
  0
LINE
  8
DETAIL
  6
CONTINUOUS
 62
     5
 10
206.00000006386011
 20
-12.25000000379748
 30
0.0
 11
207.00000006417019
 21
-12.25000000379748
 31
0.0
  0
LINE
  8
DETAIL
  6
CONTINUOUS
 62
     5
 10
-204.00000006324001
 20
-10.250000003177551
 30
0.0
 11
-200.00000006199991
 21
-10.250000003177551
 31
0.0
  0
LINE
  8
DETAIL
  6
CONTINUOUS
 62
     5
 10
-198.00000006138009
 20
-10.250000003177551
 30
0.0
 11
-61.000000018909873
 21
-10.250000003177551
 31
0.0
  0
LINE
  8
DETAIL
  6
CONTINUOUS
 62
     5
 10
-59.000000018290052
 20
-10.250000003177551
 30
0.0
 11
59.00000001829028
 21
-10.250000003177551
 31
0.0
  0
LINE
  8
DETAIL
  6
CONTINUOUS
 62
     5
 10
61.0000000189101
 20
-10.250000003177551
 30
0.0
 11
198.00000006138029
 21
-10.250000003177551
 31
0.0
  0
LINE
  8
DETAIL
  6
CONTINUOUS
 62
     5
 10
200.00000006200011
 20
-10.250000003177551
 30
0.0
 11
204.00000006324021
 21
-10.250000003177551
 31
0.0
  0
LINE
  8
DETAIL
  6
CONTINUOUS
 62
     5
 10
206.00000006386011
 20
-10.250000003177551
 30
0.0
 11
207.00000006417019
 21
-10.250000003177551
 31
0.0
  0
LINE
  8
DETAIL
  6
CONTINUOUS
 62
     5
 10
-204.00000006324001
 20
-4.7500000014724719
 30
0.0
 11
-200.00000006199991
 21
-4.7500000014724719
 31
0.0
  0
LINE
  8
DETAIL
  6
CONTINUOUS
 62
     5
 10
-198.00000006138009
 20
-4.7500000014724719
 30
0.0
 11
-61.000000018909873
 21
-4.7500000014724719
 31
0.0
  0
LINE
  8
DETAIL
  6
CONTINUOUS
 62
     5
 10
-59.000000018290052
 20
-4.7500000014724719
 30
0.0
 11
59.00000001829028
 21
-4.7500000014724719
 31
0.0
  0
LINE
  8
DETAIL
  6
CONTINUOUS
 62
     5
 10
61.0000000189101
 20
-4.7500000014724719
 30
0.0
 11
198.00000006138029
 21
-4.7500000014724719
 31
0.0
  0
LINE
  8
DETAIL
  6
CONTINUOUS
 62
     5
 10
200.00000006200011
 20
-4.7500000014724719
 30
0.0
 11
204.00000006324021
 21
-4.7500000014724719
 31
0.0
  0
LINE
  8
DETAIL
  6
CONTINUOUS
 62
     5
 10
206.00000006386011
 20
-4.7500000014724719
 30
0.0
 11
207.00000006417019
 21
-4.7500000014724719
 31
0.0
  0
LINE
  8
DETAIL
  6
CONTINUOUS
 62
     5
 10
-204.00000006324001
 20
-2.750000000852538
 30
0.0
 11
-200.00000006199991
 21
-2.750000000852538
 31
0.0
  0
LINE
  8
DETAIL
  6
CONTINUOUS
 62
     5
 10
-198.00000006138009
 20
-2.750000000852538
 30
0.0
 11
-61.000000018909873
 21
-2.750000000852538
 31
0.0
  0
LINE
  8
DETAIL
  6
CONTINUOUS
 62
     5
 10
-59.000000018290052
 20
-2.750000000852538
 30
0.0
 11
59.00000001829028
 21
-2.750000000852538
 31
0.0
  0
LINE
  8
DETAIL
  6
CONTINUOUS
 62
     5
 10
61.0000000189101
 20
-2.750000000852538
 30
0.0
 11
198.00000006138029
 21
-2.750000000852538
 31
0.0
  0
LINE
  8
DETAIL
  6
CONTINUOUS
 62
     5
 10
200.00000006200011
 20
-2.750000000852538
 30
0.0
 11
204.00000006324021
 21
-2.750000000852538
 31
0.0
  0
LINE
  8
DETAIL
  6
CONTINUOUS
 62
     5
 10
206.00000006386011
 20
-2.750000000852538
 30
0.0
 11
207.00000006417019
 21
-2.750000000852538
 31
0.0
  0
LINE
  8
DETAIL
  6
CONTINUOUS
 62
     5
 10
-99.000000030689648
 20
75.50000002340505
 30
0.0
 11
-96.00000002975969
 21
72.500000022474978
 31
0.0
  0
LINE
  8
DETAIL
  6
CONTINUOUS
 62
     5
 10
-99.000000030689648
 20
93.500000028985028
 30
0.0
 11
-96.00000002975969
 21
90.500000028054956
 31
0.0
  0
LINE
  8
DETAIL
  6
CONTINUOUS
 62
     5
 10
96.000000029759917
 20
90.500000028054956
 30
0.0
 11
99.000000030689876
 21
93.500000028985028
 31
0.0
  0
LINE
  8
DETAIL
  6
CONTINUOUS
 62
     5
 10
96.000000029759917
 20
72.500000022474978
 30
0.0
 11
99.000000030689876
 21
75.50000002340505
 31
0.0
  0
LINE
  8
DETAIL
  6
CONTINUOUS
 62
     5
 10
-204.00000006324001
 20
2.7500000008524812
 30
0.0
 11
-200.00000006199991
 21
2.7500000008524812
 31
0.0
  0
LINE
  8
DETAIL
  6
CONTINUOUS
 62
     5
 10
-198.00000006138009
 20
2.7500000008524812
 30
0.0
 11
-61.000000018909873
 21
2.7500000008524812
 31
0.0
  0
LINE
  8
DETAIL
  6
CONTINUOUS
 62
     5
 10
-59.000000018290052
 20
2.7500000008524812
 30
0.0
 11
59.00000001829028
 21
2.7500000008524812
 31
0.0
  0
LINE
  8
DETAIL
  6
CONTINUOUS
 62
     5
 10
61.0000000189101
 20
2.7500000008524812
 30
0.0
 11
198.00000006138029
 21
2.7500000008524812
 31
0.0
  0
LINE
  8
DETAIL
  6
CONTINUOUS
 62
     5
 10
200.00000006200011
 20
2.7500000008524812
 30
0.0
 11
204.00000006324021
 21
2.7500000008524812
 31
0.0
  0
LINE
  8
DETAIL
  6
CONTINUOUS
 62
     5
 10
206.00000006386011
 20
2.7500000008524812
 30
0.0
 11
207.00000006417019
 21
2.7500000008524812
 31
0.0
  0
LINE
  8
DETAIL
  6
CONTINUOUS
 62
     5
 10
-204.00000006324001
 20
4.7500000014724719
 30
0.0
 11
-200.00000006199991
 21
4.7500000014724719
 31
0.0
  0
LINE
  8
DETAIL
  6
CONTINUOUS
 62
     5
 10
-198.00000006138009
 20
4.7500000014724719
 30
0.0
 11
-61.000000018909873
 21
4.7500000014724719
 31
0.0
  0
LINE
  8
DETAIL
  6
CONTINUOUS
 62
     5
 10
-59.000000018290052
 20
4.7500000014724719
 30
0.0
 11
59.00000001829028
 21
4.7500000014724719
 31
0.0
  0
LINE
  8
DETAIL
  6
CONTINUOUS
 62
     5
 10
61.0000000189101
 20
4.7500000014724719
 30
0.0
 11
198.00000006138029
 21
4.7500000014724719
 31
0.0
  0
LINE
  8
DETAIL
  6
CONTINUOUS
 62
     5
 10
200.00000006200011
 20
4.7500000014724719
 30
0.0
 11
204.00000006324021
 21
4.7500000014724719
 31
0.0
  0
LINE
  8
DETAIL
  6
CONTINUOUS
 62
     5
 10
206.00000006386011
 20
4.7500000014724719
 30
0.0
 11
207.00000006417019
 21
4.7500000014724719
 31
0.0
  0
LINE
  8
DETAIL
  6
CONTINUOUS
 62
     5
 10
-204.00000006324001
 20
10.25000000317749
 30
0.0
 11
-200.00000006199991
 21
10.25000000317749
 31
0.0
  0
LINE
  8
DETAIL
  6
CONTINUOUS
 62
     5
 10
-198.00000006138009
 20
10.25000000317749
 30
0.0
 11
-61.000000018909873
 21
10.25000000317749
 31
0.0
  0
LINE
  8
DETAIL
  6
CONTINUOUS
 62
     5
 10
-59.000000018290052
 20
10.25000000317749
 30
0.0
 11
59.00000001829028
 21
10.25000000317749
 31
0.0
  0
LINE
  8
DETAIL
  6
CONTINUOUS
 62
     5
 10
61.0000000189101
 20
10.25000000317749
 30
0.0
 11
198.00000006138029
 21
10.25000000317749
 31
0.0
  0
LINE
  8
DETAIL
  6
CONTINUOUS
 62
     5
 10
200.00000006200011
 20
10.25000000317749
 30
0.0
 11
204.00000006324021
 21
10.25000000317749
 31
0.0
  0
LINE
  8
DETAIL
  6
CONTINUOUS
 62
     5
 10
206.00000006386011
 20
10.25000000317749
 30
0.0
 11
207.00000006417019
 21
10.25000000317749
 31
0.0
  0
LINE
  8
DETAIL
  6
CONTINUOUS
 62
     5
 10
-204.00000006324001
 20
12.25000000379751
 30
0.0
 11
-200.00000006199991
 21
12.25000000379751
 31
0.0
  0
LINE
  8
DETAIL
  6
CONTINUOUS
 62
     5
 10
-198.00000006138009
 20
12.25000000379751
 30
0.0
 11
-61.000000018909873
 21
12.25000000379751
 31
0.0
  0
LINE
  8
DETAIL
  6
CONTINUOUS
 62
     5
 10
-59.000000018290052
 20
12.25000000379751
 30
0.0
 11
59.00000001829028
 21
12.25000000379751
 31
0.0
  0
LINE
  8
DETAIL
  6
CONTINUOUS
 62
     5
 10
61.0000000189101
 20
12.25000000379751
 30
0.0
 11
198.00000006138029
 21
12.25000000379751
 31
0.0
  0
LINE
  8
DETAIL
  6
CONTINUOUS
 62
     5
 10
200.00000006200011
 20
12.25000000379751
 30
0.0
 11
204.00000006324021
 21
12.25000000379751
 31
0.0
  0
LINE
  8
DETAIL
  6
CONTINUOUS
 62
     5
 10
206.00000006386011
 20
12.25000000379751
 30
0.0
 11
207.00000006417019
 21
12.25000000379751
 31
0.0
  0
LINE
  8
DETAIL
  6
CONTINUOUS
 62
     5
 10
-204.00000006324001
 20
17.7500000055025
 30
0.0
 11
-200.00000006199991
 21
17.7500000055025
 31
0.0
  0
LINE
  8
DETAIL
  6
CONTINUOUS
 62
     5
 10
-198.00000006138009
 20
17.7500000055025
 30
0.0
 11
-61.000000018909873
 21
17.7500000055025
 31
0.0
  0
LINE
  8
DETAIL
  6
CONTINUOUS
 62
     5
 10
-59.000000018290052
 20
17.7500000055025
 30
0.0
 11
59.00000001829028
 21
17.7500000055025
 31
0.0
  0
LINE
  8
DETAIL
  6
CONTINUOUS
 62
     5
 10
61.0000000189101
 20
17.7500000055025
 30
0.0
 11
198.00000006138029
 21
17.7500000055025
 31
0.0
  0
LINE
  8
DETAIL
  6
CONTINUOUS
 62
     5
 10
200.00000006200011
 20
17.7500000055025
 30
0.0
 11
204.00000006324021
 21
17.7500000055025
 31
0.0
  0
LINE
  8
DETAIL
  6
CONTINUOUS
 62
     5
 10
206.00000006386011
 20
17.7500000055025
 30
0.0
 11
207.00000006417019
 21
17.7500000055025
 31
0.0
  0
LINE
  8
DETAIL
  6
CONTINUOUS
 62
     5
 10
-204.00000006324001
 20
19.750000006122491
 30
0.0
 11
-200.00000006199991
 21
19.750000006122491
 31
0.0
  0
LINE
  8
DETAIL
  6
CONTINUOUS
 62
     5
 10
-198.00000006138009
 20
19.750000006122491
 30
0.0
 11
-61.000000018909873
 21
19.750000006122491
 31
0.0
  0
LINE
  8
DETAIL
  6
CONTINUOUS
 62
     5
 10
-59.000000018290052
 20
19.750000006122491
 30
0.0
 11
59.00000001829028
 21
19.750000006122491
 31
0.0
  0
LINE
  8
DETAIL
  6
CONTINUOUS
 62
     5
 10
61.0000000189101
 20
19.750000006122491
 30
0.0
 11
198.00000006138029
 21
19.750000006122491
 31
0.0
  0
LINE
  8
DETAIL
  6
CONTINUOUS
 62
     5
 10
200.00000006200011
 20
19.750000006122491
 30
0.0
 11
204.00000006324021
 21
19.750000006122491
 31
0.0
  0
LINE
  8
DETAIL
  6
CONTINUOUS
 62
     5
 10
206.00000006386011
 20
19.750000006122491
 30
0.0
 11
207.00000006417019
 21
19.750000006122491
 31
0.0
  0
LINE
  8
DETAIL
  6
CONTINUOUS
 62
     5
 10
-204.00000006324001
 20
25.250000007827481
 30
0.0
 11
-200.00000006199991
 21
25.250000007827481
 31
0.0
  0
LINE
  8
DETAIL
  6
CONTINUOUS
 62
     5
 10
-198.00000006138009
 20
25.250000007827481
 30
0.0
 11
-61.000000018909873
 21
25.250000007827481
 31
0.0
  0
LINE
  8
DETAIL
  6
CONTINUOUS
 62
     5
 10
-59.000000018290052
 20
25.250000007827481
 30
0.0
 11
59.00000001829028
 21
25.250000007827481
 31
0.0
  0
LINE
  8
DETAIL
  6
CONTINUOUS
 62
     5
 10
61.0000000189101
 20
25.250000007827481
 30
0.0
 11
198.00000006138029
 21
25.250000007827481
 31
0.0
  0
LINE
  8
DETAIL
  6
CONTINUOUS
 62
     5
 10
200.00000006200011
 20
25.250000007827481
 30
0.0
 11
204.00000006324021
 21
25.250000007827481
 31
0.0
  0
LINE
  8
DETAIL
  6
CONTINUOUS
 62
     5
 10
206.00000006386011
 20
25.250000007827481
 30
0.0
 11
207.00000006417019
 21
25.250000007827481
 31
0.0
  0
LINE
  8
DETAIL
  6
CONTINUOUS
 62
     5
 10
-204.00000006324001
 20
27.250000008447469
 30
0.0
 11
-200.00000006199991
 21
27.250000008447469
 31
0.0
  0
LINE
  8
DETAIL
  6
CONTINUOUS
 62
     5
 10
-198.00000006138009
 20
27.250000008447469
 30
0.0
 11
-61.000000018909873
 21
27.250000008447469
 31
0.0
  0
LINE
  8
DETAIL
  6
CONTINUOUS
 62
     5
 10
-59.000000018290052
 20
27.250000008447469
 30
0.0
 11
59.00000001829028
 21
27.250000008447469
 31
0.0
  0
LINE
  8
DETAIL
  6
CONTINUOUS
 62
     5
 10
61.0000000189101
 20
27.250000008447469
 30
0.0
 11
198.00000006138029
 21
27.250000008447469
 31
0.0
  0
LINE
  8
DETAIL
  6
CONTINUOUS
 62
     5
 10
200.00000006200011
 20
27.250000008447469
 30
0.0
 11
204.00000006324021
 21
27.250000008447469
 31
0.0
  0
LINE
  8
DETAIL
  6
CONTINUOUS
 62
     5
 10
206.00000006386011
 20
27.250000008447469
 30
0.0
 11
207.00000006417019
 21
27.250000008447469
 31
0.0
  0
LINE
  8
DETAIL
  6
CONTINUOUS
 62
     5
 10
-204.00000006324001
 20
32.75000001015249
 30
0.0
 11
-200.00000006199991
 21
32.75000001015249
 31
0.0
  0
LINE
  8
DETAIL
  6
CONTINUOUS
 62
     5
 10
-198.00000006138009
 20
32.75000001015249
 30
0.0
 11
-61.000000018909873
 21
32.75000001015249
 31
0.0
  0
LINE
  8
DETAIL
  6
CONTINUOUS
 62
     5
 10
-59.000000018290052
 20
32.75000001015249
 30
0.0
 11
59.00000001829028
 21
32.75000001015249
 31
0.0
  0
LINE
  8
DETAIL
  6
CONTINUOUS
 62
     5
 10
61.0000000189101
 20
32.75000001015249
 30
0.0
 11
198.00000006138029
 21
32.75000001015249
 31
0.0
  0
LINE
  8
DETAIL
  6
CONTINUOUS
 62
     5
 10
200.00000006200011
 20
32.75000001015249
 30
0.0
 11
204.00000006324021
 21
32.75000001015249
 31
0.0
  0
LINE
  8
DETAIL
  6
CONTINUOUS
 62
     5
 10
206.00000006386011
 20
32.75000001015249
 30
0.0
 11
207.00000006417019
 21
32.75000001015249
 31
0.0
  0
LINE
  8
DETAIL
  6
CONTINUOUS
 62
     5
 10
-204.00000006324001
 20
34.750000010772482
 30
0.0
 11
-200.00000006199991
 21
34.750000010772482
 31
0.0
  0
LINE
  8
DETAIL
  6
CONTINUOUS
 62
     5
 10
-198.00000006138009
 20
34.750000010772482
 30
0.0
 11
-61.000000018909873
 21
34.750000010772482
 31
0.0
  0
LINE
  8
DETAIL
  6
CONTINUOUS
 62
     5
 10
-59.000000018290052
 20
34.750000010772482
 30
0.0
 11
59.00000001829028
 21
34.750000010772482
 31
0.0
  0
LINE
  8
DETAIL
  6
CONTINUOUS
 62
     5
 10
61.0000000189101
 20
34.750000010772482
 30
0.0
 11
198.00000006138029
 21
34.750000010772482
 31
0.0
  0
LINE
  8
DETAIL
  6
CONTINUOUS
 62
     5
 10
200.00000006200011
 20
34.750000010772482
 30
0.0
 11
204.00000006324021
 21
34.750000010772482
 31
0.0
  0
LINE
  8
DETAIL
  6
CONTINUOUS
 62
     5
 10
206.00000006386011
 20
34.750000010772482
 30
0.0
 11
207.00000006417019
 21
34.750000010772482
 31
0.0
  0
LINE
  8
DETAIL
  6
CONTINUOUS
 62
     5
 10
-204.00000006324001
 20
40.2500000124775
 30
0.0
 11
-200.00000006199991
 21
40.2500000124775
 31
0.0
  0
LINE
  8
DETAIL
  6
CONTINUOUS
 62
     5
 10
-198.00000006138009
 20
40.2500000124775
 30
0.0
 11
-61.000000018909873
 21
40.2500000124775
 31
0.0
  0
LINE
  8
DETAIL
  6
CONTINUOUS
 62
     5
 10
-59.000000018290052
 20
40.2500000124775
 30
0.0
 11
59.00000001829028
 21
40.2500000124775
 31
0.0
  0
LINE
  8
DETAIL
  6
CONTINUOUS
 62
     5
 10
61.0000000189101
 20
40.2500000124775
 30
0.0
 11
198.00000006138029
 21
40.2500000124775
 31
0.0
  0
LINE
  8
DETAIL
  6
CONTINUOUS
 62
     5
 10
200.00000006200011
 20
40.2500000124775
 30
0.0
 11
204.00000006324021
 21
40.2500000124775
 31
0.0
  0
LINE
  8
DETAIL
  6
CONTINUOUS
 62
     5
 10
206.00000006386011
 20
40.2500000124775
 30
0.0
 11
207.00000006417019
 21
40.2500000124775
 31
0.0
  0
LINE
  8
DETAIL
  6
CONTINUOUS
 62
     5
 10
57.000000017669997
 20
206.25000006393751
 30
0.0
 11
57.000000017669997
 21
204.25000006331749
 31
0.0
  0
LINE
  8
DETAIL
  6
CONTINUOUS
 62
     5
 10
57.000000017669997
 20
-206.25000006393751
 30
0.0
 11
57.000000017669997
 21
-204.25000006331749
 31
0.0
  0
LINE
  8
DETAIL
  6
CONTINUOUS
 62
     5
 10
59.00000001829028
 20
203.25000006300749
 30
0.0
 11
59.00000001829028
 21
-203.25000006300749
 31
0.0
  0
LINE
  8
DETAIL
  6
CONTINUOUS
 62
     5
 10
61.0000000189101
 20
203.25000006300749
 30
0.0
 11
61.0000000189101
 21
95.100000029480952
 31
0.0
  0
LINE
  8
DETAIL
  6
CONTINUOUS
 62
     5
 10
61.0000000189101
 20
93.500000028985028
 30
0.0
 11
61.0000000189101
 21
-203.25000006300749
 31
0.0
  0
LINE
  8
DETAIL
  6
CONTINUOUS
 62
     5
 10
61.0000000189101
 20
93.500000028985028
 30
0.0
 11
61.0000000189101
 21
95.100000029480952
 31
0.0
  0
LINE
  8
DETAIL
  6
CONTINUOUS
 62
     5
 10
-204.00000006324001
 20
42.250000013097491
 30
0.0
 11
-200.00000006199991
 21
42.250000013097491
 31
0.0
  0
LINE
  8
DETAIL
  6
CONTINUOUS
 62
     5
 10
-198.00000006138009
 20
42.250000013097491
 30
0.0
 11
-61.000000018909873
 21
42.250000013097491
 31
0.0
  0
LINE
  8
DETAIL
  6
CONTINUOUS
 62
     5
 10
-59.000000018290052
 20
42.250000013097491
 30
0.0
 11
59.00000001829028
 21
42.250000013097491
 31
0.0
  0
LINE
  8
DETAIL
  6
CONTINUOUS
 62
     5
 10
61.0000000189101
 20
42.250000013097491
 30
0.0
 11
198.00000006138029
 21
42.250000013097491
 31
0.0
  0
LINE
  8
DETAIL
  6
CONTINUOUS
 62
     5
 10
200.00000006200011
 20
42.250000013097491
 30
0.0
 11
204.00000006324021
 21
42.250000013097491
 31
0.0
  0
LINE
  8
DETAIL
  6
CONTINUOUS
 62
     5
 10
206.00000006386011
 20
42.250000013097491
 30
0.0
 11
207.00000006417019
 21
42.250000013097491
 31
0.0
  0
LINE
  8
DETAIL
  6
CONTINUOUS
 62
     5
 10
-204.00000006324001
 20
47.750000014802509
 30
0.0
 11
-200.00000006199991
 21
47.750000014802509
 31
0.0
  0
LINE
  8
DETAIL
  6
CONTINUOUS
 62
     5
 10
-198.00000006138009
 20
47.750000014802509
 30
0.0
 11
-61.000000018909873
 21
47.750000014802509
 31
0.0
  0
LINE
  8
DETAIL
  6
CONTINUOUS
 62
     5
 10
-59.000000018290052
 20
47.750000014802509
 30
0.0
 11
59.00000001829028
 21
47.750000014802509
 31
0.0
  0
LINE
  8
DETAIL
  6
CONTINUOUS
 62
     5
 10
61.0000000189101
 20
47.750000014802509
 30
0.0
 11
198.00000006138029
 21
47.750000014802509
 31
0.0
  0
LINE
  8
DETAIL
  6
CONTINUOUS
 62
     5
 10
200.00000006200011
 20
47.750000014802509
 30
0.0
 11
204.00000006324021
 21
47.750000014802509
 31
0.0
  0
LINE
  8
DETAIL
  6
CONTINUOUS
 62
     5
 10
206.00000006386011
 20
47.750000014802509
 30
0.0
 11
207.00000006417019
 21
47.750000014802509
 31
0.0
  0
LINE
  8
DETAIL
  6
CONTINUOUS
 62
     5
 10
-204.00000006324001
 20
49.750000015422529
 30
0.0
 11
-200.00000006199991
 21
49.750000015422529
 31
0.0
  0
LINE
  8
DETAIL
  6
CONTINUOUS
 62
     5
 10
-198.00000006138009
 20
49.750000015422529
 30
0.0
 11
-61.000000018909873
 21
49.750000015422529
 31
0.0
  0
LINE
  8
DETAIL
  6
CONTINUOUS
 62
     5
 10
-59.000000018290052
 20
49.750000015422529
 30
0.0
 11
59.00000001829028
 21
49.750000015422529
 31
0.0
  0
LINE
  8
DETAIL
  6
CONTINUOUS
 62
     5
 10
61.0000000189101
 20
49.750000015422529
 30
0.0
 11
198.00000006138029
 21
49.750000015422529
 31
0.0
  0
LINE
  8
DETAIL
  6
CONTINUOUS
 62
     5
 10
200.00000006200011
 20
49.750000015422529
 30
0.0
 11
204.00000006324021
 21
49.750000015422529
 31
0.0
  0
LINE
  8
DETAIL
  6
CONTINUOUS
 62
     5
 10
206.00000006386011
 20
49.750000015422529
 30
0.0
 11
207.00000006417019
 21
49.750000015422529
 31
0.0
  0
LINE
  8
DETAIL
  6
CONTINUOUS
 62
     5
 10
-204.00000006324001
 20
55.250000017127491
 30
0.0
 11
-200.00000006199991
 21
55.250000017127491
 31
0.0
  0
LINE
  8
DETAIL
  6
CONTINUOUS
 62
     5
 10
-198.00000006138009
 20
55.250000017127491
 30
0.0
 11
-61.000000018909873
 21
55.250000017127491
 31
0.0
  0
LINE
  8
DETAIL
  6
CONTINUOUS
 62
     5
 10
-59.000000018290052
 20
55.250000017127491
 30
0.0
 11
59.00000001829028
 21
55.250000017127491
 31
0.0
  0
LINE
  8
DETAIL
  6
CONTINUOUS
 62
     5
 10
61.0000000189101
 20
55.250000017127491
 30
0.0
 11
198.00000006138029
 21
55.250000017127491
 31
0.0
  0
LINE
  8
DETAIL
  6
CONTINUOUS
 62
     5
 10
200.00000006200011
 20
55.250000017127491
 30
0.0
 11
204.00000006324021
 21
55.250000017127491
 31
0.0
  0
LINE
  8
DETAIL
  6
CONTINUOUS
 62
     5
 10
206.00000006386011
 20
55.250000017127491
 30
0.0
 11
207.00000006417019
 21
55.250000017127491
 31
0.0
  0
LINE
  8
DETAIL
  6
CONTINUOUS
 62
     5
 10
-204.00000006324001
 20
57.250000017747539
 30
0.0
 11
-200.00000006199991
 21
57.250000017747539
 31
0.0
  0
LINE
  8
DETAIL
  6
CONTINUOUS
 62
     5
 10
-198.00000006138009
 20
57.250000017747539
 30
0.0
 11
-61.000000018909873
 21
57.250000017747539
 31
0.0
  0
LINE
  8
DETAIL
  6
CONTINUOUS
 62
     5
 10
-59.000000018290052
 20
57.250000017747539
 30
0.0
 11
59.00000001829028
 21
57.250000017747539
 31
0.0
  0
LINE
  8
DETAIL
  6
CONTINUOUS
 62
     5
 10
61.0000000189101
 20
57.250000017747539
 30
0.0
 11
198.00000006138029
 21
57.250000017747539
 31
0.0
  0
LINE
  8
DETAIL
  6
CONTINUOUS
 62
     5
 10
200.00000006200011
 20
57.250000017747539
 30
0.0
 11
204.00000006324021
 21
57.250000017747539
 31
0.0
  0
LINE
  8
DETAIL
  6
CONTINUOUS
 62
     5
 10
206.00000006386011
 20
57.250000017747539
 30
0.0
 11
207.00000006417019
 21
57.250000017747539
 31
0.0
  0
LINE
  8
DETAIL
  6
CONTINUOUS
 62
     5
 10
77.200000023932148
 20
82.500000025574991
 30
0.0
 11
77.200000023932148
 21
80.000000024799988
 31
0.0
  0
LINE
  8
DETAIL
  6
CONTINUOUS
 62
     5
 10
-204.00000006324001
 20
62.7500000194525
 30
0.0
 11
-200.00000006199991
 21
62.7500000194525
 31
0.0
  0
LINE
  8
DETAIL
  6
CONTINUOUS
 62
     5
 10
-198.00000006138009
 20
62.7500000194525
 30
0.0
 11
-61.000000018909873
 21
62.7500000194525
 31
0.0
  0
LINE
  8
DETAIL
  6
CONTINUOUS
 62
     5
 10
-59.000000018290052
 20
62.7500000194525
 30
0.0
 11
59.00000001829028
 21
62.7500000194525
 31
0.0
  0
LINE
  8
DETAIL
  6
CONTINUOUS
 62
     5
 10
61.0000000189101
 20
62.7500000194525
 30
0.0
 11
198.00000006138029
 21
62.7500000194525
 31
0.0
  0
LINE
  8
DETAIL
  6
CONTINUOUS
 62
     5
 10
200.00000006200011
 20
62.7500000194525
 30
0.0
 11
204.00000006324021
 21
62.7500000194525
 31
0.0
  0
LINE
  8
DETAIL
  6
CONTINUOUS
 62
     5
 10
206.00000006386011
 20
62.7500000194525
 30
0.0
 11
207.00000006417019
 21
62.7500000194525
 31
0.0
  0
LINE
  8
DETAIL
  6
CONTINUOUS
 62
     5
 10
-204.00000006324001
 20
64.750000020072434
 30
0.0
 11
-200.00000006199991
 21
64.750000020072434
 31
0.0
  0
LINE
  8
DETAIL
  6
CONTINUOUS
 62
     5
 10
-198.00000006138009
 20
64.750000020072434
 30
0.0
 11
-61.000000018909873
 21
64.750000020072434
 31
0.0
  0
LINE
  8
DETAIL
  6
CONTINUOUS
 62
     5
 10
-59.000000018290052
 20
64.750000020072434
 30
0.0
 11
59.00000001829028
 21
64.750000020072434
 31
0.0
  0
LINE
  8
DETAIL
  6
CONTINUOUS
 62
     5
 10
61.0000000189101
 20
64.750000020072434
 30
0.0
 11
198.00000006138029
 21
64.750000020072434
 31
0.0
  0
LINE
  8
DETAIL
  6
CONTINUOUS
 62
     5
 10
200.00000006200011
 20
64.750000020072434
 30
0.0
 11
204.00000006324021
 21
64.750000020072434
 31
0.0
  0
LINE
  8
DETAIL
  6
CONTINUOUS
 62
     5
 10
206.00000006386011
 20
64.750000020072434
 30
0.0
 11
207.00000006417019
 21
64.750000020072434
 31
0.0
  0
LINE
  8
DETAIL
  6
CONTINUOUS
 62
     5
 10
-204.00000006324001
 20
70.25000002177751
 30
0.0
 11
-200.00000006199991
 21
70.25000002177751
 31
0.0
  0
LINE
  8
DETAIL
  6
CONTINUOUS
 62
     5
 10
-198.00000006138009
 20
70.25000002177751
 30
0.0
 11
-61.000000018909873
 21
70.25000002177751
 31
0.0
  0
LINE
  8
DETAIL
  6
CONTINUOUS
 62
     5
 10
-59.000000018290052
 20
70.25000002177751
 30
0.0
 11
59.00000001829028
 21
70.25000002177751
 31
0.0
  0
LINE
  8
DETAIL
  6
CONTINUOUS
 62
     5
 10
61.0000000189101
 20
70.25000002177751
 30
0.0
 11
198.00000006138029
 21
70.25000002177751
 31
0.0
  0
LINE
  8
DETAIL
  6
CONTINUOUS
 62
     5
 10
200.00000006200011
 20
70.25000002177751
 30
0.0
 11
204.00000006324021
 21
70.25000002177751
 31
0.0
  0
LINE
  8
DETAIL
  6
CONTINUOUS
 62
     5
 10
206.00000006386011
 20
70.25000002177751
 30
0.0
 11
207.00000006417019
 21
70.25000002177751
 31
0.0
  0
LINE
  8
DETAIL
  6
CONTINUOUS
 62
     5
 10
-204.00000006324001
 20
72.250000022397558
 30
0.0
 11
-200.00000006199991
 21
72.250000022397558
 31
0.0
  0
LINE
  8
DETAIL
  6
CONTINUOUS
 62
     5
 10
-198.00000006138009
 20
72.250000022397558
 30
0.0
 11
-61.000000018909873
 21
72.250000022397558
 31
0.0
  0
LINE
  8
DETAIL
  6
CONTINUOUS
 62
     5
 10
-59.000000018290052
 20
72.250000022397558
 30
0.0
 11
59.00000001829028
 21
72.250000022397558
 31
0.0
  0
LINE
  8
DETAIL
  6
CONTINUOUS
 62
     5
 10
61.0000000189101
 20
72.250000022397558
 30
0.0
 11
198.00000006138029
 21
72.250000022397558
 31
0.0
  0
LINE
  8
DETAIL
  6
CONTINUOUS
 62
     5
 10
200.00000006200011
 20
72.250000022397558
 30
0.0
 11
204.00000006324021
 21
72.250000022397558
 31
0.0
  0
LINE
  8
DETAIL
  6
CONTINUOUS
 62
     5
 10
206.00000006386011
 20
72.250000022397558
 30
0.0
 11
207.00000006417019
 21
72.250000022397558
 31
0.0
  0
LINE
  8
DETAIL
  6
CONTINUOUS
 62
     5
 10
-96.00000002975969
 20
72.500000022474978
 30
0.0
 11
-64.000000019839831
 21
72.500000022474978
 31
0.0
  0
LINE
  8
DETAIL
  6
CONTINUOUS
 62
     5
 10
64.000000019840058
 20
72.500000022474978
 30
0.0
 11
96.000000029759917
 21
72.500000022474978
 31
0.0
  0
LINE
  8
DETAIL
  6
CONTINUOUS
 62
     5
 10
-204.00000006324001
 20
77.750000024102519
 30
0.0
 11
-200.00000006199991
 21
77.750000024102519
 31
0.0
  0
LINE
  8
DETAIL
  6
CONTINUOUS
 62
     5
 10
-198.00000006138009
 20
77.750000024102519
 30
0.0
 11
-61.000000018909873
 21
77.750000024102519
 31
0.0
  0
LINE
  8
DETAIL
  6
CONTINUOUS
 62
     5
 10
-59.000000018290052
 20
77.750000024102519
 30
0.0
 11
59.00000001829028
 21
77.750000024102519
 31
0.0
  0
LINE
  8
DETAIL
  6
CONTINUOUS
 62
     5
 10
61.0000000189101
 20
77.750000024102519
 30
0.0
 11
198.00000006138029
 21
77.750000024102519
 31
0.0
  0
LINE
  8
DETAIL
  6
CONTINUOUS
 62
     5
 10
200.00000006200011
 20
77.750000024102519
 30
0.0
 11
204.00000006324021
 21
77.750000024102519
 31
0.0
  0
LINE
  8
DETAIL
  6
CONTINUOUS
 62
     5
 10
206.00000006386011
 20
77.750000024102519
 30
0.0
 11
207.00000006417019
 21
77.750000024102519
 31
0.0
  0
LINE
  8
DETAIL
  6
CONTINUOUS
 62
     5
 10
-204.00000006324001
 20
79.750000024722453
 30
0.0
 11
-200.00000006199991
 21
79.750000024722453
 31
0.0
  0
LINE
  8
DETAIL
  6
CONTINUOUS
 62
     5
 10
-198.00000006138009
 20
79.750000024722453
 30
0.0
 11
-61.000000018909873
 21
79.750000024722453
 31
0.0
  0
LINE
  8
DETAIL
  6
CONTINUOUS
 62
     5
 10
-59.000000018290052
 20
79.750000024722453
 30
0.0
 11
59.00000001829028
 21
79.750000024722453
 31
0.0
  0
LINE
  8
DETAIL
  6
CONTINUOUS
 62
     5
 10
61.0000000189101
 20
79.750000024722453
 30
0.0
 11
198.00000006138029
 21
79.750000024722453
 31
0.0
  0
LINE
  8
DETAIL
  6
CONTINUOUS
 62
     5
 10
200.00000006200011
 20
79.750000024722453
 30
0.0
 11
204.00000006324021
 21
79.750000024722453
 31
0.0
  0
LINE
  8
DETAIL
  6
CONTINUOUS
 62
     5
 10
206.00000006386011
 20
79.750000024722453
 30
0.0
 11
207.00000006417019
 21
79.750000024722453
 31
0.0
  0
LINE
  8
DETAIL
  6
CONTINUOUS
 62
     5
 10
82.800000025668282
 20
80.000000024799988
 30
0.0
 11
82.800000025668282
 21
82.500000025574991
 31
0.0
  0
LINE
  8
DETAIL
  6
CONTINUOUS
 62
     5
 10
99.000000030689876
 20
75.50000002340505
 30
0.0
 11
99.000000030689876
 21
77.750000024102519
 31
0.0
  0
LINE
  8
DETAIL
  6
CONTINUOUS
 62
     5
 10
99.000000030689876
 20
79.750000024722453
 30
0.0
 11
99.000000030689876
 21
85.250000026427529
 31
0.0
  0
LINE
  8
DETAIL
  6
CONTINUOUS
 62
     5
 10
99.000000030689876
 20
87.250000027047463
 30
0.0
 11
99.000000030689876
 21
92.750000028752538
 31
0.0
  0
LINE
  8
DETAIL
  6
CONTINUOUS
 62
     5
 10
99.000000030689876
 20
93.500000028985028
 30
0.0
 11
99.000000030689876
 21
95.100000029480952
 31
0.0
  0
LINE
  8
DETAIL
  6
CONTINUOUS
 62
     5
 10
-204.00000006324001
 20
85.250000026427529
 30
0.0
 11
-200.00000006199991
 21
85.250000026427529
 31
0.0
  0
LINE
  8
DETAIL
  6
CONTINUOUS
 62
     5
 10
-198.00000006138009
 20
85.250000026427529
 30
0.0
 11
-61.000000018909873
 21
85.250000026427529
 31
0.0
  0
LINE
  8
DETAIL
  6
CONTINUOUS
 62
     5
 10
-59.000000018290052
 20
85.250000026427529
 30
0.0
 11
59.00000001829028
 21
85.250000026427529
 31
0.0
  0
LINE
  8
DETAIL
  6
CONTINUOUS
 62
     5
 10
61.0000000189101
 20
85.250000026427529
 30
0.0
 11
198.00000006138029
 21
85.250000026427529
 31
0.0
  0
LINE
  8
DETAIL
  6
CONTINUOUS
 62
     5
 10
200.00000006200011
 20
85.250000026427529
 30
0.0
 11
204.00000006324021
 21
85.250000026427529
 31
0.0
  0
LINE
  8
DETAIL
  6
CONTINUOUS
 62
     5
 10
206.00000006386011
 20
85.250000026427529
 30
0.0
 11
207.00000006417019
 21
85.250000026427529
 31
0.0
  0
LINE
  8
DETAIL
  6
CONTINUOUS
 62
     5
 10
-204.00000006324001
 20
87.250000027047463
 30
0.0
 11
-200.00000006199991
 21
87.250000027047463
 31
0.0
  0
LINE
  8
DETAIL
  6
CONTINUOUS
 62
     5
 10
-198.00000006138009
 20
87.250000027047463
 30
0.0
 11
-61.000000018909873
 21
87.250000027047463
 31
0.0
  0
LINE
  8
DETAIL
  6
CONTINUOUS
 62
     5
 10
-59.000000018290052
 20
87.250000027047463
 30
0.0
 11
59.00000001829028
 21
87.250000027047463
 31
0.0
  0
LINE
  8
DETAIL
  6
CONTINUOUS
 62
     5
 10
61.0000000189101
 20
87.250000027047463
 30
0.0
 11
198.00000006138029
 21
87.250000027047463
 31
0.0
  0
LINE
  8
DETAIL
  6
CONTINUOUS
 62
     5
 10
200.00000006200011
 20
87.250000027047463
 30
0.0
 11
204.00000006324021
 21
87.250000027047463
 31
0.0
  0
LINE
  8
DETAIL
  6
CONTINUOUS
 62
     5
 10
206.00000006386011
 20
87.250000027047463
 30
0.0
 11
207.00000006417019
 21
87.250000027047463
 31
0.0
  0
LINE
  8
DETAIL
  6
CONTINUOUS
 62
     5
 10
96.000000029759917
 20
90.500000028054956
 30
0.0
 11
64.000000019840058
 21
90.500000028054956
 31
0.0
  0
LINE
  8
DETAIL
  6
CONTINUOUS
 62
     5
 10
-64.000000019839831
 20
90.500000028054956
 30
0.0
 11
-96.00000002975969
 21
90.500000028054956
 31
0.0
  0
LINE
  8
DETAIL
  6
CONTINUOUS
 62
     5
 10
-204.00000006324001
 20
92.750000028752538
 30
0.0
 11
-200.00000006199991
 21
92.750000028752538
 31
0.0
  0
LINE
  8
DETAIL
  6
CONTINUOUS
 62
     5
 10
-198.00000006138009
 20
92.750000028752538
 30
0.0
 11
-98.250000030457272
 21
92.750000028752538
 31
0.0
  0
LINE
  8
DETAIL
  6
CONTINUOUS
 62
     5
 10
-61.750000019142249
 20
92.750000028752538
 30
0.0
 11
-61.000000018909873
 21
92.750000028752538
 31
0.0
  0
LINE
  8
DETAIL
  6
CONTINUOUS
 62
     5
 10
-59.000000018290052
 20
92.750000028752538
 30
0.0
 11
59.00000001829028
 21
92.750000028752538
 31
0.0
  0
LINE
  8
DETAIL
  6
CONTINUOUS
 62
     5
 10
61.0000000189101
 20
92.750000028752538
 30
0.0
 11
61.750000019142483
 21
92.750000028752538
 31
0.0
  0
LINE
  8
DETAIL
  6
CONTINUOUS
 62
     5
 10
98.2500000304575
 20
92.750000028752538
 30
0.0
 11
198.00000006138029
 21
92.750000028752538
 31
0.0
  0
LINE
  8
DETAIL
  6
CONTINUOUS
 62
     5
 10
200.00000006200011
 20
92.750000028752538
 30
0.0
 11
204.00000006324021
 21
92.750000028752538
 31
0.0
  0
LINE
  8
DETAIL
  6
CONTINUOUS
 62
     5
 10
206.00000006386011
 20
92.750000028752538
 30
0.0
 11
207.00000006417019
 21
92.750000028752538
 31
0.0
  0
LINE
  8
DETAIL
  6
CONTINUOUS
 62
     5
 10
-204.00000006324001
 20
94.750000029372472
 30
0.0
 11
-200.00000006199991
 21
94.750000029372472
 31
0.0
  0
LINE
  8
DETAIL
  6
CONTINUOUS
 62
     5
 10
-198.00000006138009
 20
94.750000029372472
 30
0.0
 11
-99.000000030689648
 21
94.750000029372472
 31
0.0
  0
LINE
  8
DETAIL
  6
CONTINUOUS
 62
     5
 10
-59.000000018290052
 20
94.750000029372472
 30
0.0
 11
59.00000001829028
 21
94.750000029372472
 31
0.0
  0
LINE
  8
DETAIL
  6
CONTINUOUS
 62
     5
 10
99.000000030689876
 20
94.750000029372472
 30
0.0
 11
198.00000006138029
 21
94.750000029372472
 31
0.0
  0
LINE
  8
DETAIL
  6
CONTINUOUS
 62
     5
 10
200.00000006200011
 20
94.750000029372472
 30
0.0
 11
204.00000006324021
 21
94.750000029372472
 31
0.0
  0
LINE
  8
DETAIL
  6
CONTINUOUS
 62
     5
 10
206.00000006386011
 20
94.750000029372472
 30
0.0
 11
207.00000006417019
 21
94.750000029372472
 31
0.0
  0
LINE
  8
DETAIL
  6
CONTINUOUS
 62
     5
 10
99.000000030689876
 20
95.100000029480952
 30
0.0
 11
61.0000000189101
 21
95.100000029480952
 31
0.0
  0
LINE
  8
DETAIL
  6
CONTINUOUS
 62
     5
 10
-61.000000018909873
 20
95.100000029480952
 30
0.0
 11
-99.000000030689648
 21
95.100000029480952
 31
0.0
  0
LINE
  8
DETAIL
  6
CONTINUOUS
 62
     5
 10
-204.00000006324001
 20
100.25000003107741
 30
0.0
 11
-200.00000006199991
 21
100.25000003107741
 31
0.0
  0
LINE
  8
DETAIL
  6
CONTINUOUS
 62
     5
 10
-198.00000006138009
 20
100.25000003107741
 30
0.0
 11
-61.000000018909873
 21
100.25000003107741
 31
0.0
  0
LINE
  8
DETAIL
  6
CONTINUOUS
 62
     5
 10
-59.000000018290052
 20
100.25000003107741
 30
0.0
 11
59.00000001829028
 21
100.25000003107741
 31
0.0
  0
LINE
  8
DETAIL
  6
CONTINUOUS
 62
     5
 10
61.0000000189101
 20
100.25000003107741
 30
0.0
 11
198.00000006138029
 21
100.25000003107741
 31
0.0
  0
LINE
  8
DETAIL
  6
CONTINUOUS
 62
     5
 10
200.00000006200011
 20
100.25000003107741
 30
0.0
 11
204.00000006324021
 21
100.25000003107741
 31
0.0
  0
LINE
  8
DETAIL
  6
CONTINUOUS
 62
     5
 10
206.00000006386011
 20
100.25000003107741
 30
0.0
 11
207.00000006417019
 21
100.25000003107741
 31
0.0
  0
LINE
  8
DETAIL
  6
CONTINUOUS
 62
     5
 10
61.0000000189101
 20
75.50000002340505
 30
0.0
 11
64.000000019840058
 21
72.500000022474978
 31
0.0
  0
LINE
  8
DETAIL
  6
CONTINUOUS
 62
     5
 10
-204.00000006324001
 20
102.2500000316975
 30
0.0
 11
-200.00000006199991
 21
102.2500000316975
 31
0.0
  0
LINE
  8
DETAIL
  6
CONTINUOUS
 62
     5
 10
-198.00000006138009
 20
102.2500000316975
 30
0.0
 11
-61.000000018909873
 21
102.2500000316975
 31
0.0
  0
LINE
  8
DETAIL
  6
CONTINUOUS
 62
     5
 10
-59.000000018290052
 20
102.2500000316975
 30
0.0
 11
59.00000001829028
 21
102.2500000316975
 31
0.0
  0
LINE
  8
DETAIL
  6
CONTINUOUS
 62
     5
 10
61.0000000189101
 20
102.2500000316975
 30
0.0
 11
198.00000006138029
 21
102.2500000316975
 31
0.0
  0
LINE
  8
DETAIL
  6
CONTINUOUS
 62
     5
 10
200.00000006200011
 20
102.2500000316975
 30
0.0
 11
204.00000006324021
 21
102.2500000316975
 31
0.0
  0
LINE
  8
DETAIL
  6
CONTINUOUS
 62
     5
 10
206.00000006386011
 20
102.2500000316975
 30
0.0
 11
207.00000006417019
 21
102.2500000316975
 31
0.0
  0
LINE
  8
DETAIL
  6
CONTINUOUS
 62
     5
 10
-204.00000006324001
 20
107.7500000334026
 30
0.0
 11
-200.00000006199991
 21
107.7500000334026
 31
0.0
  0
LINE
  8
DETAIL
  6
CONTINUOUS
 62
     5
 10
-198.00000006138009
 20
107.7500000334026
 30
0.0
 11
-61.000000018909873
 21
107.7500000334026
 31
0.0
  0
LINE
  8
DETAIL
  6
CONTINUOUS
 62
     5
 10
-59.000000018290052
 20
107.7500000334026
 30
0.0
 11
59.00000001829028
 21
107.7500000334026
 31
0.0
  0
LINE
  8
DETAIL
  6
CONTINUOUS
 62
     5
 10
61.0000000189101
 20
107.7500000334026
 30
0.0
 11
198.00000006138029
 21
107.7500000334026
 31
0.0
  0
LINE
  8
DETAIL
  6
CONTINUOUS
 62
     5
 10
200.00000006200011
 20
107.7500000334026
 30
0.0
 11
204.00000006324021
 21
107.7500000334026
 31
0.0
  0
LINE
  8
DETAIL
  6
CONTINUOUS
 62
     5
 10
206.00000006386011
 20
107.7500000334026
 30
0.0
 11
207.00000006417019
 21
107.7500000334026
 31
0.0
  0
LINE
  8
DETAIL
  6
CONTINUOUS
 62
     5
 10
-204.00000006324001
 20
109.75000003402251
 30
0.0
 11
-200.00000006199991
 21
109.75000003402251
 31
0.0
  0
LINE
  8
DETAIL
  6
CONTINUOUS
 62
     5
 10
-198.00000006138009
 20
109.75000003402251
 30
0.0
 11
-61.000000018909873
 21
109.75000003402251
 31
0.0
  0
LINE
  8
DETAIL
  6
CONTINUOUS
 62
     5
 10
-59.000000018290052
 20
109.75000003402251
 30
0.0
 11
59.00000001829028
 21
109.75000003402251
 31
0.0
  0
LINE
  8
DETAIL
  6
CONTINUOUS
 62
     5
 10
61.0000000189101
 20
109.75000003402251
 30
0.0
 11
198.00000006138029
 21
109.75000003402251
 31
0.0
  0
LINE
  8
DETAIL
  6
CONTINUOUS
 62
     5
 10
200.00000006200011
 20
109.75000003402251
 30
0.0
 11
204.00000006324021
 21
109.75000003402251
 31
0.0
  0
LINE
  8
DETAIL
  6
CONTINUOUS
 62
     5
 10
206.00000006386011
 20
109.75000003402251
 30
0.0
 11
207.00000006417019
 21
109.75000003402251
 31
0.0
  0
LINE
  8
DETAIL
  6
CONTINUOUS
 62
     5
 10
-204.00000006324001
 20
115.2500000357276
 30
0.0
 11
-200.00000006199991
 21
115.2500000357276
 31
0.0
  0
LINE
  8
DETAIL
  6
CONTINUOUS
 62
     5
 10
-198.00000006138009
 20
115.2500000357276
 30
0.0
 11
-61.000000018909873
 21
115.2500000357276
 31
0.0
  0
LINE
  8
DETAIL
  6
CONTINUOUS
 62
     5
 10
-59.000000018290052
 20
115.2500000357276
 30
0.0
 11
59.00000001829028
 21
115.2500000357276
 31
0.0
  0
LINE
  8
DETAIL
  6
CONTINUOUS
 62
     5
 10
61.0000000189101
 20
115.2500000357276
 30
0.0
 11
198.00000006138029
 21
115.2500000357276
 31
0.0
  0
LINE
  8
DETAIL
  6
CONTINUOUS
 62
     5
 10
200.00000006200011
 20
115.2500000357276
 30
0.0
 11
204.00000006324021
 21
115.2500000357276
 31
0.0
  0
LINE
  8
DETAIL
  6
CONTINUOUS
 62
     5
 10
206.00000006386011
 20
115.2500000357276
 30
0.0
 11
207.00000006417019
 21
115.2500000357276
 31
0.0
  0
LINE
  8
DETAIL
  6
CONTINUOUS
 62
     5
 10
-204.00000006324001
 20
117.2500000363475
 30
0.0
 11
-200.00000006199991
 21
117.2500000363475
 31
0.0
  0
LINE
  8
DETAIL
  6
CONTINUOUS
 62
     5
 10
-198.00000006138009
 20
117.2500000363475
 30
0.0
 11
-61.000000018909873
 21
117.2500000363475
 31
0.0
  0
LINE
  8
DETAIL
  6
CONTINUOUS
 62
     5
 10
-59.000000018290052
 20
117.2500000363475
 30
0.0
 11
59.00000001829028
 21
117.2500000363475
 31
0.0
  0
LINE
  8
DETAIL
  6
CONTINUOUS
 62
     5
 10
61.0000000189101
 20
117.2500000363475
 30
0.0
 11
198.00000006138029
 21
117.2500000363475
 31
0.0
  0
LINE
  8
DETAIL
  6
CONTINUOUS
 62
     5
 10
200.00000006200011
 20
117.2500000363475
 30
0.0
 11
204.00000006324021
 21
117.2500000363475
 31
0.0
  0
LINE
  8
DETAIL
  6
CONTINUOUS
 62
     5
 10
206.00000006386011
 20
117.2500000363475
 30
0.0
 11
207.00000006417019
 21
117.2500000363475
 31
0.0
  0
LINE
  8
DETAIL
  6
CONTINUOUS
 62
     5
 10
61.0000000189101
 20
93.500000028985028
 30
0.0
 11
64.000000019840058
 21
90.500000028054956
 31
0.0
  0
LINE
  8
DETAIL
  6
CONTINUOUS
 62
     5
 10
-204.00000006324001
 20
122.75000003805251
 30
0.0
 11
-200.00000006199991
 21
122.75000003805251
 31
0.0
  0
LINE
  8
DETAIL
  6
CONTINUOUS
 62
     5
 10
-198.00000006138009
 20
122.75000003805251
 30
0.0
 11
-61.000000018909873
 21
122.75000003805251
 31
0.0
  0
LINE
  8
DETAIL
  6
CONTINUOUS
 62
     5
 10
-59.000000018290052
 20
122.75000003805251
 30
0.0
 11
59.00000001829028
 21
122.75000003805251
 31
0.0
  0
LINE
  8
DETAIL
  6
CONTINUOUS
 62
     5
 10
61.0000000189101
 20
122.75000003805251
 30
0.0
 11
198.00000006138029
 21
122.75000003805251
 31
0.0
  0
LINE
  8
DETAIL
  6
CONTINUOUS
 62
     5
 10
200.00000006200011
 20
122.75000003805251
 30
0.0
 11
204.00000006324021
 21
122.75000003805251
 31
0.0
  0
LINE
  8
DETAIL
  6
CONTINUOUS
 62
     5
 10
206.00000006386011
 20
122.75000003805251
 30
0.0
 11
207.00000006417019
 21
122.75000003805251
 31
0.0
  0
LINE
  8
DETAIL
  6
CONTINUOUS
 62
     5
 10
-204.00000006324001
 20
124.7500000386725
 30
0.0
 11
-200.00000006199991
 21
124.7500000386725
 31
0.0
  0
LINE
  8
DETAIL
  6
CONTINUOUS
 62
     5
 10
-198.00000006138009
 20
124.7500000386725
 30
0.0
 11
-61.000000018909873
 21
124.7500000386725
 31
0.0
  0
LINE
  8
DETAIL
  6
CONTINUOUS
 62
     5
 10
-59.000000018290052
 20
124.7500000386725
 30
0.0
 11
59.00000001829028
 21
124.7500000386725
 31
0.0
  0
LINE
  8
DETAIL
  6
CONTINUOUS
 62
     5
 10
61.0000000189101
 20
124.7500000386725
 30
0.0
 11
198.00000006138029
 21
124.7500000386725
 31
0.0
  0
LINE
  8
DETAIL
  6
CONTINUOUS
 62
     5
 10
200.00000006200011
 20
124.7500000386725
 30
0.0
 11
204.00000006324021
 21
124.7500000386725
 31
0.0
  0
LINE
  8
DETAIL
  6
CONTINUOUS
 62
     5
 10
206.00000006386011
 20
124.7500000386725
 30
0.0
 11
207.00000006417019
 21
124.7500000386725
 31
0.0
  0
LINE
  8
DETAIL
  6
CONTINUOUS
 62
     5
 10
-204.00000006324001
 20
130.2500000403775
 30
0.0
 11
-200.00000006199991
 21
130.2500000403775
 31
0.0
  0
LINE
  8
DETAIL
  6
CONTINUOUS
 62
     5
 10
-198.00000006138009
 20
130.2500000403775
 30
0.0
 11
-61.000000018909873
 21
130.2500000403775
 31
0.0
  0
LINE
  8
DETAIL
  6
CONTINUOUS
 62
     5
 10
-59.000000018290052
 20
130.2500000403775
 30
0.0
 11
59.00000001829028
 21
130.2500000403775
 31
0.0
  0
LINE
  8
DETAIL
  6
CONTINUOUS
 62
     5
 10
61.0000000189101
 20
130.2500000403775
 30
0.0
 11
198.00000006138029
 21
130.2500000403775
 31
0.0
  0
LINE
  8
DETAIL
  6
CONTINUOUS
 62
     5
 10
200.00000006200011
 20
130.2500000403775
 30
0.0
 11
204.00000006324021
 21
130.2500000403775
 31
0.0
  0
LINE
  8
DETAIL
  6
CONTINUOUS
 62
     5
 10
206.00000006386011
 20
130.2500000403775
 30
0.0
 11
207.00000006417019
 21
130.2500000403775
 31
0.0
  0
LINE
  8
DETAIL
  6
CONTINUOUS
 62
     5
 10
-204.00000006324001
 20
132.25000004099749
 30
0.0
 11
-200.00000006199991
 21
132.25000004099749
 31
0.0
  0
LINE
  8
DETAIL
  6
CONTINUOUS
 62
     5
 10
-198.00000006138009
 20
132.25000004099749
 30
0.0
 11
-61.000000018909873
 21
132.25000004099749
 31
0.0
  0
LINE
  8
DETAIL
  6
CONTINUOUS
 62
     5
 10
-59.000000018290052
 20
132.25000004099749
 30
0.0
 11
59.00000001829028
 21
132.25000004099749
 31
0.0
  0
LINE
  8
DETAIL
  6
CONTINUOUS
 62
     5
 10
61.0000000189101
 20
132.25000004099749
 30
0.0
 11
198.00000006138029
 21
132.25000004099749
 31
0.0
  0
LINE
  8
DETAIL
  6
CONTINUOUS
 62
     5
 10
200.00000006200011
 20
132.25000004099749
 30
0.0
 11
204.00000006324021
 21
132.25000004099749
 31
0.0
  0
LINE
  8
DETAIL
  6
CONTINUOUS
 62
     5
 10
206.00000006386011
 20
132.25000004099749
 30
0.0
 11
207.00000006417019
 21
132.25000004099749
 31
0.0
  0
LINE
  8
DETAIL
  6
CONTINUOUS
 62
     5
 10
-204.00000006324001
 20
137.75000004270251
 30
0.0
 11
-200.00000006199991
 21
137.75000004270251
 31
0.0
  0
LINE
  8
DETAIL
  6
CONTINUOUS
 62
     5
 10
-198.00000006138009
 20
137.75000004270251
 30
0.0
 11
-61.000000018909873
 21
137.75000004270251
 31
0.0
  0
LINE
  8
DETAIL
  6
CONTINUOUS
 62
     5
 10
-59.000000018290052
 20
137.75000004270251
 30
0.0
 11
59.00000001829028
 21
137.75000004270251
 31
0.0
  0
LINE
  8
DETAIL
  6
CONTINUOUS
 62
     5
 10
61.0000000189101
 20
137.75000004270251
 30
0.0
 11
198.00000006138029
 21
137.75000004270251
 31
0.0
  0
LINE
  8
DETAIL
  6
CONTINUOUS
 62
     5
 10
200.00000006200011
 20
137.75000004270251
 30
0.0
 11
204.00000006324021
 21
137.75000004270251
 31
0.0
  0
LINE
  8
DETAIL
  6
CONTINUOUS
 62
     5
 10
206.00000006386011
 20
137.75000004270251
 30
0.0
 11
207.00000006417019
 21
137.75000004270251
 31
0.0
  0
LINE
  8
DETAIL
  6
CONTINUOUS
 62
     5
 10
-204.00000006324001
 20
139.7500000433225
 30
0.0
 11
-200.00000006199991
 21
139.7500000433225
 31
0.0
  0
LINE
  8
DETAIL
  6
CONTINUOUS
 62
     5
 10
-198.00000006138009
 20
139.7500000433225
 30
0.0
 11
-61.000000018909873
 21
139.7500000433225
 31
0.0
  0
LINE
  8
DETAIL
  6
CONTINUOUS
 62
     5
 10
-59.000000018290052
 20
139.7500000433225
 30
0.0
 11
59.00000001829028
 21
139.7500000433225
 31
0.0
  0
LINE
  8
DETAIL
  6
CONTINUOUS
 62
     5
 10
61.0000000189101
 20
139.7500000433225
 30
0.0
 11
198.00000006138029
 21
139.7500000433225
 31
0.0
  0
LINE
  8
DETAIL
  6
CONTINUOUS
 62
     5
 10
200.00000006200011
 20
139.7500000433225
 30
0.0
 11
204.00000006324021
 21
139.7500000433225
 31
0.0
  0
LINE
  8
DETAIL
  6
CONTINUOUS
 62
     5
 10
206.00000006386011
 20
139.7500000433225
 30
0.0
 11
207.00000006417019
 21
139.7500000433225
 31
0.0
  0
LINE
  8
DETAIL
  6
CONTINUOUS
 62
     5
 10
-204.00000006324001
 20
145.25000004502749
 30
0.0
 11
-200.00000006199991
 21
145.25000004502749
 31
0.0
  0
LINE
  8
DETAIL
  6
CONTINUOUS
 62
     5
 10
-198.00000006138009
 20
145.25000004502749
 30
0.0
 11
-61.000000018909873
 21
145.25000004502749
 31
0.0
  0
LINE
  8
DETAIL
  6
CONTINUOUS
 62
     5
 10
-59.000000018290052
 20
145.25000004502749
 30
0.0
 11
59.00000001829028
 21
145.25000004502749
 31
0.0
  0
LINE
  8
DETAIL
  6
CONTINUOUS
 62
     5
 10
61.0000000189101
 20
145.25000004502749
 30
0.0
 11
198.00000006138029
 21
145.25000004502749
 31
0.0
  0
LINE
  8
DETAIL
  6
CONTINUOUS
 62
     5
 10
200.00000006200011
 20
145.25000004502749
 30
0.0
 11
204.00000006324021
 21
145.25000004502749
 31
0.0
  0
LINE
  8
DETAIL
  6
CONTINUOUS
 62
     5
 10
206.00000006386011
 20
145.25000004502749
 30
0.0
 11
207.00000006417019
 21
145.25000004502749
 31
0.0
  0
LINE
  8
DETAIL
  6
CONTINUOUS
 62
     5
 10
-204.00000006324001
 20
147.25000004564751
 30
0.0
 11
-200.00000006199991
 21
147.25000004564751
 31
0.0
  0
LINE
  8
DETAIL
  6
CONTINUOUS
 62
     5
 10
-198.00000006138009
 20
147.25000004564751
 30
0.0
 11
-61.000000018909873
 21
147.25000004564751
 31
0.0
  0
LINE
  8
DETAIL
  6
CONTINUOUS
 62
     5
 10
-59.000000018290052
 20
147.25000004564751
 30
0.0
 11
59.00000001829028
 21
147.25000004564751
 31
0.0
  0
LINE
  8
DETAIL
  6
CONTINUOUS
 62
     5
 10
61.0000000189101
 20
147.25000004564751
 30
0.0
 11
198.00000006138029
 21
147.25000004564751
 31
0.0
  0
LINE
  8
DETAIL
  6
CONTINUOUS
 62
     5
 10
200.00000006200011
 20
147.25000004564751
 30
0.0
 11
204.00000006324021
 21
147.25000004564751
 31
0.0
  0
LINE
  8
DETAIL
  6
CONTINUOUS
 62
     5
 10
206.00000006386011
 20
147.25000004564751
 30
0.0
 11
207.00000006417019
 21
147.25000004564751
 31
0.0
  0
LINE
  8
DETAIL
  6
CONTINUOUS
 62
     5
 10
-204.00000006324001
 20
152.7500000473525
 30
0.0
 11
-200.00000006199991
 21
152.7500000473525
 31
0.0
  0
LINE
  8
DETAIL
  6
CONTINUOUS
 62
     5
 10
-198.00000006138009
 20
152.7500000473525
 30
0.0
 11
-61.000000018909873
 21
152.7500000473525
 31
0.0
  0
LINE
  8
DETAIL
  6
CONTINUOUS
 62
     5
 10
-59.000000018290052
 20
152.7500000473525
 30
0.0
 11
59.00000001829028
 21
152.7500000473525
 31
0.0
  0
LINE
  8
DETAIL
  6
CONTINUOUS
 62
     5
 10
61.0000000189101
 20
152.7500000473525
 30
0.0
 11
198.00000006138029
 21
152.7500000473525
 31
0.0
  0
LINE
  8
DETAIL
  6
CONTINUOUS
 62
     5
 10
200.00000006200011
 20
152.7500000473525
 30
0.0
 11
204.00000006324021
 21
152.7500000473525
 31
0.0
  0
LINE
  8
DETAIL
  6
CONTINUOUS
 62
     5
 10
206.00000006386011
 20
152.7500000473525
 30
0.0
 11
207.00000006417019
 21
152.7500000473525
 31
0.0
  0
LINE
  8
DETAIL
  6
CONTINUOUS
 62
     5
 10
-204.00000006324001
 20
154.75000004797241
 30
0.0
 11
-200.00000006199991
 21
154.75000004797241
 31
0.0
  0
LINE
  8
DETAIL
  6
CONTINUOUS
 62
     5
 10
-198.00000006138009
 20
154.75000004797241
 30
0.0
 11
-61.000000018909873
 21
154.75000004797241
 31
0.0
  0
LINE
  8
DETAIL
  6
CONTINUOUS
 62
     5
 10
-59.000000018290052
 20
154.75000004797241
 30
0.0
 11
59.00000001829028
 21
154.75000004797241
 31
0.0
  0
LINE
  8
DETAIL
  6
CONTINUOUS
 62
     5
 10
61.0000000189101
 20
154.75000004797241
 30
0.0
 11
198.00000006138029
 21
154.75000004797241
 31
0.0
  0
LINE
  8
DETAIL
  6
CONTINUOUS
 62
     5
 10
200.00000006200011
 20
154.75000004797241
 30
0.0
 11
204.00000006324021
 21
154.75000004797241
 31
0.0
  0
LINE
  8
DETAIL
  6
CONTINUOUS
 62
     5
 10
206.00000006386011
 20
154.75000004797241
 30
0.0
 11
207.00000006417019
 21
154.75000004797241
 31
0.0
  0
LINE
  8
DETAIL
  6
CONTINUOUS
 62
     5
 10
-204.00000006324001
 20
160.25000004967751
 30
0.0
 11
-200.00000006199991
 21
160.25000004967751
 31
0.0
  0
LINE
  8
DETAIL
  6
CONTINUOUS
 62
     5
 10
-198.00000006138009
 20
160.25000004967751
 30
0.0
 11
-61.000000018909873
 21
160.25000004967751
 31
0.0
  0
LINE
  8
DETAIL
  6
CONTINUOUS
 62
     5
 10
-59.000000018290052
 20
160.25000004967751
 30
0.0
 11
59.00000001829028
 21
160.25000004967751
 31
0.0
  0
LINE
  8
DETAIL
  6
CONTINUOUS
 62
     5
 10
61.0000000189101
 20
160.25000004967751
 30
0.0
 11
198.00000006138029
 21
160.25000004967751
 31
0.0
  0
LINE
  8
DETAIL
  6
CONTINUOUS
 62
     5
 10
200.00000006200011
 20
160.25000004967751
 30
0.0
 11
204.00000006324021
 21
160.25000004967751
 31
0.0
  0
LINE
  8
DETAIL
  6
CONTINUOUS
 62
     5
 10
206.00000006386011
 20
160.25000004967751
 30
0.0
 11
207.00000006417019
 21
160.25000004967751
 31
0.0
  0
LINE
  8
DETAIL
  6
CONTINUOUS
 62
     5
 10
-204.00000006324001
 20
162.25000005029759
 30
0.0
 11
-200.00000006199991
 21
162.25000005029759
 31
0.0
  0
LINE
  8
DETAIL
  6
CONTINUOUS
 62
     5
 10
-198.00000006138009
 20
162.25000005029759
 30
0.0
 11
-61.000000018909873
 21
162.25000005029759
 31
0.0
  0
LINE
  8
DETAIL
  6
CONTINUOUS
 62
     5
 10
-59.000000018290052
 20
162.25000005029759
 30
0.0
 11
59.00000001829028
 21
162.25000005029759
 31
0.0
  0
LINE
  8
DETAIL
  6
CONTINUOUS
 62
     5
 10
61.0000000189101
 20
162.25000005029759
 30
0.0
 11
198.00000006138029
 21
162.25000005029759
 31
0.0
  0
LINE
  8
DETAIL
  6
CONTINUOUS
 62
     5
 10
200.00000006200011
 20
162.25000005029759
 30
0.0
 11
204.00000006324021
 21
162.25000005029759
 31
0.0
  0
LINE
  8
DETAIL
  6
CONTINUOUS
 62
     5
 10
206.00000006386011
 20
162.25000005029759
 30
0.0
 11
207.00000006417019
 21
162.25000005029759
 31
0.0
  0
LINE
  8
DETAIL
  6
CONTINUOUS
 62
     5
 10
-204.00000006324001
 20
167.75000005200249
 30
0.0
 11
-200.00000006199991
 21
167.75000005200249
 31
0.0
  0
LINE
  8
DETAIL
  6
CONTINUOUS
 62
     5
 10
-198.00000006138009
 20
167.75000005200249
 30
0.0
 11
-61.000000018909873
 21
167.75000005200249
 31
0.0
  0
LINE
  8
DETAIL
  6
CONTINUOUS
 62
     5
 10
-59.000000018290052
 20
167.75000005200249
 30
0.0
 11
59.00000001829028
 21
167.75000005200249
 31
0.0
  0
LINE
  8
DETAIL
  6
CONTINUOUS
 62
     5
 10
61.0000000189101
 20
167.75000005200249
 30
0.0
 11
198.00000006138029
 21
167.75000005200249
 31
0.0
  0
LINE
  8
DETAIL
  6
CONTINUOUS
 62
     5
 10
200.00000006200011
 20
167.75000005200249
 30
0.0
 11
204.00000006324021
 21
167.75000005200249
 31
0.0
  0
LINE
  8
DETAIL
  6
CONTINUOUS
 62
     5
 10
206.00000006386011
 20
167.75000005200249
 30
0.0
 11
207.00000006417019
 21
167.75000005200249
 31
0.0
  0
LINE
  8
DETAIL
  6
CONTINUOUS
 62
     5
 10
-204.00000006324001
 20
169.7500000526226
 30
0.0
 11
-200.00000006199991
 21
169.7500000526226
 31
0.0
  0
LINE
  8
DETAIL
  6
CONTINUOUS
 62
     5
 10
-198.00000006138009
 20
169.7500000526226
 30
0.0
 11
-61.000000018909873
 21
169.7500000526226
 31
0.0
  0
LINE
  8
DETAIL
  6
CONTINUOUS
 62
     5
 10
-59.000000018290052
 20
169.7500000526226
 30
0.0
 11
59.00000001829028
 21
169.7500000526226
 31
0.0
  0
LINE
  8
DETAIL
  6
CONTINUOUS
 62
     5
 10
61.0000000189101
 20
169.7500000526226
 30
0.0
 11
198.00000006138029
 21
169.7500000526226
 31
0.0
  0
LINE
  8
DETAIL
  6
CONTINUOUS
 62
     5
 10
200.00000006200011
 20
169.7500000526226
 30
0.0
 11
204.00000006324021
 21
169.7500000526226
 31
0.0
  0
LINE
  8
DETAIL
  6
CONTINUOUS
 62
     5
 10
206.00000006386011
 20
169.7500000526226
 30
0.0
 11
207.00000006417019
 21
169.7500000526226
 31
0.0
  0
LINE
  8
DETAIL
  6
CONTINUOUS
 62
     5
 10
-204.00000006324001
 20
175.2500000543275
 30
0.0
 11
-200.00000006199991
 21
175.2500000543275
 31
0.0
  0
LINE
  8
DETAIL
  6
CONTINUOUS
 62
     5
 10
-198.00000006138009
 20
175.2500000543275
 30
0.0
 11
-61.000000018909873
 21
175.2500000543275
 31
0.0
  0
LINE
  8
DETAIL
  6
CONTINUOUS
 62
     5
 10
-59.000000018290052
 20
175.2500000543275
 30
0.0
 11
59.00000001829028
 21
175.2500000543275
 31
0.0
  0
LINE
  8
DETAIL
  6
CONTINUOUS
 62
     5
 10
61.0000000189101
 20
175.2500000543275
 30
0.0
 11
198.00000006138029
 21
175.2500000543275
 31
0.0
  0
LINE
  8
DETAIL
  6
CONTINUOUS
 62
     5
 10
200.00000006200011
 20
175.2500000543275
 30
0.0
 11
204.00000006324021
 21
175.2500000543275
 31
0.0
  0
LINE
  8
DETAIL
  6
CONTINUOUS
 62
     5
 10
206.00000006386011
 20
175.2500000543275
 30
0.0
 11
207.00000006417019
 21
175.2500000543275
 31
0.0
  0
LINE
  8
DETAIL
  6
CONTINUOUS
 62
     5
 10
-204.00000006324001
 20
177.25000005494749
 30
0.0
 11
-200.00000006199991
 21
177.25000005494749
 31
0.0
  0
LINE
  8
DETAIL
  6
CONTINUOUS
 62
     5
 10
-198.00000006138009
 20
177.25000005494749
 30
0.0
 11
-61.000000018909873
 21
177.25000005494749
 31
0.0
  0
LINE
  8
DETAIL
  6
CONTINUOUS
 62
     5
 10
-59.000000018290052
 20
177.25000005494749
 30
0.0
 11
59.00000001829028
 21
177.25000005494749
 31
0.0
  0
LINE
  8
DETAIL
  6
CONTINUOUS
 62
     5
 10
61.0000000189101
 20
177.25000005494749
 30
0.0
 11
198.00000006138029
 21
177.25000005494749
 31
0.0
  0
LINE
  8
DETAIL
  6
CONTINUOUS
 62
     5
 10
200.00000006200011
 20
177.25000005494749
 30
0.0
 11
204.00000006324021
 21
177.25000005494749
 31
0.0
  0
LINE
  8
DETAIL
  6
CONTINUOUS
 62
     5
 10
206.00000006386011
 20
177.25000005494749
 30
0.0
 11
207.00000006417019
 21
177.25000005494749
 31
0.0
  0
LINE
  8
DETAIL
  6
CONTINUOUS
 62
     5
 10
-204.00000006324001
 20
182.75000005665251
 30
0.0
 11
-200.00000006199991
 21
182.75000005665251
 31
0.0
  0
LINE
  8
DETAIL
  6
CONTINUOUS
 62
     5
 10
-198.00000006138009
 20
182.75000005665251
 30
0.0
 11
-61.000000018909873
 21
182.75000005665251
 31
0.0
  0
LINE
  8
DETAIL
  6
CONTINUOUS
 62
     5
 10
-59.000000018290052
 20
182.75000005665251
 30
0.0
 11
59.00000001829028
 21
182.75000005665251
 31
0.0
  0
LINE
  8
DETAIL
  6
CONTINUOUS
 62
     5
 10
61.0000000189101
 20
182.75000005665251
 30
0.0
 11
198.00000006138029
 21
182.75000005665251
 31
0.0
  0
LINE
  8
DETAIL
  6
CONTINUOUS
 62
     5
 10
200.00000006200011
 20
182.75000005665251
 30
0.0
 11
204.00000006324021
 21
182.75000005665251
 31
0.0
  0
LINE
  8
DETAIL
  6
CONTINUOUS
 62
     5
 10
206.00000006386011
 20
182.75000005665251
 30
0.0
 11
207.00000006417019
 21
182.75000005665251
 31
0.0
  0
LINE
  8
DETAIL
  6
CONTINUOUS
 62
     5
 10
-204.00000006324001
 20
184.7500000572725
 30
0.0
 11
-200.00000006199991
 21
184.7500000572725
 31
0.0
  0
LINE
  8
DETAIL
  6
CONTINUOUS
 62
     5
 10
-198.00000006138009
 20
184.7500000572725
 30
0.0
 11
-61.000000018909873
 21
184.7500000572725
 31
0.0
  0
LINE
  8
DETAIL
  6
CONTINUOUS
 62
     5
 10
-59.000000018290052
 20
184.7500000572725
 30
0.0
 11
59.00000001829028
 21
184.7500000572725
 31
0.0
  0
LINE
  8
DETAIL
  6
CONTINUOUS
 62
     5
 10
61.0000000189101
 20
184.7500000572725
 30
0.0
 11
198.00000006138029
 21
184.7500000572725
 31
0.0
  0
LINE
  8
DETAIL
  6
CONTINUOUS
 62
     5
 10
200.00000006200011
 20
184.7500000572725
 30
0.0
 11
204.00000006324021
 21
184.7500000572725
 31
0.0
  0
LINE
  8
DETAIL
  6
CONTINUOUS
 62
     5
 10
206.00000006386011
 20
184.7500000572725
 30
0.0
 11
207.00000006417019
 21
184.7500000572725
 31
0.0
  0
LINE
  8
DETAIL
  6
CONTINUOUS
 62
     5
 10
-204.00000006324001
 20
190.25000005897749
 30
0.0
 11
-200.00000006199991
 21
190.25000005897749
 31
0.0
  0
LINE
  8
DETAIL
  6
CONTINUOUS
 62
     5
 10
-198.00000006138009
 20
190.25000005897749
 30
0.0
 11
-61.000000018909873
 21
190.25000005897749
 31
0.0
  0
LINE
  8
DETAIL
  6
CONTINUOUS
 62
     5
 10
-59.000000018290052
 20
190.25000005897749
 30
0.0
 11
59.00000001829028
 21
190.25000005897749
 31
0.0
  0
LINE
  8
DETAIL
  6
CONTINUOUS
 62
     5
 10
61.0000000189101
 20
190.25000005897749
 30
0.0
 11
198.00000006138029
 21
190.25000005897749
 31
0.0
  0
LINE
  8
DETAIL
  6
CONTINUOUS
 62
     5
 10
200.00000006200011
 20
190.25000005897749
 30
0.0
 11
204.00000006324021
 21
190.25000005897749
 31
0.0
  0
LINE
  8
DETAIL
  6
CONTINUOUS
 62
     5
 10
206.00000006386011
 20
190.25000005897749
 30
0.0
 11
207.00000006417019
 21
190.25000005897749
 31
0.0
  0
LINE
  8
DETAIL
  6
CONTINUOUS
 62
     5
 10
-204.00000006324001
 20
192.25000005959751
 30
0.0
 11
-200.00000006199991
 21
192.25000005959751
 31
0.0
  0
LINE
  8
DETAIL
  6
CONTINUOUS
 62
     5
 10
-198.00000006138009
 20
192.25000005959751
 30
0.0
 11
-61.000000018909873
 21
192.25000005959751
 31
0.0
  0
LINE
  8
DETAIL
  6
CONTINUOUS
 62
     5
 10
-59.000000018290052
 20
192.25000005959751
 30
0.0
 11
59.00000001829028
 21
192.25000005959751
 31
0.0
  0
LINE
  8
DETAIL
  6
CONTINUOUS
 62
     5
 10
61.0000000189101
 20
192.25000005959751
 30
0.0
 11
198.00000006138029
 21
192.25000005959751
 31
0.0
  0
LINE
  8
DETAIL
  6
CONTINUOUS
 62
     5
 10
200.00000006200011
 20
192.25000005959751
 30
0.0
 11
204.00000006324021
 21
192.25000005959751
 31
0.0
  0
LINE
  8
DETAIL
  6
CONTINUOUS
 62
     5
 10
206.00000006386011
 20
192.25000005959751
 30
0.0
 11
207.00000006417019
 21
192.25000005959751
 31
0.0
  0
LINE
  8
DETAIL
  6
CONTINUOUS
 62
     5
 10
-204.00000006324001
 20
197.75000006130239
 30
0.0
 11
-200.00000006199991
 21
197.75000006130239
 31
0.0
  0
LINE
  8
DETAIL
  6
CONTINUOUS
 62
     5
 10
-198.00000006138009
 20
197.75000006130239
 30
0.0
 11
-61.000000018909873
 21
197.75000006130239
 31
0.0
  0
LINE
  8
DETAIL
  6
CONTINUOUS
 62
     5
 10
-59.000000018290052
 20
197.75000006130239
 30
0.0
 11
59.00000001829028
 21
197.75000006130239
 31
0.0
  0
LINE
  8
DETAIL
  6
CONTINUOUS
 62
     5
 10
61.0000000189101
 20
197.75000006130239
 30
0.0
 11
198.00000006138029
 21
197.75000006130239
 31
0.0
  0
LINE
  8
DETAIL
  6
CONTINUOUS
 62
     5
 10
200.00000006200011
 20
197.75000006130239
 30
0.0
 11
204.00000006324021
 21
197.75000006130239
 31
0.0
  0
LINE
  8
DETAIL
  6
CONTINUOUS
 62
     5
 10
206.00000006386011
 20
197.75000006130239
 30
0.0
 11
207.00000006417019
 21
197.75000006130239
 31
0.0
  0
LINE
  8
DETAIL
  6
CONTINUOUS
 62
     5
 10
198.00000006138029
 20
203.25000006300749
 30
0.0
 11
198.00000006138029
 21
-203.25000006300749
 31
0.0
  0
LINE
  8
DETAIL
  6
CONTINUOUS
 62
     5
 10
200.00000006200011
 20
203.25000006300749
 30
0.0
 11
200.00000006200011
 21
-203.25000006300749
 31
0.0
  0
LINE
  8
DETAIL
  6
CONTINUOUS
 62
     5
 10
204.00000006324021
 20
202.2500000626975
 30
0.0
 11
204.00000006324021
 21
-202.2500000626975
 31
0.0
  0
LINE
  8
DETAIL
  6
CONTINUOUS
 62
     5
 10
206.00000006386011
 20
202.2500000626975
 30
0.0
 11
206.00000006386011
 21
-202.2500000626975
 31
0.0
  0
LINE
  8
DETAIL
  6
CONTINUOUS
 62
     5
 10
-204.00000006324001
 20
199.75000006192249
 30
0.0
 11
-200.00000006199991
 21
199.75000006192249
 31
0.0
  0
LINE
  8
DETAIL
  6
CONTINUOUS
 62
     5
 10
-198.00000006138009
 20
199.75000006192249
 30
0.0
 11
-61.000000018909873
 21
199.75000006192249
 31
0.0
  0
LINE
  8
DETAIL
  6
CONTINUOUS
 62
     5
 10
-59.000000018290052
 20
199.75000006192249
 30
0.0
 11
59.00000001829028
 21
199.75000006192249
 31
0.0
  0
LINE
  8
DETAIL
  6
CONTINUOUS
 62
     5
 10
61.0000000189101
 20
199.75000006192249
 30
0.0
 11
198.00000006138029
 21
199.75000006192249
 31
0.0
  0
LINE
  8
DETAIL
  6
CONTINUOUS
 62
     5
 10
200.00000006200011
 20
199.75000006192249
 30
0.0
 11
204.00000006324021
 21
199.75000006192249
 31
0.0
  0
LINE
  8
DETAIL
  6
CONTINUOUS
 62
     5
 10
206.00000006386011
 20
199.75000006192249
 30
0.0
 11
207.00000006417019
 21
199.75000006192249
 31
0.0
  0
LINE
  8
DETAIL
  6
CONTINUOUS
 62
     5
 10
-202.0000000626197
 20
204.25000006331749
 30
0.0
 11
202.00000006261999
 21
204.25000006331749
 31
0.0
  0
LINE
  8
DETAIL
  6
CONTINUOUS
 62
     5
 10
-202.0000000626197
 20
206.25000006393751
 30
0.0
 11
202.00000006261999
 21
206.25000006393751
 31
0.0
  0
ARC
  8
DETAIL
  6
CONTINUOUS
 62
     5
 10
-202.0000000626197
 20
-202.2500000626975
 30
0.0
 40
4.0000000012400001
 50
180.0
 51
270.0
  0
ARC
  8
DETAIL
  6
CONTINUOUS
 62
     5
 10
-202.0000000626197
 20
-202.2500000626975
 30
0.0
 40
2.0000000006200001
 50
180.0
 51
270.0
  0
CIRCLE
  8
DETAIL
  6
CONTINUOUS
 62
     5
 10
-199.0000000616898
 20
-203.25000006300749
 30
0.0
 40
1.00000000031
  0
CIRCLE
  8
DETAIL
  6
CONTINUOUS
 62
     5
 10
-207.00000006417
 20
-161.25000004998751
 30
0.0
 40
1.00000000031
  0
CIRCLE
  8
DETAIL
  6
CONTINUOUS
 62
     5
 10
-207.00000006417
 20
-153.7500000476625
 30
0.0
 40
1.00000000031
  0
CIRCLE
  8
DETAIL
  6
CONTINUOUS
 62
     5
 10
-207.00000006417
 20
-146.25000004533749
 30
0.0
 40
1.00000000031
  0
CIRCLE
  8
DETAIL
  6
CONTINUOUS
 62
     5
 10
-207.00000006417
 20
-138.75000004301251
 30
0.0
 40
1.00000000031
  0
CIRCLE
  8
DETAIL
  6
CONTINUOUS
 62
     5
 10
-207.00000006417
 20
-131.2500000406875
 30
0.0
 40
1.00000000031
  0
CIRCLE
  8
DETAIL
  6
CONTINUOUS
 62
     5
 10
-207.00000006417
 20
-123.7500000383625
 30
0.0
 40
1.00000000031
  0
CIRCLE
  8
DETAIL
  6
CONTINUOUS
 62
     5
 10
-207.00000006417
 20
-116.25000003603751
 30
0.0
 40
1.00000000031
  0
CIRCLE
  8
DETAIL
  6
CONTINUOUS
 62
     5
 10
-207.00000006417
 20
-108.7500000337125
 30
0.0
 40
1.00000000031
  0
CIRCLE
  8
DETAIL
  6
CONTINUOUS
 62
     5
 10
-207.00000006417
 20
-168.75000005231249
 30
0.0
 40
1.00000000031
  0
CIRCLE
  8
DETAIL
  6
CONTINUOUS
 62
     5
 10
-207.00000006417
 20
-176.2500000546375
 30
0.0
 40
1.00000000031
  0
CIRCLE
  8
DETAIL
  6
CONTINUOUS
 62
     5
 10
-207.00000006417
 20
-198.7500000616125
 30
0.0
 40
1.00000000031
  0
CIRCLE
  8
DETAIL
  6
CONTINUOUS
 62
     5
 10
-207.00000006417
 20
-191.25000005928749
 30
0.0
 40
1.00000000031
  0
CIRCLE
  8
DETAIL
  6
CONTINUOUS
 62
     5
 10
-207.00000006417
 20
-183.75000005696251
 30
0.0
 40
1.00000000031
  0
CIRCLE
  8
DETAIL
  6
CONTINUOUS
 62
     5
 10
-207.00000006417
 20
-86.250000026737496
 30
0.0
 40
1.00000000031
  0
CIRCLE
  8
DETAIL
  6
CONTINUOUS
 62
     5
 10
-207.00000006417
 20
-78.750000024412486
 30
0.0
 40
1.00000000031
  0
CIRCLE
  8
DETAIL
  6
CONTINUOUS
 62
     5
 10
-207.00000006417
 20
-71.250000022087477
 30
0.0
 40
1.00000000031
  0
CIRCLE
  8
DETAIL
  6
CONTINUOUS
 62
     5
 10
-207.00000006417
 20
-63.750000019762517
 30
0.0
 40
1.00000000031
  0
CIRCLE
  8
DETAIL
  6
CONTINUOUS
 62
     5
 10
-207.00000006417
 20
-56.250000017437507
 30
0.0
 40
1.00000000031
  0
CIRCLE
  8
DETAIL
  6
CONTINUOUS
 62
     5
 10
-207.00000006417
 20
-48.750000015112512
 30
0.0
 40
1.00000000031
  0
CIRCLE
  8
DETAIL
  6
CONTINUOUS
 62
     5
 10
-207.00000006417
 20
-41.250000012787503
 30
0.0
 40
1.00000000031
  0
CIRCLE
  8
DETAIL
  6
CONTINUOUS
 62
     5
 10
-207.00000006417
 20
-33.750000010462493
 30
0.0
 40
1.00000000031
  0
CIRCLE
  8
DETAIL
  6
CONTINUOUS
 62
     5
 10
-207.00000006417
 20
-26.25000000813748
 30
0.0
 40
1.00000000031
  0
CIRCLE
  8
DETAIL
  6
CONTINUOUS
 62
     5
 10
-207.00000006417
 20
-18.75000000581252
 30
0.0
 40
1.00000000031
  0
CIRCLE
  8
DETAIL
  6
CONTINUOUS
 62
     5
 10
-207.00000006417
 20
-101.2500000313875
 30
0.0
 40
1.00000000031
  0
CIRCLE
  8
DETAIL
  6
CONTINUOUS
 62
     5
 10
-207.00000006417
 20
-93.750000029062505
 30
0.0
 40
1.00000000031
  0
CIRCLE
  8
DETAIL
  6
CONTINUOUS
 62
     5
 10
-207.00000006417
 20
-11.250000003487459
 30
0.0
 40
1.00000000031
  0
CIRCLE
  8
DETAIL
  6
CONTINUOUS
 62
     5
 10
-207.00000006417
 20
-3.7500000011625052
 30
0.0
 40
1.00000000031
  0
CIRCLE
  8
DETAIL
  6
CONTINUOUS
 62
     5
 10
-60.000000018599742
 20
-203.25000006300749
 30
0.0
 40
1.00000000031
  0
CIRCLE
  8
DETAIL
  6
CONTINUOUS
 62
     5
 10
-207.00000006417
 20
101.2500000313875
 30
0.0
 40
1.00000000031
  0
CIRCLE
  8
DETAIL
  6
CONTINUOUS
 62
     5
 10
-207.00000006417
 20
3.7500000011625052
 30
0.0
 40
1.00000000031
  0
CIRCLE
  8
DETAIL
  6
CONTINUOUS
 62
     5
 10
-207.00000006417
 20
11.250000003487489
 30
0.0
 40
1.00000000031
  0
CIRCLE
  8
DETAIL
  6
CONTINUOUS
 62
     5
 10
-207.00000006417
 20
18.750000005812471
 30
0.0
 40
1.00000000031
  0
CIRCLE
  8
DETAIL
  6
CONTINUOUS
 62
     5
 10
-207.00000006417
 20
26.250000008137501
 30
0.0
 40
1.00000000031
  0
CIRCLE
  8
DETAIL
  6
CONTINUOUS
 62
     5
 10
-207.00000006417
 20
33.750000010462507
 30
0.0
 40
1.00000000031
  0
CIRCLE
  8
DETAIL
  6
CONTINUOUS
 62
     5
 10
-207.00000006417
 20
41.250000012787467
 30
0.0
 40
1.00000000031
  0
CIRCLE
  8
DETAIL
  6
CONTINUOUS
 62
     5
 10
-207.00000006417
 20
48.750000015112477
 30
0.0
 40
1.00000000031
  0
CIRCLE
  8
DETAIL
  6
CONTINUOUS
 62
     5
 10
-207.00000006417
 20
93.750000029062562
 30
0.0
 40
1.00000000031
  0
CIRCLE
  8
DETAIL
  6
CONTINUOUS
 62
     5
 10
-207.00000006417
 20
86.250000026737439
 30
0.0
 40
1.00000000031
  0
CIRCLE
  8
DETAIL
  6
CONTINUOUS
 62
     5
 10
-207.00000006417
 20
78.750000024412429
 30
0.0
 40
1.00000000031
  0
CIRCLE
  8
DETAIL
  6
CONTINUOUS
 62
     5
 10
-207.00000006417
 20
71.250000022087534
 30
0.0
 40
1.00000000031
  0
CIRCLE
  8
DETAIL
  6
CONTINUOUS
 62
     5
 10
-207.00000006417
 20
63.750000019762517
 30
0.0
 40
1.00000000031
  0
CIRCLE
  8
DETAIL
  6
CONTINUOUS
 62
     5
 10
-207.00000006417
 20
56.250000017437507
 30
0.0
 40
1.00000000031
  0
ARC
  8
DETAIL
  6
CONTINUOUS
 62
     5
 10
-202.0000000626197
 20
202.2500000626975
 30
0.0
 40
4.0000000012400001
 50
90.0
 51
180.0
  0
ARC
  8
DETAIL
  6
CONTINUOUS
 62
     5
 10
-202.0000000626197
 20
202.2500000626975
 30
0.0
 40
2.0000000006200001
 50
90.0
 51
180.0
  0
CIRCLE
  8
DETAIL
  6
CONTINUOUS
 62
     5
 10
-199.0000000616898
 20
203.25000006300749
 30
0.0
 40
1.00000000031
  0
CIRCLE
  8
DETAIL
  6
CONTINUOUS
 62
     5
 10
-207.00000006417
 20
108.7500000337125
 30
0.0
 40
1.00000000031
  0
CIRCLE
  8
DETAIL
  6
CONTINUOUS
 62
     5
 10
-207.00000006417
 20
116.25000003603751
 30
0.0
 40
1.00000000031
  0
CIRCLE
  8
DETAIL
  6
CONTINUOUS
 62
     5
 10
-207.00000006417
 20
123.7500000383625
 30
0.0
 40
1.00000000031
  0
CIRCLE
  8
DETAIL
  6
CONTINUOUS
 62
     5
 10
-207.00000006417
 20
131.2500000406875
 30
0.0
 40
1.00000000031
  0
CIRCLE
  8
DETAIL
  6
CONTINUOUS
 62
     5
 10
-207.00000006417
 20
138.75000004301251
 30
0.0
 40
1.00000000031
  0
CIRCLE
  8
DETAIL
  6
CONTINUOUS
 62
     5
 10
-207.00000006417
 20
146.25000004533749
 30
0.0
 40
1.00000000031
  0
CIRCLE
  8
DETAIL
  6
CONTINUOUS
 62
     5
 10
-207.00000006417
 20
153.7500000476625
 30
0.0
 40
1.00000000031
  0
CIRCLE
  8
DETAIL
  6
CONTINUOUS
 62
     5
 10
-207.00000006417
 20
161.25000004998751
 30
0.0
 40
1.00000000031
  0
CIRCLE
  8
DETAIL
  6
CONTINUOUS
 62
     5
 10
-207.00000006417
 20
168.75000005231249
 30
0.0
 40
1.00000000031
  0
CIRCLE
  8
DETAIL
  6
CONTINUOUS
 62
     5
 10
-207.00000006417
 20
176.25000005463741
 30
0.0
 40
1.00000000031
  0
CIRCLE
  8
DETAIL
  6
CONTINUOUS
 62
     5
 10
-207.00000006417
 20
183.75000005696259
 30
0.0
 40
1.00000000031
  0
CIRCLE
  8
DETAIL
  6
CONTINUOUS
 62
     5
 10
-207.00000006417
 20
191.25000005928749
 30
0.0
 40
1.00000000031
  0
CIRCLE
  8
DETAIL
  6
CONTINUOUS
 62
     5
 10
-207.00000006417
 20
198.7500000616125
 30
0.0
 40
1.00000000031
  0
ARC
  8
DETAIL
  6
CONTINUOUS
 62
     5
 10
-80.000000024800215
 20
82.500000025574991
 30
0.0
 40
2.8000000008680002
 50
100.22702930439689
 51
180.0
  0
ARC
  8
DETAIL
  6
CONTINUOUS
 62
     5
 10
-80.000000024800215
 20
82.500000025574991
 30
0.0
 40
2.8000000008680002
 50
0.0
 51
79.772970695603121
  0
ARC
  8
DETAIL
  6
CONTINUOUS
 62
     5
 10
-80.000000024800215
 20
80.000000024799988
 30
0.0
 40
2.8000000008680002
 50
354.84907425609788
 51
0.0
  0
ARC
  8
DETAIL
  6
CONTINUOUS
 62
     5
 10
-80.000000024800215
 20
80.000000024799988
 30
0.0
 40
2.8000000008680002
 50
233.5682197788058
 51
306.43178022119332
  0
ARC
  8
DETAIL
  6
CONTINUOUS
 62
     5
 10
-80.000000024800215
 20
80.000000024799988
 30
0.0
 40
2.8000000008680002
 50
180.0
 51
185.1509257438004
  0
CIRCLE
  8
DETAIL
  6
CONTINUOUS
 62
     5
 10
-60.000000018599742
 20
203.25000006300749
 30
0.0
 40
1.00000000031
  0
CIRCLE
  8
DETAIL
  6
CONTINUOUS
 62
     5
 10
60.000000018599962
 20
-203.25000006300749
 30
0.0
 40
1.00000000031
  0
ARC
  8
DETAIL
  6
CONTINUOUS
 62
     5
 10
202.00000006261999
 20
-202.2500000626975
 30
0.0
 40
4.0000000012400001
 50
270.0
 51
0.0
  0
ARC
  8
DETAIL
  6
CONTINUOUS
 62
     5
 10
202.00000006261999
 20
-202.2500000626975
 30
0.0
 40
2.0000000006200001
 50
270.0
 51
0.0
  0
CIRCLE
  8
DETAIL
  6
CONTINUOUS
 62
     5
 10
199.00000006169
 20
-203.25000006300749
 30
0.0
 40
1.00000000031
  0
CIRCLE
  8
DETAIL
  6
CONTINUOUS
 62
     5
 10
207.00000006417019
 20
-161.25000004998751
 30
0.0
 40
1.00000000031
  0
CIRCLE
  8
DETAIL
  6
CONTINUOUS
 62
     5
 10
207.00000006417019
 20
-153.7500000476625
 30
0.0
 40
1.00000000031
  0
CIRCLE
  8
DETAIL
  6
CONTINUOUS
 62
     5
 10
207.00000006417019
 20
-146.25000004533749
 30
0.0
 40
1.00000000031
  0
CIRCLE
  8
DETAIL
  6
CONTINUOUS
 62
     5
 10
207.00000006417019
 20
-138.75000004301251
 30
0.0
 40
1.00000000031
  0
CIRCLE
  8
DETAIL
  6
CONTINUOUS
 62
     5
 10
207.00000006417019
 20
-131.2500000406875
 30
0.0
 40
1.00000000031
  0
CIRCLE
  8
DETAIL
  6
CONTINUOUS
 62
     5
 10
207.00000006417019
 20
-123.7500000383625
 30
0.0
 40
1.00000000031
  0
CIRCLE
  8
DETAIL
  6
CONTINUOUS
 62
     5
 10
207.00000006417019
 20
-116.25000003603751
 30
0.0
 40
1.00000000031
  0
CIRCLE
  8
DETAIL
  6
CONTINUOUS
 62
     5
 10
207.00000006417019
 20
-108.7500000337125
 30
0.0
 40
1.00000000031
  0
CIRCLE
  8
DETAIL
  6
CONTINUOUS
 62
     5
 10
207.00000006417019
 20
-168.75000005231249
 30
0.0
 40
1.00000000031
  0
CIRCLE
  8
DETAIL
  6
CONTINUOUS
 62
     5
 10
207.00000006417019
 20
-176.2500000546375
 30
0.0
 40
1.00000000031
  0
CIRCLE
  8
DETAIL
  6
CONTINUOUS
 62
     5
 10
207.00000006417019
 20
-198.7500000616125
 30
0.0
 40
1.00000000031
  0
CIRCLE
  8
DETAIL
  6
CONTINUOUS
 62
     5
 10
207.00000006417019
 20
-191.25000005928749
 30
0.0
 40
1.00000000031
  0
CIRCLE
  8
DETAIL
  6
CONTINUOUS
 62
     5
 10
207.00000006417019
 20
-183.75000005696251
 30
0.0
 40
1.00000000031
  0
CIRCLE
  8
DETAIL
  6
CONTINUOUS
 62
     5
 10
207.00000006417019
 20
-86.250000026737496
 30
0.0
 40
1.00000000031
  0
CIRCLE
  8
DETAIL
  6
CONTINUOUS
 62
     5
 10
207.00000006417019
 20
-78.750000024412486
 30
0.0
 40
1.00000000031
  0
CIRCLE
  8
DETAIL
  6
CONTINUOUS
 62
     5
 10
207.00000006417019
 20
-71.250000022087477
 30
0.0
 40
1.00000000031
  0
CIRCLE
  8
DETAIL
  6
CONTINUOUS
 62
     5
 10
207.00000006417019
 20
-63.750000019762517
 30
0.0
 40
1.00000000031
  0
CIRCLE
  8
DETAIL
  6
CONTINUOUS
 62
     5
 10
207.00000006417019
 20
-56.250000017437507
 30
0.0
 40
1.00000000031
  0
CIRCLE
  8
DETAIL
  6
CONTINUOUS
 62
     5
 10
207.00000006417019
 20
-48.750000015112512
 30
0.0
 40
1.00000000031
  0
CIRCLE
  8
DETAIL
  6
CONTINUOUS
 62
     5
 10
207.00000006417019
 20
-41.250000012787503
 30
0.0
 40
1.00000000031
  0
CIRCLE
  8
DETAIL
  6
CONTINUOUS
 62
     5
 10
207.00000006417019
 20
-33.750000010462493
 30
0.0
 40
1.00000000031
  0
CIRCLE
  8
DETAIL
  6
CONTINUOUS
 62
     5
 10
207.00000006417019
 20
-26.25000000813748
 30
0.0
 40
1.00000000031
  0
CIRCLE
  8
DETAIL
  6
CONTINUOUS
 62
     5
 10
207.00000006417019
 20
-18.75000000581252
 30
0.0
 40
1.00000000031
  0
CIRCLE
  8
DETAIL
  6
CONTINUOUS
 62
     5
 10
207.00000006417019
 20
-101.2500000313875
 30
0.0
 40
1.00000000031
  0
CIRCLE
  8
DETAIL
  6
CONTINUOUS
 62
     5
 10
207.00000006417019
 20
-93.750000029062505
 30
0.0
 40
1.00000000031
  0
CIRCLE
  8
DETAIL
  6
CONTINUOUS
 62
     5
 10
207.00000006417019
 20
-11.250000003487459
 30
0.0
 40
1.00000000031
  0
CIRCLE
  8
DETAIL
  6
CONTINUOUS
 62
     5
 10
207.00000006417019
 20
-3.7500000011625052
 30
0.0
 40
1.00000000031
  0
ARC
  8
DETAIL
  6
CONTINUOUS
 62
     5
 10
80.000000024799988
 20
82.500000025574991
 30
0.0
 40
2.8000000008680002
 50
100.22702930439689
 51
180.0
  0
ARC
  8
DETAIL
  6
CONTINUOUS
 62
     5
 10
80.000000024799988
 20
82.500000025574991
 30
0.0
 40
2.8000000008680002
 50
0.0
 51
79.772970695603121
  0
ARC
  8
DETAIL
  6
CONTINUOUS
 62
     5
 10
80.000000024799988
 20
80.000000024799988
 30
0.0
 40
2.8000000008680002
 50
354.84907425609788
 51
0.0
  0
ARC
  8
DETAIL
  6
CONTINUOUS
 62
     5
 10
80.000000024799988
 20
80.000000024799988
 30
0.0
 40
2.8000000008680002
 50
233.5682197788058
 51
306.43178022119332
  0
ARC
  8
DETAIL
  6
CONTINUOUS
 62
     5
 10
80.000000024799988
 20
80.000000024799988
 30
0.0
 40
2.8000000008680002
 50
180.0
 51
185.1509257438004
  0
CIRCLE
  8
DETAIL
  6
CONTINUOUS
 62
     5
 10
60.000000018599962
 20
203.25000006300749
 30
0.0
 40
1.00000000031
  0
CIRCLE
  8
DETAIL
  6
CONTINUOUS
 62
     5
 10
207.00000006417019
 20
101.2500000313875
 30
0.0
 40
1.00000000031
  0
CIRCLE
  8
DETAIL
  6
CONTINUOUS
 62
     5
 10
207.00000006417019
 20
3.7500000011625052
 30
0.0
 40
1.00000000031
  0
CIRCLE
  8
DETAIL
  6
CONTINUOUS
 62
     5
 10
207.00000006417019
 20
11.250000003487489
 30
0.0
 40
1.00000000031
  0
CIRCLE
  8
DETAIL
  6
CONTINUOUS
 62
     5
 10
207.00000006417019
 20
18.750000005812471
 30
0.0
 40
1.00000000031
  0
CIRCLE
  8
DETAIL
  6
CONTINUOUS
 62
     5
 10
207.00000006417019
 20
26.250000008137501
 30
0.0
 40
1.00000000031
  0
CIRCLE
  8
DETAIL
  6
CONTINUOUS
 62
     5
 10
207.00000006417019
 20
33.750000010462507
 30
0.0
 40
1.00000000031
  0
CIRCLE
  8
DETAIL
  6
CONTINUOUS
 62
     5
 10
207.00000006417019
 20
41.250000012787467
 30
0.0
 40
1.00000000031
  0
CIRCLE
  8
DETAIL
  6
CONTINUOUS
 62
     5
 10
207.00000006417019
 20
48.750000015112477
 30
0.0
 40
1.00000000031
  0
CIRCLE
  8
DETAIL
  6
CONTINUOUS
 62
     5
 10
207.00000006417019
 20
93.750000029062562
 30
0.0
 40
1.00000000031
  0
CIRCLE
  8
DETAIL
  6
CONTINUOUS
 62
     5
 10
207.00000006417019
 20
86.250000026737439
 30
0.0
 40
1.00000000031
  0
CIRCLE
  8
DETAIL
  6
CONTINUOUS
 62
     5
 10
207.00000006417019
 20
78.750000024412429
 30
0.0
 40
1.00000000031
  0
CIRCLE
  8
DETAIL
  6
CONTINUOUS
 62
     5
 10
207.00000006417019
 20
71.250000022087534
 30
0.0
 40
1.00000000031
  0
CIRCLE
  8
DETAIL
  6
CONTINUOUS
 62
     5
 10
207.00000006417019
 20
63.750000019762517
 30
0.0
 40
1.00000000031
  0
CIRCLE
  8
DETAIL
  6
CONTINUOUS
 62
     5
 10
207.00000006417019
 20
56.250000017437507
 30
0.0
 40
1.00000000031
  0
ARC
  8
DETAIL
  6
CONTINUOUS
 62
     5
 10
202.00000006261999
 20
202.2500000626975
 30
0.0
 40
4.0000000012400001
 50
0.0
 51
90.0
  0
ARC
  8
DETAIL
  6
CONTINUOUS
 62
     5
 10
202.00000006261999
 20
202.2500000626975
 30
0.0
 40
2.0000000006200001
 50
0.0
 51
90.0
  0
CIRCLE
  8
DETAIL
  6
CONTINUOUS
 62
     5
 10
199.00000006169
 20
203.25000006300749
 30
0.0
 40
1.00000000031
  0
CIRCLE
  8
DETAIL
  6
CONTINUOUS
 62
     5
 10
207.00000006417019
 20
108.7500000337125
 30
0.0
 40
1.00000000031
  0
CIRCLE
  8
DETAIL
  6
CONTINUOUS
 62
     5
 10
207.00000006417019
 20
116.25000003603751
 30
0.0
 40
1.00000000031
  0
CIRCLE
  8
DETAIL
  6
CONTINUOUS
 62
     5
 10
207.00000006417019
 20
123.7500000383625
 30
0.0
 40
1.00000000031
  0
CIRCLE
  8
DETAIL
  6
CONTINUOUS
 62
     5
 10
207.00000006417019
 20
131.2500000406875
 30
0.0
 40
1.00000000031
  0
CIRCLE
  8
DETAIL
  6
CONTINUOUS
 62
     5
 10
207.00000006417019
 20
138.75000004301251
 30
0.0
 40
1.00000000031
  0
CIRCLE
  8
DETAIL
  6
CONTINUOUS
 62
     5
 10
207.00000006417019
 20
146.25000004533749
 30
0.0
 40
1.00000000031
  0
CIRCLE
  8
DETAIL
  6
CONTINUOUS
 62
     5
 10
207.00000006417019
 20
153.7500000476625
 30
0.0
 40
1.00000000031
  0
CIRCLE
  8
DETAIL
  6
CONTINUOUS
 62
     5
 10
207.00000006417019
 20
161.25000004998751
 30
0.0
 40
1.00000000031
  0
CIRCLE
  8
DETAIL
  6
CONTINUOUS
 62
     5
 10
207.00000006417019
 20
168.75000005231249
 30
0.0
 40
1.00000000031
  0
CIRCLE
  8
DETAIL
  6
CONTINUOUS
 62
     5
 10
207.00000006417019
 20
176.25000005463741
 30
0.0
 40
1.00000000031
  0
CIRCLE
  8
DETAIL
  6
CONTINUOUS
 62
     5
 10
207.00000006417019
 20
183.75000005696259
 30
0.0
 40
1.00000000031
  0
CIRCLE
  8
DETAIL
  6
CONTINUOUS
 62
     5
 10
207.00000006417019
 20
191.25000005928749
 30
0.0
 40
1.00000000031
  0
CIRCLE
  8
DETAIL
  6
CONTINUOUS
 62
     5
 10
207.00000006417019
 20
198.7500000616125
 30
0.0
 40
1.00000000031
  0
ENDSEC
  0
EOF
