  0
SECTION
  2
HEADER
  9
$ACADVER
  1
AC1009
  9
$DWGCODEPAGE
  3
dos932
  9
$INSBASE
 10
0.0
 20
0.0
 30
0.0
  9
$EXTMIN
 10
-338.5299513681457
 20
-172.07335223452361
 30
-0.0015258207003583
  9
$EXTMAX
 10
722.37855125262649
 20
271.40808870481311
 30
0.0000000349246037
  9
$LIMMIN
 10
-2970.0
 20
-2100.0
  9
$LIMMAX
 10
2970.0
 20
2100.0
  9
$ORTHOMODE
 70
     1
  9
$REGENMODE
 70
     1
  9
$FILLMODE
 70
     1
  9
$QTEXTMODE
 70
     0
  9
$MIRRTEXT
 70
     0
  9
$LTSCALE
 40
20.0
  9
$ATTMODE
 70
     1
  9
$TEXTSIZE
 40
64.0
  9
$TRACEWID
 40
0.05
  9
$TEXTSTYLE
  7
STANDARD
  9
$CLAYER
  8
SIZE
  9
$CELTYPE
  6
CONTINUOUS
  9
$CECOLOR
 62
     7
  9
$DIMSCALE
 40
1.0
  9
$DIMASZ
 40
12.0
  9
$DIMEXO
 40
20.0
  9
$DIMDLI
 40
200.0
  9
$DIMRND
 40
0.0
  9
$DIMDLE
 40
0.0
  9
$DIMEXE
 40
20.0
  9
$DIMTP
 40
0.0
  9
$DIMTM
 40
0.0
  9
$DIMTXT
 40
64.0
  9
$DIMCEN
 40
0.09
  9
$DIMTSZ
 40
0.0
  9
$DIMTOL
 70
     0
  9
$DIMLIM
 70
     0
  9
$DIMTIH
 70
     0
  9
$DIMTOH
 70
     0
  9
$DIMSE1
 70
     0
  9
$DIMSE2
 70
     0
  9
$DIMTAD
 70
     1
  9
$DIMZIN
 70
     8
  9
$DIMBLK
  1

  9
$DIMASO
 70
     1
  9
$DIMSHO
 70
     0
  9
$DIMPOST
  1

  9
$DIMAPOST
  1

  9
$DIMALT
 70
     0
  9
$DIMALTD
 70
     2
  9
$DIMALTF
 40
25.399999999999999
  9
$DIMLFAC
 40
1.0
  9
$DIMTOFL
 70
     1
  9
$DIMTVP
 40
0.0
  9
$DIMTIX
 70
     1
  9
$DIMSOXD
 70
     0
  9
$DIMSAH
 70
     0
  9
$DIMBLK1
  1

  9
$DIMBLK2
  1

  9
$DIMSTYLE
  2
STANDARD
  9
$DIMCLRD
 70
     7
  9
$DIMCLRE
 70
     7
  9
$DIMCLRT
 70
     7
  9
$DIMTFAC
 40
1.0
  9
$DIMGAP
 40
25.0
  9
$LUNITS
 70
     2
  9
$LUPREC
 70
     4
  9
$SKETCHINC
 40
0.1
  9
$FILLETRAD
 40
3.0
  9
$AUNITS
 70
     1
  9
$AUPREC
 70
     3
  9
$MENU
  1
ACAD
  9
$ELEVATION
 40
0.0
  9
$PELEVATION
 40
0.0
  9
$THICKNESS
 40
0.0
  9
$LIMCHECK
 70
     0
  9
$CHAMFERA
 40
0.0
  9
$CHAMFERB
 40
0.0
  9
$SKPOLY
 70
     0
  9
$TDCREATE
 40
2453019.62301037
  9
$TDUPDATE
 40
2459375.454761019
  9
$TDINDWG
 40
1.7193562616
  9
$TDUSRTIMER
 40
1.7193562616
  9
$USRTIMER
 70
     1
  9
$ANGBASE
 50
0.0
  9
$ANGDIR
 70
     0
  9
$PDMODE
 70
     3
  9
$PDSIZE
 40
-2.0
  9
$PLINEWID
 40
0.0
  9
$SPLFRAME
 70
     0
  9
$SPLINETYPE
 70
     6
  9
$SPLINESEGS
 70
     8
  9
$SURFTAB1
 70
     6
  9
$SURFTAB2
 70
     6
  9
$SURFTYPE
 70
     6
  9
$SURFU
 70
     6
  9
$SURFV
 70
     6
  9
$UCSNAME
  2

  9
$UCSORG
 10
0.0
 20
0.0
 30
0.0
  9
$UCSXDIR
 10
1.0
 20
0.0
 30
0.0
  9
$UCSYDIR
 10
0.0
 20
1.0
 30
0.0
  9
$PUCSNAME
  2

  9
$PUCSORG
 10
0.0
 20
0.0
 30
0.0
  9
$PUCSXDIR
 10
1.0
 20
0.0
 30
0.0
  9
$PUCSYDIR
 10
0.0
 20
1.0
 30
0.0
  9
$USERI1
 70
     0
  9
$USERI2
 70
     0
  9
$USERI3
 70
     0
  9
$USERI4
 70
     0
  9
$USERI5
 70
     0
  9
$USERR1
 40
20.0
  9
$USERR2
 40
0.0
  9
$USERR3
 40
0.0
  9
$USERR4
 40
0.0
  9
$USERR5
 40
0.0
  9
$WORLDVIEW
 70
     1
  9
$SHADEDGE
 70
     3
  9
$SHADEDIF
 70
    70
  9
$TILEMODE
 70
     1
  9
$MAXACTVP
 70
    48
  9
$PINSBASE
 10
0.0
 20
0.0
 30
0.0
  9
$PLIMCHECK
 70
     0
  9
$PEXTMIN
 10
-100000000000000000000.0
 20
-100000000000000000000.0
 30
-100000000000000000000.0
  9
$PEXTMAX
 10
100000000000000000000.0
 20
100000000000000000000.0
 30
100000000000000000000.0
  9
$PLIMMIN
 10
0.0
 20
0.0
  9
$PLIMMAX
 10
12.0
 20
9.0
  9
$UNITMODE
 70
     0
  9
$VISRETAIN
 70
     0
  9
$PLINEGEN
 70
     0
  9
$PSLTSCALE
 70
     0
  9
$TREEDEPTH
 70
  3020
  9
$ATTDIA
 70
     0
  9
$ATTREQ
 70
     1
  9
$BLIPMODE
 70
     1
  9
$COORDS
 70
     1
  9
$DRAGMODE
 70
     2
  9
$OSMODE
 70
     0
  9
$HANDLING
 70
     0
  9
$HANDSEED
  5
F07D
  0
ENDSEC
  0
SECTION
  2
TABLES
  0
TABLE
  2
LTYPE
 70
     2
  0
LTYPE
  2
CONTINUOUS
 70
     0
  3
実線
 72
    65
 73
     0
 40
0.0
  0
LTYPE
  2
DASHDOT
 70
     0
  3
____ _ ____ _ ____ _ ____ _ ____ _ ____ _ ____
 72
    65
 73
     4
 40
5.5
 49
4.0
 49
-0.6
 49
0.3
 49
-0.6
  0
ENDTAB
  0
TABLE
  2
LAYER
 70
    12
  0
LAYER
  2
0
 70
     0
 62
     7
  6
CONTINUOUS
  0
LAYER
  2
BASIS
 70
     0
 62
     6
  6
DASHDOT
  0
LAYER
  2
OUTLINE
 70
     0
 62
     3
  6
CONTINUOUS
  0
LAYER
  2
DETAIL
 70
     0
 62
     5
  6
CONTINUOUS
  0
LAYER
  2
SIZE
 70
     0
 62
    30
  6
CONTINUOUS
  0
LAYER
  2
ARRANGE
 70
     0
 62
     1
  6
CONTINUOUS
  0
LAYER
  2
DEFPOINTS
 70
     0
 62
     7
  6
CONTINUOUS
  0
LAYER
  2
ETC
 70
     0
 62
    61
  6
CONTINUOUS
  0
LAYER
  2
FIX
 70
    64
 62
    11
  6
CONTINUOUS
  0
LAYER
  2
NOTE
 70
    64
 62
     4
  6
CONTINUOUS
  0
LAYER
  2
SERVICESPACE
 70
    64
 62
     2
  6
DASHDOT
  0
LAYER
  2
SYMBOLLINE
 70
    64
 62
    15
  6
CONTINUOUS
  0
ENDTAB
  0
TABLE
  2
STYLE
 70
     1
  0
STYLE
  2
STANDARD
 70
     0
 40
64.0
 41
0.9
 50
0.0
 71
     0
 42
64.0
  3
SIMPLEX.shx
  4
BIGFONT.shx
  0
ENDTAB
  0
TABLE
  2
APPID
 70
    19
  0
APPID
  2
ACAD
 70
     0
  0
APPID
  2
AUTOCAD_POSTSCRIPT_FIGURE
 70
     0
  0
APPID
  2
ACAD_EXEMPT_FROM_CAD_STANDARDS
 70
     0
  0
APPID
  2
ACAD_PSEXT
 70
     0
  0
APPID
  2
ACAUTHENVIRON
 70
     0
  0
APPID
  2
GENIUS_GENOENT_13
 70
     0
  0
APPID
  2
GENIUS_GENCFG_13
 70
     0
  0
APPID
  2
GENIUS_GENCFG0_13
 70
     0
  0
APPID
  2
GENIUS_GENCFG1_13
 70
     0
  0
APPID
  2
GENIUS_GENCFG2_13
 70
     0
  0
APPID
  2
GENIUS_GENCFG3_13
 70
     0
  0
APPID
  2
GENIUS_GENCFG4_13
 70
     0
  0
APPID
  2
GENIUS_GEVCFG0_13
 70
     0
  0
APPID
  2
CONTENTBLOCKICON
 70
     0
  0
APPID
  2
CONTENTBLOCKDESCRIPTION
 70
     0
  0
APPID
  2
ACAD_NAV_VCDISPLAY
 70
     0
  0
APPID
  2
ACAD_MLEADERVER
 70
     0
  0
APPID
  2
ACDBDYNAMICBLOCKTRUENAME
 70
     0
  0
APPID
  2
ACDBDYNAMICBLOCKGUID
 70
     0
  0
ENDTAB
  0
TABLE
  2
DIMSTYLE
 70
     1
  0
DIMSTYLE
  2
STANDARD
 70
     0
  3

  4

  5
_ORIGIN
  6

  7

 40
1.0
 41
12.0
 42
20.0
 43
200.0
 44
20.0
 45
0.0
 46
0.0
 47
0.0
 48
0.0
140
64.0
141
0.09
142
0.0
143
25.399999999999999
144
1.0
145
0.0
146
1.0
147
25.0
 71
     0
 72
     0
 73
     0
 74
     0
 75
     0
 76
     0
 77
     1
 78
     8
170
     0
171
     2
172
     1
173
     0
174
     1
175
     0
176
     7
177
     7
178
     7
  0
ENDTAB
  0
TABLE
  2
VIEW
 70
     1
  0
VIEW
  2
ALL
 70
     0
 40
4282.6198079999986
 10
0.0
 20
41.309904000000003
 41
5940.0
 11
0.0
 21
0.0
 31
1.0
 12
0.0
 22
0.0
 32
0.0
 42
50.0
 43
0.0
 44
0.0
 50
0.0
 71
     0
  0
ENDTAB
  0
TABLE
  2
UCS
 70
     0
  0
ENDTAB
  0
TABLE
  2
VPORT
 70
     1
  0
VPORT
  2
*ACTIVE
 70
     0
 10
0.0
 20
0.0
 11
1.0
 21
1.0
 12
191.92429994224051
 22
49.667368235144721
 13
0.0
 23
0.0
 14
1.0
 24
1.0
 15
0.0
 25
0.0
 16
0.0
 26
0.0
 36
1.0
 17
0.0
 27
0.0
 37
0.0
 40
602.56322423937308
 41
1.767337807606264
 42
50.0
 43
0.0
 44
0.0
 50
0.0
 51
0.0
 71
     0
 72
  1000
 73
     1
 74
     3
 75
     0
 76
     0
 77
     0
 78
     0
  0
ENDTAB
  0
ENDSEC
  0
SECTION
  2
BLOCKS
  0
BLOCK
  8
0
  2
_ORIGIN
 70
     0
 10
0.0
 20
0.0
 30
0.0
  3
_ORIGIN
  1
_ORIGIN
  0
CIRCLE
  8
SIZE
  6
CONTINUOUS
 62
    30
 10
0.0
 20
0.0
 30
0.0
 40
0.5
  0
LINE
  8
SIZE
  6
CONTINUOUS
 62
    30
 10
0.0
 20
0.0
 30
0.0
 11
-1.0
 21
0.0
 31
0.0
  0
ENDBLK
  8
0
  0
ENDSEC
  0
SECTION
  2
ENTITIES
  0
LINE
  8
BASIS
  6
DASHDOT
 62
     6
 10
-0.0000000000000105
 20
-171.90897497196599
 30
0.0
 11
0.0000000000000036
 21
59.315399726721807
 31
0.0
  0
CIRCLE
  8
ARRANGE
  6
CONTINUOUS
 62
     1
 10
0.0
 20
0.0
 30
0.0
 40
40.0
  0
POINT
  8
ARRANGE
  6
CONTINUOUS
 62
     1
 10
0.0
 20
0.0
 30
0.0
 50
90.0
  0
ARC
  8
DETAIL
  6
CONTINUOUS
 62
     5
 10
-193.5
 20
-1.499999999999988
 30
0.0
 40
1.5
 50
90.0
 51
270.0
  0
LINE
  8
DETAIL
  6
CONTINUOUS
 62
     5
 10
-193.5
 20
0.0000000000000118
 30
0.0
 11
-150.82041056026401
 21
-0.0000000000009003
 31
0.0
  0
LINE
  8
DETAIL
  6
CONTINUOUS
 62
     5
 10
-193.5
 20
-2.999999999999988
 30
0.0
 11
-153.14459559313889
 21
-2.9999999999999911
 31
0.0
  0
ARC
  8
DETAIL
  6
CONTINUOUS
 62
     5
 10
-118.6351092140431
 20
-140.5
 30
0.0
 40
1.5
 50
90.0
 51
270.0
  0
ARC
  8
DETAIL
  6
CONTINUOUS
 62
     5
 10
-184.79241208287749
 20
-73.013299999971409
 30
0.0
 40
1.5
 50
90.0
 51
270.0
  0
ARC
  8
DETAIL
  6
CONTINUOUS
 62
     5
 10
-137.2195045290226
 20
-1.499999999999992
 30
0.0
 40
1.5
 50
90.0
 51
270.0
  0
ARC
  8
DETAIL
  6
CONTINUOUS
 62
     5
 10
-153.14459559313889
 20
-1.4999999999999909
 30
0.0
 40
1.5
 50
270.0
 51
90.0
  0
LINE
  8
DETAIL
  6
CONTINUOUS
 62
     5
 10
-146.1900000000023
 20
-74.513299999971409
 30
0.0
 11
-184.79241208287749
 21
-74.513299999971409
 31
0.0
  0
LINE
  8
DETAIL
  6
CONTINUOUS
 62
     5
 10
-146.1900000000023
 20
-71.513299999971409
 30
0.0
 11
-184.79241208287749
 21
-71.513299999971409
 31
0.0
  0
LINE
  8
DETAIL
  6
CONTINUOUS
 62
     5
 10
1.000000000000109
 20
-71.513299999971423
 30
0.0
 11
1.000000000000113
 21
-3.0
 31
0.0
  0
LINE
  8
DETAIL
  6
CONTINUOUS
 62
     5
 10
0.9041666666671472
 20
-74.513299999973242
 30
0.0
 11
0.9041666666671433
 21
-138.16407711761349
 31
0.0
  0
ARC
  8
DETAIL
  6
CONTINUOUS
 62
     5
 10
-0.000000000000179
 20
-138.0930476612393
 30
0.0
 40
0.9069523387612433
 50
184.49181247730999
 51
355.50818752268992
  0
LINE
  8
DETAIL
  6
CONTINUOUS
 62
     5
 10
-0.9041666666671563
 20
-74.513299999973242
 30
0.0
 11
-0.9041666666671602
 21
-138.16407711761349
 31
0.0
  0
LINE
  8
DETAIL
  6
CONTINUOUS
 62
     5
 10
-1.0000000000001179
 20
-71.513299999971423
 30
0.0
 11
-1.0000000000001139
 21
-3.0
 31
0.0
  0
ARC
  8
DETAIL
  6
CONTINUOUS
 62
     5
 10
-108.7529351379317
 20
-91.028355112457575
 30
0.0
 40
48.018950731710419
 50
183.06192635969089
 51
267.45654325724109
  0
ARC
  8
DETAIL
  6
CONTINUOUS
 62
     5
 10
-103.17355731750411
 20
-86.428131100456994
 30
0.0
 40
51.85909923802825
 50
187.54776985171529
 51
256.77220924986858
  0
ARC
  8
DETAIL
  6
CONTINUOUS
 62
     5
 10
-118.2146748332415
 20
-90.261372803194703
 30
0.0
 40
46.886698765686823
 50
183.6423092524216
 51
264.24921581257701
  0
ARC
  8
DETAIL
  6
CONTINUOUS
 62
     5
 10
-118.0604749061239
 20
-90.035262383856193
 30
0.0
 40
49.018825930290987
 50
184.16248187470961
 51
267.3081686762809
  0
ARC
  8
DETAIL
  6
CONTINUOUS
 62
     5
 10
-130.0372520220175
 20
-88.219007541895721
 30
0.0
 40
50.801156389182793
 50
186.0727269782341
 51
268.38563103764358
  0
ARC
  8
DETAIL
  6
CONTINUOUS
 62
     5
 10
-128.58382775441621
 20
-88.24345992523466
 30
0.0
 40
50.838443533930203
 50
186.0405434154253
 51
266.74724799841209
  0
ARC
  8
DETAIL
  6
CONTINUOUS
 62
     5
 10
-122.94113178768021
 20
-87.069613678216214
 30
0.0
 40
52.016244706547717
 50
187.20479873079211
 51
266.70754956976242
  0
ARC
  8
DETAIL
  6
CONTINUOUS
 62
     5
 10
-128.67904884708241
 20
-88.463342542891027
 30
0.0
 40
48.576369732503572
 50
185.64314255876309
 51
250.8048964105308
  0
ARC
  8
DETAIL
  6
CONTINUOUS
 62
     5
 10
-93.649152339981697
 20
-90.318132855780277
 30
0.0
 40
47.949951528179312
 50
183.49348673739169
 51
256.33758803712692
  0
ARC
  8
DETAIL
  6
CONTINUOUS
 62
     5
 10
-93.26588946132955
 20
-90.071066574671022
 30
0.0
 40
50.475107204326797
 50
183.80043745440719
 51
255.78185104130779
  0
ARC
  8
DETAIL
  6
CONTINUOUS
 62
     5
 10
-34.701637699759097
 20
-92.84808167578467
 30
0.0
 40
54.164679680509252
 50
180.60142899091531
 51
234.43978276017961
  0
ARC
  8
DETAIL
  6
CONTINUOUS
 62
     5
 10
-35.919372759793987
 20
-93.550558064538563
 30
0.0
 40
54.887457294482068
 50
179.86019885297449
 51
235.8987258595559
  0
LINE
  8
DETAIL
  6
CONTINUOUS
 62
     5
 10
-111.9926688118517
 20
-71.513299999971423
 30
0.0
 11
-117.32066452151081
 21
-3.0000000000009019
 31
0.0
  0
LINE
  8
DETAIL
  6
CONTINUOUS
 62
     5
 10
-110.0498020736691
 20
-71.513299999971423
 30
0.0
 11
-115.20019792635421
 21
-3.0000000000009019
 31
0.0
  0
LINE
  8
DETAIL
  6
CONTINUOUS
 62
     5
 10
-88.86333333334187
 20
-93.416633333293248
 30
0.0
 11
-89.923333333339542
 21
-74.513299999972332
 31
0.0
  0
LINE
  8
DETAIL
  6
CONTINUOUS
 62
     5
 10
-90.806666666670935
 20
-93.416633333293248
 30
0.0
 11
-92.043333333334886
 21
-74.513299999972332
 31
0.0
  0
LINE
  8
DETAIL
  6
CONTINUOUS
 62
     5
 10
-183.3571368371141
 20
-71.513299999971409
 30
0.0
 11
-192.05952982958689
 21
-2.999999999999988
 31
0.0
  0
LINE
  8
DETAIL
  6
CONTINUOUS
 62
     5
 10
-181.76760343227849
 20
-71.513299999971409
 30
0.0
 11
-190.29239656774811
 21
-2.999999999999988
 31
0.0
  0
LINE
  8
DETAIL
  6
CONTINUOUS
 62
     5
 10
-167.45900321776401
 20
-71.513299999971409
 30
0.0
 11
-175.45099678225299
 21
-2.9999999999999889
 31
0.0
  0
LINE
  8
DETAIL
  6
CONTINUOUS
 62
     5
 10
-169.40233655109321
 20
-71.513299999971409
 30
0.0
 11
-177.39433011559669
 21
-2.9999999999999889
 31
0.0
  0
LINE
  8
DETAIL
  6
CONTINUOUS
 62
     5
 10
-176.99760343227439
 20
-71.513299999971409
 30
0.0
 11
-185.5223965677441
 21
-2.999999999999988
 31
0.0
  0
LINE
  8
DETAIL
  6
CONTINUOUS
 62
     5
 10
-175.05473669409179
 20
-71.513299999971409
 30
0.0
 11
-183.40192997258751
 21
-2.9999999999999889
 31
0.0
  0
LINE
  8
DETAIL
  6
CONTINUOUS
 62
     5
 10
-166.44006359195021
 20
-2.9999999999999898
 30
0.0
 11
-158.80326974140931
 21
-71.513299999971409
 31
0.0
  0
LINE
  8
DETAIL
  6
CONTINUOUS
 62
     5
 10
-164.31959699677901
 20
-2.9999999999999898
 30
0.0
 11
-156.8604030032412
 21
-71.513299999971409
 31
0.0
  0
LINE
  8
DETAIL
  6
CONTINUOUS
 62
     5
 10
-179.140000000014
 20
-93.593300000046824
 30
0.0
 11
-181.43666666667559
 21
-74.513299999971409
 31
0.0
  0
LINE
  8
DETAIL
  6
CONTINUOUS
 62
     5
 10
-152.47935749531371
 20
-2.8444174475225639
 30
0.0
 11
-145.54025709957159
 21
-71.661325827385539
 31
0.0
  0
LINE
  8
DETAIL
  6
CONTINUOUS
 62
     5
 10
-150.82041056026401
 20
-0.0000000000018098
 30
0.0
 11
-141.51000000000931
 21
-93.239966666656059
 31
0.0
  0
LINE
  8
DETAIL
  6
CONTINUOUS
 62
     5
 10
-158.47000000000119
 20
-74.513299999971409
 30
0.0
 11
-156.70333333333841
 21
-93.593300000046824
 31
0.0
  0
LINE
  8
DETAIL
  6
CONTINUOUS
 62
     5
 10
-165.00666666668261
 20
-93.239966666656059
 30
0.0
 11
-167.12666666667789
 21
-74.513299999971409
 31
0.0
  0
LINE
  8
DETAIL
  6
CONTINUOUS
 62
     5
 10
-166.95000000001161
 20
-93.593300000046824
 30
0.0
 11
-169.07000000000701
 21
-74.513299999971409
 31
0.0
  0
LINE
  8
DETAIL
  6
CONTINUOUS
 62
     5
 10
-180.5533333333442
 20
-93.593300000046824
 30
0.0
 11
-183.0266666666721
 21
-74.513299999971409
 31
0.0
  0
LINE
  8
DETAIL
  6
CONTINUOUS
 62
     5
 10
-177.0200000000041
 20
-93.239966666656059
 30
0.0
 11
-179.31666666668019
 21
-74.513299999971409
 31
0.0
  0
LINE
  8
DETAIL
  6
CONTINUOUS
 62
     5
 10
-174.54666666666159
 20
-93.593300000046824
 30
0.0
 11
-176.66666666667149
 21
-74.513299999971409
 31
0.0
  0
LINE
  8
DETAIL
  6
CONTINUOUS
 62
     5
 10
-90.088335120980162
 20
-71.513299999971423
 30
0.0
 11
-94.528331545696119
 21
-3.0000000000009042
 31
0.0
  0
LINE
  8
DETAIL
  6
CONTINUOUS
 62
     5
 10
-127.73000000001051
 20
-74.513299999972318
 30
0.0
 11
-126.2133333333403
 21
-93.260800000028198
 31
0.0
  0
LINE
  8
DETAIL
  6
CONTINUOUS
 62
     5
 10
-129.67333333333951
 20
-74.513299999972318
 30
0.0
 11
-128.08333333334301
 21
-93.416633333293234
 31
0.0
  0
LINE
  8
DETAIL
  6
CONTINUOUS
 62
     5
 10
-92.208801716136406
 20
-71.513299999971423
 30
0.0
 11
-96.471198283878493
 21
-3.0000000000009042
 31
0.0
  0
LINE
  8
DETAIL
  6
CONTINUOUS
 62
     5
 10
-109.8866666666727
 20
-74.513299999972332
 30
0.0
 11
-108.47333333332701
 21
-93.416633333293248
 31
0.0
  0
LINE
  8
DETAIL
  6
CONTINUOUS
 62
     5
 10
-111.8300000000163
 20
-74.513299999972332
 30
0.0
 11
-110.4166666666717
 21
-93.416633333293248
 31
0.0
  0
ARC
  8
DETAIL
  6
CONTINUOUS
 62
     5
 10
-56.687879384600258
 20
-90.850095160349156
 30
0.0
 40
51.849015023132061
 50
182.83731377259519
 51
242.66937562145219
  0
ARC
  8
DETAIL
  6
CONTINUOUS
 62
     5
 10
-58.236040567777998
 20
-92.155211592332307
 30
0.0
 40
52.195870764660107
 50
181.3848064605825
 51
243.82887179647059
  0
LINE
  8
SIZE
  6
CONTINUOUS
 62
    30
 10
-148.07497068477281
 20
-142.00000000000011
 30
0.0
 11
-269.45046510147989
 21
-142.00000000000011
 31
0.0
  0
LINE
  8
SIZE
  6
CONTINUOUS
 62
    30
 10
-213.50000000000011
 20
0.0000000000000086
 30
0.0
 11
-269.45046510147989
 21
-0.0000000000000004
 31
0.0
  0
LINE
  8
SIZE
  6
CONTINUOUS
 62
    30
 10
-249.45046510147989
 20
-154.00000000000011
 30
0.0
 11
-249.45046510147989
 21
-166.00000000000011
 31
0.0
  0
LINE
  8
SIZE
  6
CONTINUOUS
 62
    30
 10
-249.45046510147989
 20
12.000000000000011
 30
0.0
 11
-249.45046510147989
 21
24.000000000000011
 31
0.0
  0
LINE
  8
SIZE
  6
CONTINUOUS
 62
    30
 10
-249.45046510147989
 20
-142.00000000000011
 30
0.0
 11
-249.45046510147989
 21
0.0000000000000029
 31
0.0
  0
CIRCLE
  8
SIZE
  6
CONTINUOUS
 62
    30
 10
-249.45046510147989
 20
-142.00000000000011
 30
0.0
 40
6.0
  0
LINE
  8
SIZE
  6
CONTINUOUS
 62
    30
 10
-249.45046510147989
 20
-142.00000000000011
 30
0.0
 11
-249.45046510147989
 21
-154.00000000000011
 31
0.0
  0
CIRCLE
  8
SIZE
  6
CONTINUOUS
 62
    30
 10
-249.45046510147989
 20
0.0000000000000029
 30
0.0
 40
6.0
  0
LINE
  8
SIZE
  6
CONTINUOUS
 62
    30
 10
-249.45046510147989
 20
0.0000000000000029
 30
0.0
 11
-249.45046510147989
 21
12.000000000000004
 31
0.0
  0
TEXT
  8
SIZE
  6
CONTINUOUS
 62
    30
 10
-274.45046510147989
 20
-146.16799999999995
 30
0.0
 40
64.0
  1
142
 50
90.0
 41
0.9
 51
0.0
  7
STANDARD
 71
     0
 72
     1
 11
-274.45046510147989
 21
-70.999999999999957
 31
0.0
210
0.0
220
0.0
230
1.0
  0
POINT
  8
DEFPOINTS
  6
CONTINUOUS
 62
    30
 10
-128.07497068477281
 20
-142.00000000000011
 30
0.0
  0
POINT
  8
DEFPOINTS
  6
CONTINUOUS
 62
    30
 10
-193.50000000000011
 20
0.0000000000000118
 30
0.0
  0
POINT
  8
DEFPOINTS
  6
CONTINUOUS
 62
    30
 10
-249.45046510147989
 20
0.0000000000000029
 30
0.0
  0
LINE
  8
SIZE
  6
CONTINUOUS
 62
    30
 10
-195.0
 20
18.500000000000011
 30
0.0
 11
-195.0
 21
110.9312283074965
 31
0.0
  0
LINE
  8
SIZE
  6
CONTINUOUS
 62
    30
 10
195.0
 20
18.499999999999989
 30
0.0
 11
195.0
 21
110.9312283074965
 31
0.0
  0
LINE
  8
SIZE
  6
CONTINUOUS
 62
    30
 10
-183.0
 20
90.931228307496497
 30
0.0
 11
183.0
 21
90.931228307496497
 31
0.0
  0
CIRCLE
  8
SIZE
  6
CONTINUOUS
 62
    30
 10
-195.0
 20
90.931228307496497
 30
0.0
 40
6.0
  0
LINE
  8
SIZE
  6
CONTINUOUS
 62
    30
 10
-195.0
 20
90.931228307496497
 30
0.0
 11
-183.0
 21
90.931228307496497
 31
0.0
  0
CIRCLE
  8
SIZE
  6
CONTINUOUS
 62
    30
 10
195.0
 20
90.931228307496497
 30
0.0
 40
6.0
  0
LINE
  8
SIZE
  6
CONTINUOUS
 62
    30
 10
195.0
 20
90.931228307496497
 30
0.0
 11
183.0
 21
90.931228307496497
 31
0.0
  0
TEXT
  8
SIZE
  6
CONTINUOUS
 62
    30
 10
-115.488
 20
115.9312283074965
 30
0.0
 40
64.0
  1
φ390
 50
0.0
 41
0.9
 51
0.0
  7
STANDARD
 71
     0
 72
     1
 11
0.0
 21
115.9312283074965
 31
0.0
210
0.0
220
0.0
230
1.0
  0
POINT
  8
DEFPOINTS
  6
CONTINUOUS
 62
    30
 10
-195.0
 20
-1.499999999999988
 30
0.0
  0
POINT
  8
DEFPOINTS
  6
CONTINUOUS
 62
    30
 10
195.0
 20
-1.500000000000012
 30
0.0
  0
POINT
  8
DEFPOINTS
  6
CONTINUOUS
 62
    30
 10
195.0
 20
90.931228307496497
 30
0.0
  0
LINE
  8
DETAIL
  6
CONTINUOUS
 62
     5
 10
-179.6476034322832
 20
-71.513299999971409
 30
0.0
 11
-188.17239656773819
 21
-2.999999999999988
 31
0.0
  0
LINE
  8
DETAIL
  6
CONTINUOUS
 62
     5
 10
-70.834934620439185
 20
-71.513299999971423
 30
0.0
 11
-74.031732046249431
 21
-3.0000000000009051
 31
0.0
  0
LINE
  8
DETAIL
  6
CONTINUOUS
 62
     5
 10
-68.714468025268332
 20
-71.513299999971423
 30
0.0
 11
-72.088865308081722
 21
-3.0000000000009051
 31
0.0
  0
LINE
  8
DETAIL
  6
CONTINUOUS
 62
     5
 10
-48.223934262917062
 20
-71.513299999971423
 30
0.0
 11
-50.532732403769437
 21
-3.0000000000009059
 31
0.0
  0
LINE
  8
DETAIL
  6
CONTINUOUS
 62
     5
 10
-46.281067524749012
 20
-71.513299999971423
 30
0.0
 11
-48.412265808612688
 21
-3.0000000000009059
 31
0.0
  0
LINE
  8
DETAIL
  6
CONTINUOUS
 62
     5
 10
-145.38570579818281
 20
-74.279440133179364
 30
0.0
 11
-143.63000000000471
 21
-93.416633333293234
 31
0.0
  0
LINE
  8
DETAIL
  6
CONTINUOUS
 62
     5
 10
-156.5266666666721
 20
-74.513299999971409
 30
0.0
 11
-154.58333333334301
 21
-93.239966666656059
 31
0.0
  0
ARC
  8
DETAIL
  6
CONTINUOUS
 62
     5
 10
-123.5452821360964
 20
-88.18159838883092
 30
0.0
 40
49.318145513642712
 50
185.88695536026091
 51
257.65572621626927
  0
LINE
  8
DETAIL
  6
CONTINUOUS
 62
     5
 10
-172.60333333333261
 20
-93.239966666656059
 30
0.0
 11
-174.7233333333279
 21
-74.513299999971409
 31
0.0
  0
ARC
  8
DETAIL
  6
CONTINUOUS
 62
     5
 10
-3.275128205176435
 20
-93.066697435967399
 30
0.0
 40
64.565820098670287
 50
180.3105350190886
 51
222.77088812746351
  0
ARC
  8
DETAIL
  6
CONTINUOUS
 62
     5
 10
-2.3840750431597879
 20
-93.136834031287435
 30
0.0
 40
67.399839062982366
 50
180.23785465048431
 51
222.87991447000101
  0
LINE
  8
DETAIL
  6
CONTINUOUS
 62
     5
 10
-67.839999999996508
 20
-93.416633333293248
 30
0.0
 11
-68.723333333327901
 21
-74.513299999972332
 31
0.0
  0
LINE
  8
DETAIL
  6
CONTINUOUS
 62
     5
 10
-69.783333333340124
 20
-93.416633333293248
 30
0.0
 11
-70.666666666671517
 21
-74.513299999972332
 31
0.0
  0
ARC
  8
DETAIL
  6
CONTINUOUS
 62
     5
 10
49.896028192475619
 20
-92.120638308456364
 30
0.0
 40
95.484823728790062
 50
180.77768720061059
 51
207.97503336630979
  0
ARC
  8
DETAIL
  6
CONTINUOUS
 62
     5
 10
47.517815897614398
 20
-91.915782051287351
 30
0.0
 40
95.052998909620584
 50
180.90471651274609
 51
209.69263457948509
  0
LINE
  8
DETAIL
  6
CONTINUOUS
 62
     5
 10
-45.580000000016312
 20
-93.416633333293248
 30
0.0
 11
-46.110000000015141
 21
-74.513299999972332
 31
0.0
  0
LINE
  8
DETAIL
  6
CONTINUOUS
 62
     5
 10
-47.52333333334537
 20
-93.416633333293248
 30
0.0
 11
-48.230000000010477
 21
-74.513299999972332
 31
0.0
  0
ARC
  8
DETAIL
  6
CONTINUOUS
 62
     5
 10
-8.8397256480689155
 20
-137.95565311140669
 30
0.0
 40
1.0543152222771821
 50
277.8850862928025
 51
82.114913707197488
  0
LINE
  8
DETAIL
  6
CONTINUOUS
 62
     5
 10
-115.0401155103916
 20
-136.91130622281341
 30
0.0
 11
-112.0735580301039
 21
-136.91130622281341
 31
0.0
  0
LINE
  8
DETAIL
  6
CONTINUOUS
 62
     5
 10
-104.9749656504839
 20
-136.91130622281341
 30
0.0
 11
-99.401613665678738
 21
-136.91130622281341
 31
0.0
  0
LINE
  8
DETAIL
  6
CONTINUOUS
 62
     5
 10
-94.667192784061811
 20
-136.91130622281341
 30
0.0
 11
-85.093086539152992
 21
-136.91130622281341
 31
0.0
  0
LINE
  8
DETAIL
  6
CONTINUOUS
 62
     5
 10
-80.493029968625379
 20
-136.91130622281341
 30
0.0
 11
-69.571690472074764
 21
-136.91130622281341
 31
0.0
  0
ARC
  8
DETAIL
  6
CONTINUOUS
 62
     5
 10
-146.1900000000023
 20
-73.013299999971409
 30
0.0
 40
1.5
 50
270.0
 51
90.0
  0
ARC
  8
DETAIL
  6
CONTINUOUS
 62
     5
 10
-130.90596681208149
 20
-73.013299999971409
 30
0.0
 40
1.5
 50
90.0
 51
270.0
  0
LINE
  8
DETAIL
  6
CONTINUOUS
 62
     5
 10
-130.01080243119699
 20
-71.513299999971409
 30
0.0
 11
-136.04919756882549
 21
-3.0000000000009011
 31
0.0
  0
LINE
  8
DETAIL
  6
CONTINUOUS
 62
     5
 10
-127.8903382313558
 20
-71.513299999971409
 30
0.0
 11
-134.1063308243337
 21
-2.999999999999992
 31
0.0
  0
ARC
  8
DETAIL
  6
CONTINUOUS
 62
     5
 10
-77.700020917897007
 20
-91.424740344054044
 30
0.0
 40
48.548044209614609
 50
182.167410960046
 51
249.54372959985369
  0
ARC
  8
DETAIL
  6
CONTINUOUS
 62
     5
 10
-77.511085682643966
 20
-91.271882782172725
 30
0.0
 40
50.617706263422832
 50
182.42843786830551
 51
250.54673779749379
  0
LINE
  8
DETAIL
  6
CONTINUOUS
 62
     5
 10
-24.907200429037349
 20
-71.513299999971423
 30
0.0
 11
-25.97279957096919
 21
-3.0000000000009082
 31
0.0
  0
LINE
  8
DETAIL
  6
CONTINUOUS
 62
     5
 10
-22.78673383388093
 20
-71.513299999971423
 30
0.0
 11
-24.029932832801482
 21
-3.0000000000009082
 31
0.0
  0
ARC
  8
DETAIL
  6
CONTINUOUS
 62
     5
 10
150.11505934471921
 20
-91.392065722559906
 30
0.0
 40
172.74025735524771
 50
180.67153909045479
 51
195.2785920844876
  0
ARC
  8
DETAIL
  6
CONTINUOUS
 62
     5
 10
187.2045752389262
 20
-85.225331039588141
 30
0.0
 40
211.91960977377241
 50
182.21519846712741
 51
194.6995484071727
  0
LINE
  8
DETAIL
  6
CONTINUOUS
 62
     5
 10
-22.613333333341881
 20
-93.416633333293248
 30
0.0
 11
-22.790000000008149
 21
-74.513299999972332
 31
0.0
  0
LINE
  8
DETAIL
  6
CONTINUOUS
 62
     5
 10
-24.556666666670939
 20
-93.416633333293248
 30
0.0
 11
-24.9100000000035
 21
-74.513299999971423
 31
0.0
  0
LINE
  8
DETAIL
  6
CONTINUOUS
 62
     5
 10
-141.49284048893421
 20
-93.508643137934072
 30
0.0
 11
-128.07934737395641
 21
-93.508643137934072
 31
0.0
  0
LINE
  8
DETAIL
  6
CONTINUOUS
 62
     5
 10
-126.20331921527421
 20
-93.508643137934072
 30
0.0
 11
-121.6857901585294
 21
-93.508643137934072
 31
0.0
  0
LINE
  8
DETAIL
  6
CONTINUOUS
 62
     5
 10
-143.56635393749249
 20
-96.508643137934072
 30
0.0
 11
-143.32879044879141
 21
-96.508643137934072
 31
0.0
  0
LINE
  8
DETAIL
  6
CONTINUOUS
 62
     5
 10
-141.19781619083349
 20
-96.508643137934072
 30
0.0
 11
-127.85717320040921
 21
-96.508643137934072
 31
0.0
  0
LINE
  8
DETAIL
  6
CONTINUOUS
 62
     5
 10
-125.9811407160238
 20
-96.508643137934982
 30
0.0
 11
-121.6857901585294
 21
-96.508643137934072
 31
0.0
  0
ARC
  8
DETAIL
  6
CONTINUOUS
 62
     5
 10
-121.6857901585294
 20
-95.008643137934072
 30
0.0
 40
1.5
 50
270.0
 51
90.0
  0
ARC
  8
DETAIL
  6
CONTINUOUS
 62
     5
 10
-143.56635393749249
 20
-95.008643137934072
 30
0.0
 40
1.5
 50
92.192086924355166
 51
270.0
  0
ARC
  8
DETAIL
  6
CONTINUOUS
 62
     5
 10
193.5
 20
-1.500000000000012
 30
0.0
 40
1.5
 50
270.0
 51
90.0
  0
LINE
  8
DETAIL
  6
CONTINUOUS
 62
     5
 10
193.5
 20
-0.0000000000000118
 30
0.0
 11
150.82041056026401
 21
-0.0000000000009187
 31
0.0
  0
LINE
  8
DETAIL
  6
CONTINUOUS
 62
     5
 10
193.5
 20
-3.000000000000012
 30
0.0
 11
153.14459559313889
 21
-3.0000000000000089
 31
0.0
  0
ARC
  8
DETAIL
  6
CONTINUOUS
 62
     5
 10
118.635109214043
 20
-140.5
 30
0.0
 40
1.5
 50
270.0
 51
90.0
  0
ARC
  8
DETAIL
  6
CONTINUOUS
 62
     5
 10
184.79241208287749
 20
-73.013299999971437
 30
0.0
 40
1.5
 50
270.0
 51
90.0
  0
ARC
  8
DETAIL
  6
CONTINUOUS
 62
     5
 10
137.21950452902269
 20
-1.500000000000008
 30
0.0
 40
1.5
 50
270.0
 51
90.0
  0
ARC
  8
DETAIL
  6
CONTINUOUS
 62
     5
 10
153.14459559313889
 20
-1.5000000000000091
 30
0.0
 40
1.5
 50
90.0
 51
270.0
  0
LINE
  8
DETAIL
  6
CONTINUOUS
 62
     5
 10
-137.2195045290226
 20
0.0000000000000084
 30
0.0
 11
137.21950452902269
 21
-0.0000000000000084
 31
0.0
  0
LINE
  8
DETAIL
  6
CONTINUOUS
 62
     5
 10
-137.2195045290226
 20
-2.999999999999992
 30
0.0
 11
137.21950452902269
 21
-3.000000000000008
 31
0.0
  0
LINE
  8
DETAIL
  6
CONTINUOUS
 62
     5
 10
146.1900000000023
 20
-74.513299999971437
 30
0.0
 11
184.79241208287749
 21
-74.513299999971437
 31
0.0
  0
LINE
  8
DETAIL
  6
CONTINUOUS
 62
     5
 10
-130.90596681208149
 20
-74.513299999971409
 30
0.0
 11
130.90596681208149
 21
-74.513299999971437
 31
0.0
  0
LINE
  8
DETAIL
  6
CONTINUOUS
 62
     5
 10
146.1900000000023
 20
-71.513299999971437
 30
0.0
 11
184.79241208287749
 21
-71.513299999971437
 31
0.0
  0
LINE
  8
DETAIL
  6
CONTINUOUS
 62
     5
 10
-130.90596681208149
 20
-71.513299999971409
 30
0.0
 11
130.90596681208149
 21
-71.513299999971437
 31
0.0
  0
LINE
  8
DETAIL
  6
CONTINUOUS
 62
     5
 10
-118.6351092140431
 20
-142.0
 30
0.0
 11
118.635109214043
 21
-142.0
 31
0.0
  0
ARC
  8
DETAIL
  6
CONTINUOUS
 62
     5
 10
108.7529351379317
 20
-91.028355112457575
 30
0.0
 40
48.018950731710419
 50
272.54345674275891
 51
356.93807364030909
  0
ARC
  8
DETAIL
  6
CONTINUOUS
 62
     5
 10
103.17355731750411
 20
-86.428131100456994
 30
0.0
 40
51.85909923802825
 50
283.22779075013142
 51
352.45223014828468
  0
ARC
  8
DETAIL
  6
CONTINUOUS
 62
     5
 10
118.2146748332415
 20
-90.261372803194732
 30
0.0
 40
46.886698765686823
 50
275.75078418742288
 51
356.35769074757832
  0
ARC
  8
DETAIL
  6
CONTINUOUS
 62
     5
 10
118.0604749061238
 20
-90.035262383856221
 30
0.0
 40
49.018825930290987
 50
272.6918313237191
 51
355.83751812529039
  0
ARC
  8
DETAIL
  6
CONTINUOUS
 62
     5
 10
130.0374457708397
 20
-88.219216985447034
 30
0.0
 40
50.800941570754617
 50
271.61415718460182
 51
353.92748479949512
  0
ARC
  8
DETAIL
  6
CONTINUOUS
 62
     5
 10
128.5842067024721
 20
-88.243857775013581
 30
0.0
 40
50.838024824560321
 50
273.25235104712351
 51
353.95985753904921
  0
ARC
  8
DETAIL
  6
CONTINUOUS
 62
     5
 10
122.94113178768021
 20
-87.069613678216243
 30
0.0
 40
52.016244706547717
 50
273.29245043023758
 51
352.79520126920778
  0
ARC
  8
DETAIL
  6
CONTINUOUS
 62
     5
 10
128.67904884708241
 20
-88.463342542891056
 30
0.0
 40
48.576369732503572
 50
289.19510358946911
 51
354.35685744123668
  0
ARC
  8
DETAIL
  6
CONTINUOUS
 62
     5
 10
93.649152339981697
 20
-90.318132855780277
 30
0.0
 40
47.949951528179312
 50
283.66241196287308
 51
356.50651326260828
  0
ARC
  8
DETAIL
  6
CONTINUOUS
 62
     5
 10
93.26588946132955
 20
-90.071066574671022
 30
0.0
 40
50.475107204326797
 50
284.21814895869221
 51
356.19956254559281
  0
ARC
  8
DETAIL
  6
CONTINUOUS
 62
     5
 10
34.701637699759083
 20
-92.84808167578467
 30
0.0
 40
54.164679680509252
 50
305.5602172398203
 51
359.39857100908472
  0
ARC
  8
DETAIL
  6
CONTINUOUS
 62
     5
 10
35.91937275979398
 20
-93.550558064538563
 30
0.0
 40
54.887457294482068
 50
304.1012741404441
 51
0.1398011470254703
  0
LINE
  8
DETAIL
  6
CONTINUOUS
 62
     5
 10
111.9926688118517
 20
-71.513299999971423
 30
0.0
 11
117.32066452151091
 21
-3.000000000000917
 31
0.0
  0
LINE
  8
DETAIL
  6
CONTINUOUS
 62
     5
 10
110.0498020736691
 20
-71.513299999971423
 30
0.0
 11
115.20019792635431
 21
-3.000000000000917
 31
0.0
  0
LINE
  8
DETAIL
  6
CONTINUOUS
 62
     5
 10
88.86333333334187
 20
-93.416633333293248
 30
0.0
 11
89.923333333339542
 21
-74.513299999972332
 31
0.0
  0
LINE
  8
DETAIL
  6
CONTINUOUS
 62
     5
 10
90.806666666670935
 20
-93.416633333293248
 30
0.0
 11
92.043333333334886
 21
-74.513299999972332
 31
0.0
  0
LINE
  8
DETAIL
  6
CONTINUOUS
 62
     5
 10
183.3571368371141
 20
-71.513299999971437
 30
0.0
 11
192.05952982958689
 21
-3.000000000000012
 31
0.0
  0
LINE
  8
DETAIL
  6
CONTINUOUS
 62
     5
 10
181.76760343227849
 20
-71.513299999971437
 30
0.0
 11
190.29239656774811
 21
-3.000000000000012
 31
0.0
  0
LINE
  8
DETAIL
  6
CONTINUOUS
 62
     5
 10
167.45900321776409
 20
-71.513299999971437
 30
0.0
 11
175.45099678225299
 21
-3.0000000000000111
 31
0.0
  0
LINE
  8
DETAIL
  6
CONTINUOUS
 62
     5
 10
169.40233655109321
 20
-71.513299999971437
 30
0.0
 11
177.3943301155968
 21
-3.0000000000000111
 31
0.0
  0
LINE
  8
DETAIL
  6
CONTINUOUS
 62
     5
 10
176.99760343227439
 20
-71.513299999971437
 30
0.0
 11
185.5223965677441
 21
-3.000000000000012
 31
0.0
  0
LINE
  8
DETAIL
  6
CONTINUOUS
 62
     5
 10
175.0547366940919
 20
-71.513299999971437
 30
0.0
 11
183.40192997258751
 21
-3.0000000000000111
 31
0.0
  0
LINE
  8
DETAIL
  6
CONTINUOUS
 62
     5
 10
166.44006359195029
 20
-3.0000000000000102
 30
0.0
 11
158.8032697414092
 21
-71.513299999971437
 31
0.0
  0
LINE
  8
DETAIL
  6
CONTINUOUS
 62
     5
 10
164.31959699677901
 20
-3.0000000000000102
 30
0.0
 11
156.8604030032412
 21
-71.513299999971437
 31
0.0
  0
LINE
  8
DETAIL
  6
CONTINUOUS
 62
     5
 10
152.47935749531371
 20
-2.844417447522583
 30
0.0
 11
145.54025709957151
 21
-71.661325827385568
 31
0.0
  0
LINE
  8
DETAIL
  6
CONTINUOUS
 62
     5
 10
150.82041056026401
 20
-0.0000000000018282
 30
0.0
 11
141.51000000000931
 21
-93.239966666656088
 31
0.0
  0
LINE
  8
DETAIL
  6
CONTINUOUS
 62
     5
 10
158.47000000000119
 20
-74.513299999971437
 30
0.0
 11
156.70333333333841
 21
-93.593300000046852
 31
0.0
  0
LINE
  8
DETAIL
  6
CONTINUOUS
 62
     5
 10
165.00666666668261
 20
-93.239966666656088
 30
0.0
 11
167.12666666667789
 21
-74.513299999971437
 31
0.0
  0
LINE
  8
DETAIL
  6
CONTINUOUS
 62
     5
 10
166.95000000001161
 20
-93.593300000046852
 30
0.0
 11
169.07000000000701
 21
-74.513299999971437
 31
0.0
  0
LINE
  8
DETAIL
  6
CONTINUOUS
 62
     5
 10
180.5533333333442
 20
-93.593300000046852
 30
0.0
 11
183.0266666666721
 21
-74.513299999971437
 31
0.0
  0
LINE
  8
DETAIL
  6
CONTINUOUS
 62
     5
 10
179.140000000014
 20
-93.593300000046852
 30
0.0
 11
181.43666666667559
 21
-74.513299999971437
 31
0.0
  0
LINE
  8
DETAIL
  6
CONTINUOUS
 62
     5
 10
177.0200000000041
 20
-93.239966666656088
 30
0.0
 11
179.31666666668019
 21
-74.513299999971437
 31
0.0
  0
LINE
  8
DETAIL
  6
CONTINUOUS
 62
     5
 10
174.54666666666159
 20
-93.593300000046852
 30
0.0
 11
176.66666666667149
 21
-74.513299999971437
 31
0.0
  0
LINE
  8
DETAIL
  6
CONTINUOUS
 62
     5
 10
90.088335120980162
 20
-71.513299999971423
 30
0.0
 11
94.528331545696119
 21
-3.0000000000009148
 31
0.0
  0
LINE
  8
DETAIL
  6
CONTINUOUS
 62
     5
 10
127.73000000001051
 20
-74.513299999972347
 30
0.0
 11
126.2071849135185
 21
-93.416633333293262
 31
0.0
  0
LINE
  8
DETAIL
  6
CONTINUOUS
 62
     5
 10
129.67333333333951
 20
-74.513299999972347
 30
0.0
 11
128.08333333334301
 21
-93.416633333293262
 31
0.0
  0
LINE
  8
DETAIL
  6
CONTINUOUS
 62
     5
 10
92.208801716136406
 20
-71.513299999971423
 30
0.0
 11
96.471198283878493
 21
-3.0000000000009148
 31
0.0
  0
LINE
  8
DETAIL
  6
CONTINUOUS
 62
     5
 10
109.8866666666727
 20
-74.513299999972332
 30
0.0
 11
108.47333333332701
 21
-93.416633333293248
 31
0.0
  0
LINE
  8
DETAIL
  6
CONTINUOUS
 62
     5
 10
111.8300000000163
 20
-74.513299999972332
 30
0.0
 11
110.4166666666717
 21
-93.416633333293248
 31
0.0
  0
ARC
  8
DETAIL
  6
CONTINUOUS
 62
     5
 10
56.687879384600237
 20
-90.850095160349156
 30
0.0
 40
51.849015023132061
 50
297.33062437854778
 51
357.16268622740472
  0
ARC
  8
DETAIL
  6
CONTINUOUS
 62
     5
 10
58.236040567777977
 20
-92.155211592332307
 30
0.0
 40
52.195870764660107
 50
296.17112820352929
 51
358.61519353941748
  0
LINE
  8
DETAIL
  6
CONTINUOUS
 62
     5
 10
179.6476034322832
 20
-71.513299999971437
 30
0.0
 11
188.17239656773819
 21
-3.000000000000012
 31
0.0
  0
LINE
  8
DETAIL
  6
CONTINUOUS
 62
     5
 10
70.834934620439185
 20
-71.513299999971423
 30
0.0
 11
74.031732046249431
 21
-3.0000000000009139
 31
0.0
  0
LINE
  8
DETAIL
  6
CONTINUOUS
 62
     5
 10
68.714468025268332
 20
-71.513299999971423
 30
0.0
 11
72.088865308081722
 21
-3.0000000000009139
 31
0.0
  0
LINE
  8
DETAIL
  6
CONTINUOUS
 62
     5
 10
48.223934262917048
 20
-71.513299999971423
 30
0.0
 11
50.532732403769437
 21
-3.000000000000913
 31
0.0
  0
LINE
  8
DETAIL
  6
CONTINUOUS
 62
     5
 10
46.281067524748998
 20
-71.513299999971423
 30
0.0
 11
48.412265808612688
 21
-3.000000000000913
 31
0.0
  0
LINE
  8
DETAIL
  6
CONTINUOUS
 62
     5
 10
145.3857057981829
 20
-74.279440133179392
 30
0.0
 11
143.63000000000471
 21
-93.416633333293262
 31
0.0
  0
LINE
  8
DETAIL
  6
CONTINUOUS
 62
     5
 10
156.5266666666721
 20
-74.513299999971437
 30
0.0
 11
154.58333333334301
 21
-93.239966666656088
 31
0.0
  0
ARC
  8
DETAIL
  6
CONTINUOUS
 62
     5
 10
123.5452821360964
 20
-88.181598388830949
 30
0.0
 40
49.318145513642712
 50
282.34427378373073
 51
354.11304463973897
  0
LINE
  8
DETAIL
  6
CONTINUOUS
 62
     5
 10
172.60333333333261
 20
-93.239966666656088
 30
0.0
 11
174.7233333333279
 21
-74.513299999971437
 31
0.0
  0
ARC
  8
DETAIL
  6
CONTINUOUS
 62
     5
 10
3.275128205176423
 20
-93.066697435967399
 30
0.0
 40
64.565820098670287
 50
317.22911187253652
 51
359.68946498091128
  0
ARC
  8
DETAIL
  6
CONTINUOUS
 62
     5
 10
2.3840750431597768
 20
-93.136834031287435
 30
0.0
 40
67.399839062982366
 50
317.12008552999902
 51
359.76214534951572
  0
LINE
  8
DETAIL
  6
CONTINUOUS
 62
     5
 10
67.839999999996508
 20
-93.416633333293248
 30
0.0
 11
68.723333333327901
 21
-74.513299999972332
 31
0.0
  0
LINE
  8
DETAIL
  6
CONTINUOUS
 62
     5
 10
69.783333333340124
 20
-93.416633333293248
 30
0.0
 11
70.666666666671517
 21
-74.513299999972332
 31
0.0
  0
ARC
  8
DETAIL
  6
CONTINUOUS
 62
     5
 10
-49.896028192475633
 20
-92.120638308456364
 30
0.0
 40
95.484823728790062
 50
332.02496663369021
 51
359.22231279938927
  0
ARC
  8
DETAIL
  6
CONTINUOUS
 62
     5
 10
-47.517815897614419
 20
-91.915782051287351
 30
0.0
 40
95.052998909620584
 50
330.30736542051488
 51
359.09528348725388
  0
LINE
  8
DETAIL
  6
CONTINUOUS
 62
     5
 10
45.580000000016291
 20
-93.416633333293248
 30
0.0
 11
46.110000000015127
 21
-74.513299999972332
 31
0.0
  0
LINE
  8
DETAIL
  6
CONTINUOUS
 62
     5
 10
47.523333333345363
 20
-93.416633333293248
 30
0.0
 11
48.23000000001047
 21
-74.513299999972332
 31
0.0
  0
LINE
  8
DETAIL
  6
CONTINUOUS
 62
     5
 10
131.46843874924869
 20
-138.99999999999909
 30
0.0
 11
-131.46843874924869
 21
-138.99999999999909
 31
0.0
  0
LINE
  8
DETAIL
  6
CONTINUOUS
 62
     5
 10
115.0401155103916
 20
-136.91130622281341
 30
0.0
 11
112.0735580301039
 21
-136.91130622281341
 31
0.0
  0
LINE
  8
DETAIL
  6
CONTINUOUS
 62
     5
 10
104.9749656504839
 20
-136.91130622281341
 30
0.0
 11
99.40161366567871
 21
-136.91130622281341
 31
0.0
  0
LINE
  8
DETAIL
  6
CONTINUOUS
 62
     5
 10
94.667192784061783
 20
-136.91130622281341
 30
0.0
 11
85.093086539152964
 21
-136.91130622281341
 31
0.0
  0
LINE
  8
DETAIL
  6
CONTINUOUS
 62
     5
 10
80.493029968625351
 20
-136.91130622281341
 30
0.0
 11
69.571690472074735
 21
-136.91130622281341
 31
0.0
  0
LINE
  8
DETAIL
  6
CONTINUOUS
 62
     5
 10
66.2015546426707
 20
-136.91130622281341
 30
0.0
 11
53.633795921123742
 21
-136.91130622281341
 31
0.0
  0
LINE
  8
DETAIL
  6
CONTINUOUS
 62
     5
 10
50.671282113930083
 20
-136.91130622281341
 30
0.0
 11
36.210765878514842
 21
-136.91130622281341
 31
0.0
  0
LINE
  8
DETAIL
  6
CONTINUOUS
 62
     5
 10
34.431592610579621
 20
-136.91130622281341
 30
0.0
 11
18.50675520022849
 21
-136.91130622281341
 31
0.0
  0
LINE
  8
DETAIL
  6
CONTINUOUS
 62
     5
 10
16.519856730625399
 20
-136.91130622281341
 30
0.0
 11
8.6950876025515438
 21
-136.91130622281341
 31
0.0
  0
LINE
  8
DETAIL
  6
CONTINUOUS
 62
     5
 10
-8.6950876025515615
 20
-136.91130622281341
 30
0.0
 11
-66.95188017918737
 21
-136.91130622281341
 31
0.0
  0
ARC
  8
DETAIL
  6
CONTINUOUS
 62
     5
 10
146.1900000000023
 20
-73.013299999971437
 30
0.0
 40
1.5
 50
90.0
 51
270.0
  0
ARC
  8
DETAIL
  6
CONTINUOUS
 62
     5
 10
130.90596681208149
 20
-73.013299999971437
 30
0.0
 40
1.5
 50
270.0
 51
90.0
  0
LINE
  8
DETAIL
  6
CONTINUOUS
 62
     5
 10
130.01080243119699
 20
-71.513299999971437
 30
0.0
 11
136.04919756882549
 21
-3.0000000000009179
 31
0.0
  0
LINE
  8
DETAIL
  6
CONTINUOUS
 62
     5
 10
127.8903382313558
 20
-71.513299999971437
 30
0.0
 11
134.1063308243337
 21
-3.000000000000008
 31
0.0
  0
ARC
  8
DETAIL
  6
CONTINUOUS
 62
     5
 10
77.700020917897007
 20
-91.424740344054044
 30
0.0
 40
48.548044209614609
 50
290.45627040014631
 51
357.83258903995397
  0
ARC
  8
DETAIL
  6
CONTINUOUS
 62
     5
 10
77.511085682643966
 20
-91.271882782172725
 30
0.0
 40
50.617706263422832
 50
289.4532622025061
 51
357.57156213169452
  0
LINE
  8
DETAIL
  6
CONTINUOUS
 62
     5
 10
24.907200429037339
 20
-71.513299999971423
 30
0.0
 11
25.97279957096919
 21
-3.0000000000009108
 31
0.0
  0
LINE
  8
DETAIL
  6
CONTINUOUS
 62
     5
 10
22.78673383388093
 20
-71.513299999971423
 30
0.0
 11
24.029932832801482
 21
-3.0000000000009108
 31
0.0
  0
ARC
  8
DETAIL
  6
CONTINUOUS
 62
     5
 10
-150.11505934471921
 20
-91.392065722559877
 30
0.0
 40
172.74025735524771
 50
344.72140791551237
 51
359.32846090954507
  0
ARC
  8
DETAIL
  6
CONTINUOUS
 62
     5
 10
-187.2045752389262
 20
-85.225331039588113
 30
0.0
 40
211.91960977377241
 50
345.3004515928273
 51
357.78480153287262
  0
LINE
  8
DETAIL
  6
CONTINUOUS
 62
     5
 10
22.61333333334186
 20
-93.416633333293248
 30
0.0
 11
22.790000000008149
 21
-74.513299999972332
 31
0.0
  0
LINE
  8
DETAIL
  6
CONTINUOUS
 62
     5
 10
24.556666666670932
 20
-93.416633333293248
 30
0.0
 11
24.910000000003489
 21
-74.513299999971423
 31
0.0
  0
LINE
  8
DETAIL
  6
CONTINUOUS
 62
     5
 10
141.49284048893421
 20
-93.508643137934101
 30
0.0
 11
128.07934737395641
 21
-93.508643137934101
 31
0.0
  0
LINE
  8
DETAIL
  6
CONTINUOUS
 62
     5
 10
126.20331921527421
 20
-93.508643137934101
 30
0.0
 11
121.6857901585294
 21
-93.508643137934101
 31
0.0
  0
LINE
  8
DETAIL
  6
CONTINUOUS
 62
     5
 10
143.56635393749249
 20
-96.508643137934101
 30
0.0
 11
143.32879044879141
 21
-96.508643137934101
 31
0.0
  0
LINE
  8
DETAIL
  6
CONTINUOUS
 62
     5
 10
141.19781619083349
 20
-96.508643137934101
 30
0.0
 11
127.85717320040931
 21
-96.508643137934101
 31
0.0
  0
LINE
  8
DETAIL
  6
CONTINUOUS
 62
     5
 10
125.9811407160238
 20
-96.50864313793501
 30
0.0
 11
121.6857901585294
 21
-96.508643137934101
 31
0.0
  0
ARC
  8
DETAIL
  6
CONTINUOUS
 62
     5
 10
121.6857901585294
 20
-95.008643137934101
 30
0.0
 40
1.5
 50
90.0
 51
270.0
  0
ARC
  8
DETAIL
  6
CONTINUOUS
 62
     5
 10
143.56635393749249
 20
-95.008643137934101
 30
0.0
 40
1.5
 50
270.0
 51
87.807913075644819
  0
ARC
  8
DETAIL
  6
CONTINUOUS
 62
     5
 10
8.8397256480688977
 20
-137.95565311140669
 30
0.0
 40
1.0543152222771821
 50
97.885086292802526
 51
262.11491370719739
  0
LINE
  8
OUTLINE
  6
CONTINUOUS
 62
     3
 10
-131.46843874924869
 20
-138.99999999999909
 30
0.0
 11
-118.6351092140431
 21
-139.0
 31
0.0
  0
ARC
  8
OUTLINE
  6
CONTINUOUS
 62
     3
 10
-118.6351092140431
 20
-140.5
 30
0.0
 40
1.5
 50
90.0
 51
270.0
  0
LINE
  8
OUTLINE
  6
CONTINUOUS
 62
     3
 10
-118.6351092140431
 20
-142.0
 30
0.0
 11
118.635109214043
 21
-142.0
 31
0.0
  0
ARC
  8
OUTLINE
  6
CONTINUOUS
 62
     3
 10
118.635109214043
 20
-140.49999999999955
 30
0.0
 40
1.5000000000004547
 50
270.0
 51
90.0
  0
LINE
  8
OUTLINE
  6
CONTINUOUS
 62
     3
 10
118.635109214043
 20
-138.99999999999909
 30
0.0
 11
131.46843874923081
 21
-138.99999999999909
 31
0.0
  0
ARC
  8
OUTLINE
  6
CONTINUOUS
 62
     3
 10
130.03744577084089
 20
-88.219216985446295
 30
0.0
 40
50.800941570755313
 50
271.61415718460239
 51
353.92748479950683
  0
LINE
  8
OUTLINE
  6
CONTINUOUS
 62
     3
 10
180.5533333333442
 20
-93.593300000046852
 30
0.0
 11
183.02666666667201
 21
-74.513299999971437
 31
0.0
  0
LINE
  8
OUTLINE
  6
CONTINUOUS
 62
     3
 10
183.02666666667201
 20
-74.513299999971437
 30
0.0
 11
184.79241208287749
 21
-74.513299999971437
 31
0.0
  0
ARC
  8
OUTLINE
  6
CONTINUOUS
 62
     3
 10
184.79241208287749
 20
-73.013299999971437
 30
0.0
 40
1.5
 50
270.0
 51
90.0
  0
LINE
  8
OUTLINE
  6
CONTINUOUS
 62
     3
 10
184.79241208287749
 20
-71.513299999971437
 30
0.0
 11
183.3571368371141
 21
-71.513299999971437
 31
0.0
  0
LINE
  8
OUTLINE
  6
CONTINUOUS
 62
     3
 10
183.3571368371141
 20
-71.513299999971437
 30
0.0
 11
192.05952982958689
 21
-3.000000000000012
 31
0.0
  0
LINE
  8
OUTLINE
  6
CONTINUOUS
 62
     3
 10
192.05952982958689
 20
-3.000000000000012
 30
0.0
 11
193.5
 21
-3.000000000000012
 31
0.0
  0
ARC
  8
OUTLINE
  6
CONTINUOUS
 62
     3
 10
193.5
 20
-1.500000000000012
 30
0.0
 40
1.5
 50
270.0
 51
90.0
  0
LINE
  8
OUTLINE
  6
CONTINUOUS
 62
     3
 10
193.5
 20
-0.0000000000000118
 30
0.0
 11
150.82041056026401
 21
-0.0000000000018282
 31
0.0
  0
LINE
  8
OUTLINE
  6
CONTINUOUS
 62
     3
 10
150.82041056026401
 20
-0.0000000000018282
 30
0.0
 11
141.51000000000931
 21
-93.239966666656088
 31
0.0
  0
ARC
  8
OUTLINE
  6
CONTINUOUS
 62
     3
 10
93.649152341163472
 20
-90.318132855855822
 30
0.0
 40
47.94995152699515
 50
356.18481508419268
 51
356.50651326260891
  0
LINE
  8
OUTLINE
  6
CONTINUOUS
 62
     3
 10
141.49284048893421
 20
-93.508643137934101
 30
0.0
 11
128.0793473739563
 21
-93.50864313793501
 31
0.0
  0
ARC
  8
OUTLINE
  6
CONTINUOUS
 62
     3
 10
77.5110856428673
 20
-91.271882780392446
 30
0.0
 40
50.617706303239324
 50
357.46731563222875
 51
357.5715621315918
  0
LINE
  8
OUTLINE
  6
CONTINUOUS
 62
     3
 10
128.08333333334301
 20
-93.416633333293262
 30
0.0
 11
129.67333333333971
 21
-74.513299999971437
 31
0.0
  0
LINE
  8
OUTLINE
  6
CONTINUOUS
 62
     3
 10
129.67333333333971
 20
-74.513299999971437
 30
0.0
 11
130.90596681208149
 21
-74.513299999971437
 31
0.0
  0
ARC
  8
OUTLINE
  6
CONTINUOUS
 62
     3
 10
130.90596681208149
 20
-73.013299999971437
 30
0.0
 40
1.5
 50
270.0
 51
90.0
  0
LINE
  8
OUTLINE
  6
CONTINUOUS
 62
     3
 10
130.90596681208149
 20
-71.513299999971437
 30
0.0
 11
130.01080243119699
 21
-71.513299999971437
 31
0.0
  0
LINE
  8
OUTLINE
  6
CONTINUOUS
 62
     3
 10
130.01080243119699
 20
-71.513299999971437
 30
0.0
 11
136.04919756882549
 21
-3.000000000000008
 31
0.0
  0
LINE
  8
OUTLINE
  6
CONTINUOUS
 62
     3
 10
136.04919756882549
 20
-3.000000000000008
 30
0.0
 11
137.21950452902269
 21
-3.000000000000008
 31
0.0
  0
ARC
  8
OUTLINE
  6
CONTINUOUS
 62
     3
 10
137.21950452902269
 20
-1.500000000000008
 30
0.0
 40
1.5
 50
270.0
 51
90.0
  0
LINE
  8
OUTLINE
  6
CONTINUOUS
 62
     3
 10
137.21950452902269
 20
-0.0000000000000084
 30
0.0
 11
-137.2195045290226
 21
0.0000000000000084
 31
0.0
  0
ARC
  8
OUTLINE
  6
CONTINUOUS
 62
     3
 10
-137.2195045290226
 20
-1.4999999999999918
 30
0.0
 40
1.5000000000000002
 50
90.0
 51
270.0
  0
LINE
  8
OUTLINE
  6
CONTINUOUS
 62
     3
 10
-137.2195045290226
 20
-2.999999999999992
 30
0.0
 11
-136.04919756882549
 21
-3.0000000000009011
 31
0.0
  0
LINE
  8
OUTLINE
  6
CONTINUOUS
 62
     3
 10
-136.04919756882549
 20
-3.0000000000009011
 30
0.0
 11
-130.01080243119691
 21
-71.513299999971409
 31
0.0
  0
LINE
  8
OUTLINE
  6
CONTINUOUS
 62
     3
 10
-130.01080243119691
 20
-71.513299999971409
 30
0.0
 11
-130.90596681208149
 21
-71.513299999971409
 31
0.0
  0
ARC
  8
OUTLINE
  6
CONTINUOUS
 62
     3
 10
-130.90596681208149
 20
-73.013299999971409
 30
0.0
 40
1.5
 50
90.0
 51
270.0
  0
LINE
  8
OUTLINE
  6
CONTINUOUS
 62
     3
 10
-130.90596681208149
 20
-74.513299999971409
 30
0.0
 11
-129.67333333333951
 21
-74.513299999972318
 31
0.0
  0
LINE
  8
OUTLINE
  6
CONTINUOUS
 62
     3
 10
-129.67333333333951
 20
-74.513299999972318
 30
0.0
 11
-128.08333333334289
 21
-93.416633333292324
 31
0.0
  0
ARC
  8
OUTLINE
  6
CONTINUOUS
 62
     3
 10
-77.511085642873113
 20
-91.271882780516734
 30
0.0
 40
50.617706303228097
 50
182.42843786826688
 51
182.53268436762994
  0
LINE
  8
OUTLINE
  6
CONTINUOUS
 62
     3
 10
-128.07934737395641
 20
-93.508643137934072
 30
0.0
 11
-141.49284048893421
 21
-93.508643137933163
 31
0.0
  0
ARC
  8
OUTLINE
  6
CONTINUOUS
 62
     3
 10
-93.649152341486541
 20
-90.318132855865628
 30
0.0
 40
47.949951526672088
 50
183.49348673740292
 51
183.81518491582028
  0
LINE
  8
OUTLINE
  6
CONTINUOUS
 62
     3
 10
-141.51000000000931
 20
-93.239966666656059
 30
0.0
 11
-150.82041056026401
 21
-0.0000000000009003
 31
0.0
  0
LINE
  8
OUTLINE
  6
CONTINUOUS
 62
     3
 10
-150.82041056026401
 20
-0.0000000000009003
 30
0.0
 11
-193.5
 21
0.0000000000000118
 31
0.0
  0
ARC
  8
OUTLINE
  6
CONTINUOUS
 62
     3
 10
-193.5
 20
-1.4999999999999882
 30
0.0
 40
1.5
 50
90.0
 51
270.0
  0
LINE
  8
OUTLINE
  6
CONTINUOUS
 62
     3
 10
-193.5
 20
-2.999999999999988
 30
0.0
 11
-192.05952982958689
 21
-2.999999999999988
 31
0.0
  0
LINE
  8
OUTLINE
  6
CONTINUOUS
 62
     3
 10
-192.05952982958689
 20
-2.999999999999988
 30
0.0
 11
-183.3571368371141
 21
-71.513299999971409
 31
0.0
  0
LINE
  8
OUTLINE
  6
CONTINUOUS
 62
     3
 10
-183.3571368371141
 20
-71.513299999971409
 30
0.0
 11
-184.79241208287749
 21
-71.513299999971409
 31
0.0
  0
ARC
  8
OUTLINE
  6
CONTINUOUS
 62
     3
 10
-184.79241208287749
 20
-73.013299999971409
 30
0.0
 40
1.5
 50
90.0
 51
270.0
  0
LINE
  8
OUTLINE
  6
CONTINUOUS
 62
     3
 10
-184.79241208287749
 20
-74.513299999971409
 30
0.0
 11
-183.0266666666721
 21
-74.513299999971409
 31
0.0
  0
LINE
  8
OUTLINE
  6
CONTINUOUS
 62
     3
 10
-183.0266666666721
 20
-74.513299999971409
 30
0.0
 11
-180.5533333333432
 21
-93.593300000047734
 31
0.0
  0
ARC
  8
OUTLINE
  6
CONTINUOUS
 62
     3
 10
-130.03725202202762
 20
-88.219007541905938
 30
0.0
 40
50.801156389171773
 50
186.07272697823407
 51
268.38563103763579
  0
TEXT
  8
ETC
  6
CONTINUOUS
 62
    61
 10
269.7037213517433
 20
207.18141081693719
 30
0.0
 40
64.0
  1
G-30XD3_6
 41
0.9
  0
TEXT
  8
ETC
  6
CONTINUOUS
 62
    61
 10
316.21912560029892
 20
-18.92267208411943
 30
0.0
 40
40.0
  1
G-30XD3
 50
0.0
 41
0.9
 51
0.0
  7
STANDARD
 71
     0
 11
0.0
 21
0.0
 31
0.0
210
0.0
220
0.0
230
1.0
  0
TEXT
  8
ETC
  6
CONTINUOUS
 62
    61
 10
316.21912560029892
 20
-84.922672084119426
 30
0.0
 40
40.0
  1
G-30XD3-F
 50
0.0
 41
0.9
 51
0.0
  7
STANDARD
 71
     0
 11
0.0
 21
0.0
 31
0.0
210
0.0
220
0.0
230
1.0
  0
TEXT
  8
ETC
  6
CONTINUOUS
 62
    61
 10
265.51772735174382
 20
89.226100802105975
 30
0.0
 40
64.0
  1
システム部材
 41
0.9
  0
ENDSEC
  0
EOF
