  0
SECTION
  2
HEADER
  9
$ACADVER
  1
AC1009
  9
$DWGCODEPAGE
  3
dos932
  9
$INSBASE
 10
0.0
 20
0.0
 30
0.0
  9
$EXTMIN
 10
-472.21983189487401
 20
-298.32457308462472
 30
-0.0015258207003583
  9
$EXTMAX
 10
1022.840892911003
 20
488.02185848823501
 30
0.0000000349246037
  9
$LIMMIN
 10
-2970.0
 20
-2100.0
  9
$LIMMAX
 10
2970.0
 20
2100.0
  9
$ORTHOMODE
 70
     1
  9
$REGENMODE
 70
     1
  9
$FILLMODE
 70
     1
  9
$QTEXTMODE
 70
     0
  9
$MIRRTEXT
 70
     0
  9
$LTSCALE
 40
20.0
  9
$ATTMODE
 70
     1
  9
$TEXTSIZE
 40
64.0
  9
$TRACEWID
 40
0.05
  9
$TEXTSTYLE
  7
STANDARD
  9
$CLAYER
  8
SIZE
  9
$CELTYPE
  6
CONTINUOUS
  9
$CECOLOR
 62
     7
  9
$DIMSCALE
 40
1.0
  9
$DIMASZ
 40
12.0
  9
$DIMEXO
 40
20.0
  9
$DIMDLI
 40
200.0
  9
$DIMRND
 40
0.0
  9
$DIMDLE
 40
0.0
  9
$DIMEXE
 40
20.0
  9
$DIMTP
 40
0.0
  9
$DIMTM
 40
0.0
  9
$DIMTXT
 40
64.0
  9
$DIMCEN
 40
0.09
  9
$DIMTSZ
 40
0.0
  9
$DIMTOL
 70
     0
  9
$DIMLIM
 70
     0
  9
$DIMTIH
 70
     0
  9
$DIMTOH
 70
     0
  9
$DIMSE1
 70
     0
  9
$DIMSE2
 70
     0
  9
$DIMTAD
 70
     1
  9
$DIMZIN
 70
     8
  9
$DIMBLK
  1

  9
$DIMASO
 70
     1
  9
$DIMSHO
 70
     0
  9
$DIMPOST
  1

  9
$DIMAPOST
  1

  9
$DIMALT
 70
     0
  9
$DIMALTD
 70
     2
  9
$DIMALTF
 40
25.399999999999999
  9
$DIMLFAC
 40
1.0
  9
$DIMTOFL
 70
     1
  9
$DIMTVP
 40
0.0
  9
$DIMTIX
 70
     1
  9
$DIMSOXD
 70
     0
  9
$DIMSAH
 70
     0
  9
$DIMBLK1
  1

  9
$DIMBLK2
  1

  9
$DIMSTYLE
  2
STANDARD
  9
$DIMCLRD
 70
     7
  9
$DIMCLRE
 70
     7
  9
$DIMCLRT
 70
     7
  9
$DIMTFAC
 40
1.0
  9
$DIMGAP
 40
25.0
  9
$LUNITS
 70
     2
  9
$LUPREC
 70
     4
  9
$SKETCHINC
 40
0.1
  9
$FILLETRAD
 40
3.0
  9
$AUNITS
 70
     1
  9
$AUPREC
 70
     3
  9
$MENU
  1
ACAD
  9
$ELEVATION
 40
0.0
  9
$PELEVATION
 40
0.0
  9
$THICKNESS
 40
0.0
  9
$LIMCHECK
 70
     0
  9
$CHAMFERA
 40
0.0
  9
$CHAMFERB
 40
0.0
  9
$SKPOLY
 70
     0
  9
$TDCREATE
 40
2453019.62301037
  9
$TDUPDATE
 40
2459375.455007118
  9
$TDINDWG
 40
1.7191247801
  9
$TDUSRTIMER
 40
1.7191247801
  9
$USRTIMER
 70
     1
  9
$ANGBASE
 50
0.0
  9
$ANGDIR
 70
     0
  9
$PDMODE
 70
     3
  9
$PDSIZE
 40
-2.0
  9
$PLINEWID
 40
0.0
  9
$SPLFRAME
 70
     0
  9
$SPLINETYPE
 70
     6
  9
$SPLINESEGS
 70
     8
  9
$SURFTAB1
 70
     6
  9
$SURFTAB2
 70
     6
  9
$SURFTYPE
 70
     6
  9
$SURFU
 70
     6
  9
$SURFV
 70
     6
  9
$UCSNAME
  2

  9
$UCSORG
 10
0.0
 20
0.0
 30
0.0
  9
$UCSXDIR
 10
1.0
 20
0.0
 30
0.0
  9
$UCSYDIR
 10
0.0
 20
1.0
 30
0.0
  9
$PUCSNAME
  2

  9
$PUCSORG
 10
0.0
 20
0.0
 30
0.0
  9
$PUCSXDIR
 10
1.0
 20
0.0
 30
0.0
  9
$PUCSYDIR
 10
0.0
 20
1.0
 30
0.0
  9
$USERI1
 70
     0
  9
$USERI2
 70
     0
  9
$USERI3
 70
     0
  9
$USERI4
 70
     0
  9
$USERI5
 70
     0
  9
$USERR1
 40
20.0
  9
$USERR2
 40
0.0
  9
$USERR3
 40
0.0
  9
$USERR4
 40
0.0
  9
$USERR5
 40
0.0
  9
$WORLDVIEW
 70
     1
  9
$SHADEDGE
 70
     3
  9
$SHADEDIF
 70
    70
  9
$TILEMODE
 70
     1
  9
$MAXACTVP
 70
    48
  9
$PINSBASE
 10
0.0
 20
0.0
 30
0.0
  9
$PLIMCHECK
 70
     0
  9
$PEXTMIN
 10
-100000000000000000000.0
 20
-100000000000000000000.0
 30
-100000000000000000000.0
  9
$PEXTMAX
 10
100000000000000000000.0
 20
100000000000000000000.0
 30
100000000000000000000.0
  9
$PLIMMIN
 10
0.0
 20
0.0
  9
$PLIMMAX
 10
12.0
 20
9.0
  9
$UNITMODE
 70
     0
  9
$VISRETAIN
 70
     0
  9
$PLINEGEN
 70
     0
  9
$PSLTSCALE
 70
     0
  9
$TREEDEPTH
 70
  3020
  9
$ATTDIA
 70
     0
  9
$ATTREQ
 70
     1
  9
$BLIPMODE
 70
     1
  9
$COORDS
 70
     1
  9
$DRAGMODE
 70
     2
  9
$OSMODE
 70
     0
  9
$HANDLING
 70
     0
  9
$HANDSEED
  5
FABE
  0
ENDSEC
  0
SECTION
  2
TABLES
  0
TABLE
  2
LTYPE
 70
     2
  0
LTYPE
  2
CONTINUOUS
 70
     0
  3
実線
 72
    65
 73
     0
 40
0.0
  0
LTYPE
  2
DASHDOT
 70
     0
  3
____ _ ____ _ ____ _ ____ _ ____ _ ____ _ ____
 72
    65
 73
     4
 40
5.5
 49
4.0
 49
-0.6
 49
0.3
 49
-0.6
  0
ENDTAB
  0
TABLE
  2
LAYER
 70
    12
  0
LAYER
  2
0
 70
     0
 62
     7
  6
CONTINUOUS
  0
LAYER
  2
BASIS
 70
     0
 62
     6
  6
DASHDOT
  0
LAYER
  2
OUTLINE
 70
     0
 62
     3
  6
CONTINUOUS
  0
LAYER
  2
DETAIL
 70
     0
 62
     5
  6
CONTINUOUS
  0
LAYER
  2
SIZE
 70
     0
 62
    30
  6
CONTINUOUS
  0
LAYER
  2
ARRANGE
 70
     0
 62
     1
  6
CONTINUOUS
  0
LAYER
  2
DEFPOINTS
 70
     0
 62
     7
  6
CONTINUOUS
  0
LAYER
  2
ETC
 70
     0
 62
    61
  6
CONTINUOUS
  0
LAYER
  2
FIX
 70
    64
 62
    11
  6
CONTINUOUS
  0
LAYER
  2
NOTE
 70
    64
 62
     4
  6
CONTINUOUS
  0
LAYER
  2
SERVICESPACE
 70
    64
 62
     2
  6
DASHDOT
  0
LAYER
  2
SYMBOLLINE
 70
    64
 62
    15
  6
CONTINUOUS
  0
ENDTAB
  0
TABLE
  2
STYLE
 70
     1
  0
STYLE
  2
STANDARD
 70
     0
 40
64.0
 41
0.9
 50
0.0
 71
     0
 42
64.0
  3
SIMPLEX.shx
  4
BIGFONT.shx
  0
ENDTAB
  0
TABLE
  2
APPID
 70
    20
  0
APPID
  2
ACAD
 70
     0
  0
APPID
  2
AUTOCAD_POSTSCRIPT_FIGURE
 70
     0
  0
APPID
  2
ACAD_EXEMPT_FROM_CAD_STANDARDS
 70
     0
  0
APPID
  2
ACAD_PSEXT
 70
     0
  0
APPID
  2
ACAUTHENVIRON
 70
     0
  0
APPID
  2
GENIUS_GENOENT_13
 70
     0
  0
APPID
  2
GENIUS_GENCFG_13
 70
     0
  0
APPID
  2
GENIUS_GENCFG0_13
 70
     0
  0
APPID
  2
GENIUS_GENCFG1_13
 70
     0
  0
APPID
  2
GENIUS_GENCFG2_13
 70
     0
  0
APPID
  2
GENIUS_GENCFG3_13
 70
     0
  0
APPID
  2
GENIUS_GENCFG4_13
 70
     0
  0
APPID
  2
GENIUS_GEVCFG0_13
 70
     0
  0
APPID
  2
CONTENTBLOCKICON
 70
     0
  0
APPID
  2
CONTENTBLOCKDESCRIPTION
 70
     0
  0
APPID
  2
ACAD_NAV_VCDISPLAY
 70
     0
  0
APPID
  2
ACAD_MLEADERVER
 70
     0
  0
APPID
  2
ACDBDYNAMICBLOCKTRUENAME
 70
     0
  0
APPID
  2
ACDBDYNAMICBLOCKGUID
 70
     0
  0
APPID
  2
ACAD_DSTYLE_DIMRADIAL_EXTENSION
 70
     0
  0
ENDTAB
  0
TABLE
  2
DIMSTYLE
 70
     1
  0
DIMSTYLE
  2
STANDARD
 70
     0
  3

  4

  5
_ORIGIN
  6

  7

 40
1.0
 41
12.0
 42
20.0
 43
200.0
 44
20.0
 45
0.0
 46
0.0
 47
0.0
 48
0.0
140
64.0
141
0.09
142
0.0
143
25.399999999999999
144
1.0
145
0.0
146
1.0
147
25.0
 71
     0
 72
     0
 73
     0
 74
     0
 75
     0
 76
     0
 77
     1
 78
     8
170
     0
171
     2
172
     1
173
     0
174
     1
175
     0
176
     7
177
     7
178
     7
  0
ENDTAB
  0
TABLE
  2
VIEW
 70
     1
  0
VIEW
  2
ALL
 70
     0
 40
4282.6198079999986
 10
0.0
 20
41.309904000000003
 41
5940.0
 11
0.0
 21
0.0
 31
1.0
 12
0.0
 22
0.0
 32
0.0
 42
50.0
 43
0.0
 44
0.0
 50
0.0
 71
     0
  0
ENDTAB
  0
TABLE
  2
UCS
 70
     0
  0
ENDTAB
  0
TABLE
  2
VPORT
 70
     1
  0
VPORT
  2
*ACTIVE
 70
     0
 10
0.0
 20
0.0
 11
1.0
 21
1.0
 12
275.31053050806452
 22
94.848642701805147
 13
0.0
 23
0.0
 14
1.0
 24
1.0
 15
0.0
 25
0.0
 16
0.0
 26
0.0
 36
1.0
 17
0.0
 27
0.0
 37
0.0
 40
849.14826165240368
 41
1.767337807606264
 42
50.0
 43
0.0
 44
0.0
 50
0.0
 51
0.0
 71
     0
 72
  1000
 73
     1
 74
     3
 75
     0
 76
     0
 77
     0
 78
     0
  0
ENDTAB
  0
ENDSEC
  0
SECTION
  2
BLOCKS
  0
BLOCK
  8
0
  2
_ORIGIN
 70
     0
 10
0.0
 20
0.0
 30
0.0
  3
_ORIGIN
  1
_ORIGIN
  0
CIRCLE
  8
SIZE
  6
CONTINUOUS
 62
    30
 10
0.0
 20
0.0
 30
0.0
 40
0.5
  0
LINE
  8
SIZE
  6
CONTINUOUS
 62
    30
 10
0.0
 20
0.0
 30
0.0
 11
-1.0
 21
0.0
 31
0.0
  0
ENDBLK
  8
0
  0
ENDSEC
  0
SECTION
  2
ENTITIES
  0
LINE
  8
DETAIL
  6
CONTINUOUS
 62
     5
 10
185.96908345200021
 20
238.2949852598997
 30
0.0
 11
238.29498525990081
 21
185.9690834522996
 31
0.0
  0
LINE
  8
DETAIL
  6
CONTINUOUS
 62
     5
 10
183.84776310840201
 20
236.1736649162992
 30
0.0
 11
236.17366491630079
 21
183.84776310869921
 31
0.0
  0
LINE
  8
DETAIL
  6
CONTINUOUS
 62
     5
 10
238.29498525990081
 20
-185.9690834520004
 30
0.0
 11
185.96908345200021
 21
-238.2949852596
 31
0.0
  0
LINE
  8
DETAIL
  6
CONTINUOUS
 62
     5
 10
236.17366491630079
 20
-183.84776310840039
 30
0.0
 11
183.84776310840201
 21
-236.17366491630011
 31
0.0
  0
LINE
  8
DETAIL
  6
CONTINUOUS
 62
     5
 10
202.93964620050201
 20
146.3711037056994
 30
0.0
 11
205.06096654410021
 21
144.24978336209941
 31
0.0
  0
LINE
  8
DETAIL
  6
CONTINUOUS
 62
     5
 10
146.3711037056996
 20
202.93964620079919
 30
0.0
 11
144.2497833621014
 21
205.0609665440995
 31
0.0
  0
LINE
  8
DETAIL
  6
CONTINUOUS
 62
     5
 10
202.93964620050201
 20
-146.3711037054006
 30
0.0
 11
205.06096654410021
 21
-144.24978336180021
 31
0.0
  0
LINE
  8
DETAIL
  6
CONTINUOUS
 62
     5
 10
146.3711037056996
 20
-202.93964620050039
 30
0.0
 11
144.2497833621014
 21
-205.06096654410041
 31
0.0
  0
LINE
  8
DETAIL
  6
CONTINUOUS
 62
     5
 10
96.999999999899501
 20
-0.9999204528005521
 30
0.0
 11
96.999999999899501
 21
0.9999204530997758
 31
0.0
  0
LINE
  8
DETAIL
  6
CONTINUOUS
 62
     5
 10
199.94975927910079
 20
-155.0132051283006
 30
0.0
 11
201.96413710380099
 21
-157.3101628116008
 31
0.0
  0
LINE
  8
DETAIL
  6
CONTINUOUS
 62
     5
 10
-155.01320512859871
 20
-199.94975927910011
 30
0.0
 11
-157.31016281190071
 21
-201.96413710380031
 31
0.0
  0
LINE
  8
DETAIL
  6
CONTINUOUS
 62
     5
 10
-177.48380207790109
 20
238.2949852598997
 30
0.0
 11
-148.04187967148621
 21
208.8530628534852
 31
0.0
  0
LINE
  8
DETAIL
  6
CONTINUOUS
 62
     5
 10
-145.88961537724441
 20
206.7007985592434
 30
0.0
 11
-144.24978336210049
 21
205.0609665440995
 31
0.0
  0
LINE
  8
DETAIL
  6
CONTINUOUS
 62
     5
 10
205.06096654410021
 20
-144.24978336180021
 30
0.0
 11
206.70079855936859
 21
-145.88961537706771
 31
0.0
  0
LINE
  8
DETAIL
  6
CONTINUOUS
 62
     5
 10
208.85306285361051
 20
-148.04187967131
 30
0.0
 11
238.29498525990081
 21
-177.48380207760081
 31
0.0
  0
LINE
  8
DETAIL
  6
CONTINUOUS
 62
     5
 10
-179.60512242149929
 20
236.1736649162992
 30
0.0
 11
-150.51170186140229
 21
207.08024435646459
 31
0.0
  0
LINE
  8
DETAIL
  6
CONTINUOUS
 62
     5
 10
-148.36368373629151
 20
204.93222623137351
 30
0.0
 11
-146.37110370569869
 21
202.93964620079919
 31
0.0
  0
LINE
  8
DETAIL
  6
CONTINUOUS
 62
     5
 10
202.93964620050201
 20
-146.3711037054006
 30
0.0
 11
204.93222623138169
 21
-148.36368373628119
 31
0.0
  0
LINE
  8
DETAIL
  6
CONTINUOUS
 62
     5
 10
207.08024435648079
 20
-150.51170186138029
 30
0.0
 11
236.17366491630079
 21
-179.60512242120029
 31
0.0
  0
LINE
  8
DETAIL
  6
CONTINUOUS
 62
     5
 10
238.29498525990081
 20
177.4838020778991
 30
0.0
 11
208.8530628534854
 21
148.04187967148499
 31
0.0
  0
LINE
  8
DETAIL
  6
CONTINUOUS
 62
     5
 10
206.70079855924359
 20
145.88961537724319
 30
0.0
 11
205.06096654410021
 21
144.24978336209941
 31
0.0
  0
LINE
  8
DETAIL
  6
CONTINUOUS
 62
     5
 10
-144.24978336210049
 20
-205.06096654410041
 30
0.0
 11
-145.88961537725339
 21
-206.70079855923839
 31
0.0
  0
LINE
  8
DETAIL
  6
CONTINUOUS
 62
     5
 10
-148.0418796715071
 20
-208.85306285347201
 30
0.0
 11
-177.48380207790109
 21
-238.2949852596
 31
0.0
  0
LINE
  8
DETAIL
  6
CONTINUOUS
 62
     5
 10
236.17366491630079
 20
179.6051224214996
 30
0.0
 11
207.08024435635531
 21
150.5117018615517
 31
0.0
  0
LINE
  8
DETAIL
  6
CONTINUOUS
 62
     5
 10
204.93222623125621
 20
148.36368373645311
 30
0.0
 11
202.93964620050201
 21
146.3711037056994
 31
0.0
  0
LINE
  8
DETAIL
  6
CONTINUOUS
 62
     5
 10
-193.36370785860029
 20
149.63366394989981
 30
0.0
 11
-195.7385196545988
 21
151.45592113199999
 31
0.0
  0
LINE
  8
DETAIL
  6
CONTINUOUS
 62
     5
 10
-146.37110370569869
 20
-202.93964620050039
 30
0.0
 11
-148.36368373645519
 21
-204.93222623125641
 31
0.0
  0
LINE
  8
DETAIL
  6
CONTINUOUS
 62
     5
 10
-150.5117018615542
 20
-207.08024435635551
 30
0.0
 11
-179.60512242149929
 21
-236.17366491630011
 31
0.0
  0
LINE
  8
BASIS
  6
DASHDOT
 62
     6
 10
-0.0000000000013642
 20
-298.16115146280049
 30
0.0
 11
-0.0000000000013642
 21
298.16115146279913
 31
0.0
  0
LINE
  8
DETAIL
  6
CONTINUOUS
 62
     5
 10
154.80879178889839
 20
-200.10806576640039
 30
0.0
 11
156.63509017469869
 21
-202.48814416140041
 31
0.0
  0
LINE
  8
DETAIL
  6
CONTINUOUS
 62
     5
 10
-154.8087917888993
 20
200.10806576669921
 30
0.0
 11
-156.6350901749997
 21
202.4881441613995
 31
0.0
  0
LINE
  8
BASIS
  6
DASHDOT
 62
     6
 10
291.11838692054829
 20
-0.0000000000006821
 30
0.0
 11
-291.11838692055107
 21
-0.0000000000006821
 31
0.0
  0
LINE
  8
DETAIL
  6
CONTINUOUS
 62
     5
 10
-200.1080657667012
 20
-154.80879178890041
 30
0.0
 11
-202.4881441613984
 21
-156.63509017470071
 31
0.0
  0
LINE
  8
DETAIL
  6
CONTINUOUS
 62
     5
 10
200.10806576640201
 20
154.8087917891996
 30
0.0
 11
202.4881441613993
 21
156.6350901749995
 31
0.0
  0
LINE
  8
DETAIL
  6
CONTINUOUS
 62
     5
 10
-199.94975927940001
 20
155.01320512859979
 30
0.0
 11
-201.96413710410019
 21
157.31016281189949
 31
0.0
  0
LINE
  8
DETAIL
  6
CONTINUOUS
 62
     5
 10
179.6051224211983
 20
-236.17366491630011
 30
0.0
 11
150.5117018615324
 21
-207.08024435637051
 31
0.0
  0
LINE
  8
DETAIL
  6
CONTINUOUS
 62
     5
 10
148.3636837364447
 20
-204.93222623126329
 30
0.0
 11
146.3711037056996
 21
-202.93964620050039
 31
0.0
  0
LINE
  8
DETAIL
  6
CONTINUOUS
 62
     5
 10
-202.9396462005011
 20
146.3711037056994
 30
0.0
 11
-204.93222623125581
 21
148.3636837364545
 31
0.0
  0
LINE
  8
DETAIL
  6
CONTINUOUS
 62
     5
 10
-207.0802443563548
 20
150.51170186155349
 30
0.0
 11
-236.17366491629991
 21
179.6051224214996
 31
0.0
  0
LINE
  8
DETAIL
  6
CONTINUOUS
 62
     5
 10
177.48380207789839
 20
-238.2949852596
 30
0.0
 11
148.04187967150659
 21
-208.85306285347161
 31
0.0
  0
LINE
  8
DETAIL
  6
CONTINUOUS
 62
     5
 10
145.8896153772539
 20
-206.70079855923751
 30
0.0
 11
144.2497833621014
 21
-205.06096654410041
 31
0.0
  0
LINE
  8
DETAIL
  6
CONTINUOUS
 62
     5
 10
-205.0609665440993
 20
144.24978336209941
 30
0.0
 11
-206.70079855924399
 21
145.8896153772441
 31
0.0
  0
LINE
  8
DETAIL
  6
CONTINUOUS
 62
     5
 10
-208.85306285348591
 20
148.0418796714855
 30
0.0
 11
-238.2949852598999
 21
177.4838020778991
 31
0.0
  0
LINE
  8
DETAIL
  6
CONTINUOUS
 62
     5
 10
155.0132051282994
 20
199.94975927939981
 30
0.0
 11
157.31016281159961
 21
201.96413710409911
 31
0.0
  0
LINE
  8
DETAIL
  6
CONTINUOUS
 62
     5
 10
-236.17366491629991
 20
-179.60512242120029
 30
0.0
 11
-207.08024435648119
 21
-150.5117018613812
 31
0.0
  0
LINE
  8
DETAIL
  6
CONTINUOUS
 62
     5
 10
-204.9322262313822
 20
-148.3636837362817
 30
0.0
 11
-202.9396462005011
 21
-146.3711037054006
 31
0.0
  0
LINE
  8
DETAIL
  6
CONTINUOUS
 62
     5
 10
146.3711037056996
 20
202.93964620079919
 30
0.0
 11
148.36368373628099
 21
204.93222623138081
 31
0.0
  0
LINE
  8
DETAIL
  6
CONTINUOUS
 62
     5
 10
150.51170186138009
 20
207.08024435648011
 30
0.0
 11
179.6051224211983
 21
236.1736649162992
 31
0.0
  0
LINE
  8
DETAIL
  6
CONTINUOUS
 62
     5
 10
-238.2949852598999
 20
-177.48380207760081
 30
0.0
 11
-208.85306285361051
 21
-148.04187967131131
 31
0.0
  0
LINE
  8
DETAIL
  6
CONTINUOUS
 62
     5
 10
-206.70079855936859
 20
-145.88961537706899
 30
0.0
 11
-205.0609665440993
 21
-144.24978336180021
 31
0.0
  0
LINE
  8
DETAIL
  6
CONTINUOUS
 62
     5
 10
144.2497833621014
 20
205.0609665440995
 30
0.0
 11
145.88961537724481
 21
206.70079855924271
 31
0.0
  0
LINE
  8
DETAIL
  6
CONTINUOUS
 62
     5
 10
148.04187967148621
 20
208.85306285348449
 30
0.0
 11
177.48380207789839
 21
238.2949852598997
 31
0.0
  0
LINE
  8
DETAIL
  6
CONTINUOUS
 62
     5
 10
-146.37110370569869
 20
-202.93964620050039
 30
0.0
 11
-144.24978336210049
 21
-205.06096654410041
 31
0.0
  0
LINE
  8
DETAIL
  6
CONTINUOUS
 62
     5
 10
-202.9396462005011
 20
-146.3711037054006
 30
0.0
 11
-205.0609665440993
 21
-144.24978336180021
 31
0.0
  0
LINE
  8
DETAIL
  6
CONTINUOUS
 62
     5
 10
-146.37110370569869
 20
202.93964620079919
 30
0.0
 11
-144.24978336210049
 21
205.0609665440995
 31
0.0
  0
LINE
  8
DETAIL
  6
CONTINUOUS
 62
     5
 10
-202.9396462005011
 20
146.3711037056994
 30
0.0
 11
-205.0609665440993
 21
144.24978336209941
 31
0.0
  0
ARC
  8
DETAIL
  6
CONTINUOUS
 62
     5
 10
-234.05234457270171
 20
-181.7264427648004
 30
0.0
 40
6.0
 50
135.00000000000921
 51
224.99999999999079
  0
LINE
  8
DETAIL
  6
CONTINUOUS
 62
     5
 10
-183.8477631087012
 20
-236.17366491630011
 30
0.0
 11
-236.17366491629991
 21
-183.84776310840039
 31
0.0
  0
LINE
  8
DETAIL
  6
CONTINUOUS
 62
     5
 10
-185.9690834519993
 20
-238.2949852596
 30
0.0
 11
-238.2949852598999
 21
-185.9690834520004
 31
0.0
  0
LINE
  8
DETAIL
  6
CONTINUOUS
 62
     5
 10
-236.17366491629991
 20
183.84776310869921
 30
0.0
 11
-183.8477631087012
 21
236.1736649162992
 31
0.0
  0
ARC
  8
DETAIL
  6
CONTINUOUS
 62
     5
 10
234.0523445727008
 20
181.72644276509999
 30
0.0
 40
3.0
 50
315.00000000000921
 51
44.999999999990777
  0
ARC
  8
DETAIL
  6
CONTINUOUS
 62
     5
 10
234.0523445727008
 20
-181.7264427648004
 30
0.0
 40
6.0
 50
315.00000000000921
 51
44.999999999990777
  0
ARC
  8
DETAIL
  6
CONTINUOUS
 62
     5
 10
181.72644276480011
 20
-234.0523445727006
 30
0.0
 40
3.0
 50
224.99999999999079
 51
315.00000000000921
  0
ARC
  8
DETAIL
  6
CONTINUOUS
 62
     5
 10
234.0523445727008
 20
181.72644276509999
 30
0.0
 40
6.0
 50
315.00000000000921
 51
44.999999999990777
  0
LINE
  8
DETAIL
  6
CONTINUOUS
 62
     5
 10
-238.2949852598999
 20
185.9690834522996
 30
0.0
 11
-185.9690834519993
 21
238.2949852598997
 31
0.0
  0
ARC
  8
DETAIL
  6
CONTINUOUS
 62
     5
 10
181.72644276480011
 20
-234.0523445727006
 30
0.0
 40
6.0
 50
224.99999999999079
 51
315.00000000000921
  0
ARC
  8
DETAIL
  6
CONTINUOUS
 62
     5
 10
181.72644276480011
 20
234.0523445729998
 30
0.0
 40
6.0
 50
44.999999999990777
 51
135.00000000000921
  0
ARC
  8
DETAIL
  6
CONTINUOUS
 62
     5
 10
234.0523445727008
 20
-181.7264427648004
 30
0.0
 40
3.0
 50
315.00000000000921
 51
44.999999999990777
  0
ARC
  8
DETAIL
  6
CONTINUOUS
 62
     5
 10
-181.72644276509939
 20
-234.0523445727006
 30
0.0
 40
6.0
 50
224.99999999999079
 51
315.00000000000921
  0
ARC
  8
DETAIL
  6
CONTINUOUS
 62
     5
 10
-234.05234457270171
 20
-181.7264427648004
 30
0.0
 40
3.0
 50
135.00000000000921
 51
224.99999999999079
  0
ARC
  8
DETAIL
  6
CONTINUOUS
 62
     5
 10
181.72644276480011
 20
234.0523445729998
 30
0.0
 40
3.0
 50
44.999999999990777
 51
135.00000000000921
  0
ARC
  8
DETAIL
  6
CONTINUOUS
 62
     5
 10
-181.72644276509939
 20
-234.0523445727006
 30
0.0
 40
3.0
 50
224.99999999999079
 51
315.00000000000921
  0
ARC
  8
DETAIL
  6
CONTINUOUS
 62
     5
 10
-0.0000000000004547
 20
-0.0000000000006821
 30
0.0
 40
255.99999999990001
 50
232.08492282048871
 51
307.72381220785547
  0
ARC
  8
DETAIL
  6
CONTINUOUS
 62
     5
 10
-0.0000000000004547
 20
-0.0000000000006821
 30
0.0
 40
255.99999999990001
 50
322.08492282050503
 51
37.723812207959718
  0
ARC
  8
DETAIL
  6
CONTINUOUS
 62
     5
 10
-0.0000000000004547
 20
-0.0000000000006821
 30
0.0
 40
255.99999999990001
 50
142.084922820505
 51
217.72381220790169
  0
ARC
  8
DETAIL
  6
CONTINUOUS
 62
     5
 10
-0.0000000000004547
 20
-0.0000000000006821
 30
0.0
 40
255.99999999990001
 50
52.084922820563001
 51
127.7238122079211
  0
ARC
  8
DETAIL
  6
CONTINUOUS
 62
     5
 10
-0.0000000000004547
 20
-0.0000000000006821
 30
0.0
 40
252.99999999990001
 50
322.21498224000192
 51
37.726466121411093
  0
ARC
  8
DETAIL
  6
CONTINUOUS
 62
     5
 10
-0.0000000000004547
 20
-0.0000000000006821
 30
0.0
 40
252.99999999990001
 50
232.2149822399648
 51
307.7264661213531
  0
ARC
  8
DETAIL
  6
CONTINUOUS
 62
     5
 10
-234.05234457270171
 20
181.72644276509999
 30
0.0
 40
3.0
 50
135.00000000000921
 51
224.99999999999079
  0
ARC
  8
DETAIL
  6
CONTINUOUS
 62
     5
 10
-0.0000000000004547
 20
-0.0000000000006821
 30
0.0
 40
247.5
 50
240.2314987289144
 51
247.26850127107451
  0
ARC
  8
DETAIL
  6
CONTINUOUS
 62
     5
 10
-0.0000000000004547
 20
-0.0000000000006821
 30
0.0
 40
252.99999999990001
 50
52.21498224003092
 51
127.726466121288
  0
ARC
  8
DETAIL
  6
CONTINUOUS
 62
     5
 10
-0.0000000000004547
 20
-0.0000000000006821
 30
0.0
 40
252.99999999990001
 50
142.21498224000189
 51
217.72646612132641
  0
ARC
  8
DETAIL
  6
CONTINUOUS
 62
     5
 10
-234.05234457270171
 20
181.72644276509999
 30
0.0
 40
6.0
 50
135.00000000000921
 51
224.99999999999079
  0
ARC
  8
DETAIL
  6
CONTINUOUS
 62
     5
 10
-0.0000000000004547
 20
-0.0000000000006821
 30
0.0
 40
247.5
 50
232.07914667091549
 51
232.26850127107761
  0
CIRCLE
  8
DETAIL
  6
CONTINUOUS
 62
     5
 10
-0.0000000000004547
 20
-0.0000000000006821
 30
0.0
 40
96.999999999899984
  0
ARC
  8
DETAIL
  6
CONTINUOUS
 62
     5
 10
-0.0000000000004547
 20
-0.0000000000006821
 30
0.0
 40
244.5
 50
232.2136550909951
 51
232.26566078012061
  0
ARC
  8
DETAIL
  6
CONTINUOUS
 62
     5
 10
-181.72644276509939
 20
234.0523445729998
 30
0.0
 40
6.0
 50
44.999999999990777
 51
135.00000000000921
  0
ARC
  8
DETAIL
  6
CONTINUOUS
 62
     5
 10
-181.72644276509939
 20
234.0523445729998
 30
0.0
 40
3.0
 50
44.999999999990777
 51
135.00000000000921
  0
ARC
  8
DETAIL
  6
CONTINUOUS
 62
     5
 10
-200.08703909130099
 20
153.54493458509961
 30
0.0
 40
0.9898764569999998
 50
52.553518022891147
 51
104.73265013343379
  0
LINE
  8
DETAIL
  6
CONTINUOUS
 62
     5
 10
-152.1066575804966
 20
-195.24296330370069
 30
0.0
 11
-152.03436456010201
 21
-195.16173604578188
 31
0.0
  0
LINE
  8
DETAIL
  6
CONTINUOUS
 62
     5
 10
-152.03436456010201
 20
-195.16173604578188
 30
0.0
 11
-151.95579904383172
 21
-195.08593381764402
 31
0.0
  0
LINE
  8
DETAIL
  6
CONTINUOUS
 62
     5
 10
-151.95579904383172
 20
-195.08593381764402
 30
0.0
 11
-151.87625183895307
 21
-195.01120245353115
 31
0.0
  0
LINE
  8
DETAIL
  6
CONTINUOUS
 62
     5
 10
-151.87625183895307
 20
-195.01120245353115
 30
0.0
 11
-151.79605138523561
 21
-194.93700078842164
 31
0.0
  0
LINE
  8
DETAIL
  6
CONTINUOUS
 62
     5
 10
-151.79605138523561
 20
-194.93700078842164
 30
0.0
 11
-151.71549647648672
 21
-194.86320668166482
 31
0.0
  0
LINE
  8
DETAIL
  6
CONTINUOUS
 62
     5
 10
-151.71549647648672
 20
-194.86320668166482
 30
0.0
 11
-151.63468861018552
 21
-194.78973402581576
 31
0.0
  0
LINE
  8
DETAIL
  6
CONTINUOUS
 62
     5
 10
-151.63468861018552
 20
-194.78973402581576
 30
0.0
 11
-151.55365332039395
 21
-194.71650723348375
 31
0.0
  0
LINE
  8
DETAIL
  6
CONTINUOUS
 62
     5
 10
-151.55365332039395
 20
-194.71650723348375
 30
0.0
 11
-151.47241920295403
 21
-194.64348716145446
 31
0.0
  0
LINE
  8
DETAIL
  6
CONTINUOUS
 62
     5
 10
-151.47241920295403
 20
-194.64348716145446
 30
0.0
 11
-151.39101630303156
 21
-194.57065320022161
 31
0.0
  0
LINE
  8
DETAIL
  6
CONTINUOUS
 62
     5
 10
-151.39101630303156
 20
-194.57065320022161
 30
0.0
 11
-151.30946619886669
 21
-194.49798847082704
 31
0.0
  0
LINE
  8
DETAIL
  6
CONTINUOUS
 62
     5
 10
-151.30946619886669
 20
-194.49798847082704
 30
0.0
 11
-151.22777769782371
 21
-194.42548149579224
 31
0.0
  0
LINE
  8
DETAIL
  6
CONTINUOUS
 62
     5
 10
-151.22777769782371
 20
-194.42548149579224
 30
0.0
 11
-151.14595825121705
 21
-194.35312180609523
 31
0.0
  0
LINE
  8
DETAIL
  6
CONTINUOUS
 62
     5
 10
-151.14595825121705
 20
-194.35312180609523
 30
0.0
 11
-151.06401258116296
 21
-194.28090404537113
 31
0.0
  0
LINE
  8
DETAIL
  6
CONTINUOUS
 62
     5
 10
-151.06401258116296
 20
-194.28090404537113
 30
0.0
 11
-150.98194395228828
 21
-194.20882558757529
 31
0.0
  0
LINE
  8
DETAIL
  6
CONTINUOUS
 62
     5
 10
-150.98194395228828
 20
-194.20882558757529
 30
0.0
 11
-150.89975461473989
 21
-194.13688491193727
 31
0.0
  0
LINE
  8
DETAIL
  6
CONTINUOUS
 62
     5
 10
-150.89975461473989
 20
-194.13688491193727
 30
0.0
 11
-150.81744317139527
 21
-194.06508443226241
 31
0.0
  0
LINE
  8
DETAIL
  6
CONTINUOUS
 62
     5
 10
-150.81744317139527
 20
-194.06508443226241
 30
0.0
 11
-150.73500735522441
 21
-193.99342749210021
 31
0.0
  0
LINE
  8
DETAIL
  6
CONTINUOUS
 62
     5
 10
-150.73500735522441
 20
-193.99342749210021
 30
0.0
 11
-150.65244242405379
 21
-193.92191955758048
 31
0.0
  0
LINE
  8
DETAIL
  6
CONTINUOUS
 62
     5
 10
-150.65244242405379
 20
-193.92191955758048
 30
0.0
 11
-150.56973972951249
 21
-193.85056944462517
 31
0.0
  0
LINE
  8
DETAIL
  6
CONTINUOUS
 62
     5
 10
-150.56973972951249
 20
-193.85056944462517
 30
0.0
 11
-150.486889661421
 21
-193.77938763934549
 31
0.0
  0
LINE
  8
DETAIL
  6
CONTINUOUS
 62
     5
 10
-150.486889661421
 20
-193.77938763934549
 30
0.0
 11
-150.40387669765687
 21
-193.70839779127078
 31
0.0
  0
LINE
  8
DETAIL
  6
CONTINUOUS
 62
     5
 10
-150.40387669765687
 20
-193.70839779127078
 30
0.0
 11
-150.32068181565776
 21
-193.63763090302513
 31
0.0
  0
LINE
  8
DETAIL
  6
CONTINUOUS
 62
     5
 10
-150.32068181565776
 20
-193.63763090302513
 30
0.0
 11
-150.23727101619866
 21
-193.56712033345056
 31
0.0
  0
LINE
  8
DETAIL
  6
CONTINUOUS
 62
     5
 10
-150.23727101619866
 20
-193.56712033345056
 30
0.0
 11
-150.15358572351667
 21
-193.4969035025602
 31
0.0
  0
LINE
  8
DETAIL
  6
CONTINUOUS
 62
     5
 10
-150.15358572351667
 20
-193.4969035025602
 30
0.0
 11
-150.06954917941019
 21
-193.42709870822057
 31
0.0
  0
LINE
  8
DETAIL
  6
CONTINUOUS
 62
     5
 10
-150.06954917941019
 20
-193.42709870822057
 30
0.0
 11
-149.98503088144147
 21
-193.35799386879359
 31
0.0
  0
LINE
  8
DETAIL
  6
CONTINUOUS
 62
     5
 10
-149.98503088144147
 20
-193.35799386879359
 30
0.0
 11
-149.89961081842972
 21
-193.290042531479
 31
0.0
  0
LINE
  8
DETAIL
  6
CONTINUOUS
 62
     5
 10
-149.89961081842972
 20
-193.290042531479
 30
0.0
 11
-149.80972741410051
 21
-193.22860961070069
 31
0.0
  0
LINE
  8
DETAIL
  6
CONTINUOUS
 62
     5
 10
-195.24296330399969
 20
152.10665758079969
 30
0.0
 11
-195.1617360460819
 21
152.03436456010013
 31
0.0
  0
LINE
  8
DETAIL
  6
CONTINUOUS
 62
     5
 10
-195.1617360460819
 20
152.03436456010013
 30
0.0
 11
-195.08593381794128
 21
151.95579904383149
 31
0.0
  0
LINE
  8
DETAIL
  6
CONTINUOUS
 62
     5
 10
-195.08593381794128
 20
151.95579904383149
 30
0.0
 11
-195.01120245375779
 21
151.87625183895375
 31
0.0
  0
LINE
  8
DETAIL
  6
CONTINUOUS
 62
     5
 10
-195.01120245375779
 20
151.87625183895375
 30
0.0
 11
-194.93700078854056
 21
151.79605138526586
 31
0.0
  0
LINE
  8
DETAIL
  6
CONTINUOUS
 62
     5
 10
-194.93700078854056
 20
151.79605138526586
 30
0.0
 11
-194.8632066817917
 21
151.71549647660015
 31
0.0
  0
LINE
  8
DETAIL
  6
CONTINUOUS
 62
     5
 10
-194.8632066817917
 20
151.71549647660015
 30
0.0
 11
-194.78973402600505
 21
151.63468861037597
 31
0.0
  0
LINE
  8
DETAIL
  6
CONTINUOUS
 62
     5
 10
-194.78973402600505
 20
151.63468861037597
 30
0.0
 11
-194.71650723366676
 21
151.55365332057795
 31
0.0
  0
LINE
  8
DETAIL
  6
CONTINUOUS
 62
     5
 10
-194.71650723366676
 20
151.55365332057795
 30
0.0
 11
-194.64348716158003
 21
151.4724192030809
 31
0.0
  0
LINE
  8
DETAIL
  6
CONTINUOUS
 62
     5
 10
-194.64348716158003
 20
151.4724192030809
 30
0.0
 11
-194.57065320032655
 21
151.39101630313809
 31
0.0
  0
LINE
  8
DETAIL
  6
CONTINUOUS
 62
     5
 10
-194.57065320032655
 20
151.39101630313809
 30
0.0
 11
-194.49798847098242
 21
151.30946619901752
 31
0.0
  0
LINE
  8
DETAIL
  6
CONTINUOUS
 62
     5
 10
-194.49798847098242
 20
151.30946619901752
 30
0.0
 11
-194.42548149602203
 21
151.22777769802076
 31
0.0
  0
LINE
  8
DETAIL
  6
CONTINUOUS
 62
     5
 10
-194.42548149602203
 20
151.22777769802076
 30
0.0
 11
-194.35312180637311
 21
151.14595825139963
 31
0.0
  0
LINE
  8
DETAIL
  6
CONTINUOUS
 62
     5
 10
-194.35312180637311
 20
151.14595825139963
 30
0.0
 11
-194.28090404565395
 21
151.06401258127985
 31
0.0
  0
LINE
  8
DETAIL
  6
CONTINUOUS
 62
     5
 10
-194.28090404565395
 20
151.06401258127985
 30
0.0
 11
-194.20882558782074
 21
150.98194395233583
 31
0.0
  0
LINE
  8
DETAIL
  6
CONTINUOUS
 62
     5
 10
-194.20882558782074
 20
150.98194395233583
 30
0.0
 11
-194.13688491211244
 21
150.89975461475066
 31
0.0
  0
LINE
  8
DETAIL
  6
CONTINUOUS
 62
     5
 10
-194.13688491211244
 20
150.89975461475066
 30
0.0
 11
-194.06508443237502
 21
150.81744317139561
 31
0.0
  0
LINE
  8
DETAIL
  6
CONTINUOUS
 62
     5
 10
-194.06508443237502
 20
150.81744317139561
 30
0.0
 11
-193.99342749220469
 21
150.7350073552247
 31
0.0
  0
LINE
  8
DETAIL
  6
CONTINUOUS
 62
     5
 10
-193.99342749220469
 20
150.7350073552247
 30
0.0
 11
-193.92191955773467
 21
150.65244242406169
 31
0.0
  0
LINE
  8
DETAIL
  6
CONTINUOUS
 62
     5
 10
-193.92191955773467
 20
150.65244242406169
 30
0.0
 11
-193.85056944482213
 21
150.5697397295535
 31
0.0
  0
LINE
  8
DETAIL
  6
CONTINUOUS
 62
     5
 10
-193.85056944482213
 20
150.5697397295535
 30
0.0
 11
-193.77938763951738
 21
150.48688966153466
 31
0.0
  0
LINE
  8
DETAIL
  6
CONTINUOUS
 62
     5
 10
-193.77938763951738
 20
150.48688966153466
 30
0.0
 11
-193.70839779138541
 21
150.40387669784241
 31
0.0
  0
LINE
  8
DETAIL
  6
CONTINUOUS
 62
     5
 10
-193.70839779138541
 20
150.40387669784241
 30
0.0
 11
-193.63763090313859
 21
150.32068181584478
 31
0.0
  0
LINE
  8
DETAIL
  6
CONTINUOUS
 62
     5
 10
-193.63763090313859
 20
150.32068181584478
 30
0.0
 11
-193.56712033362615
 21
150.23727101630482
 31
0.0
  0
LINE
  8
DETAIL
  6
CONTINUOUS
 62
     5
 10
-193.56712033362615
 20
150.23727101630482
 30
0.0
 11
-193.49690350273474
 21
150.15358572354265
 31
0.0
  0
LINE
  8
DETAIL
  6
CONTINUOUS
 62
     5
 10
-193.49690350273474
 20
150.15358572354265
 30
0.0
 11
-193.42709870828372
 21
150.06954917941113
 31
0.0
  0
LINE
  8
DETAIL
  6
CONTINUOUS
 62
     5
 10
-193.42709870828372
 20
150.06954917941113
 30
0.0
 11
-193.35799386879353
 21
149.9850308814415
 31
0.0
  0
LINE
  8
DETAIL
  6
CONTINUOUS
 62
     5
 10
-193.35799386879353
 20
149.9850308814415
 30
0.0
 11
-193.29004253159476
 21
149.89961081843023
 31
0.0
  0
LINE
  8
DETAIL
  6
CONTINUOUS
 62
     5
 10
-193.29004253159476
 20
149.89961081843023
 30
0.0
 11
-193.22860961069679
 21
149.8097274140994
 31
0.0
  0
LINE
  8
DETAIL
  6
CONTINUOUS
 62
     5
 10
152.10665758049939
 20
195.24296330399989
 30
0.0
 11
152.03436455982265
 21
195.16173604608173
 31
0.0
  0
LINE
  8
DETAIL
  6
CONTINUOUS
 62
     5
 10
152.03436455982265
 20
195.16173604608173
 30
0.0
 11
151.95579904382308
 21
195.08593381794302
 31
0.0
  0
LINE
  8
DETAIL
  6
CONTINUOUS
 62
     5
 10
151.95579904382308
 20
195.08593381794302
 30
0.0
 11
151.8762518389523
 21
195.01120245383032
 31
0.0
  0
LINE
  8
DETAIL
  6
CONTINUOUS
 62
     5
 10
151.8762518389523
 20
195.01120245383032
 30
0.0
 11
151.79605138523667
 21
194.93700078872084
 31
0.0
  0
LINE
  8
DETAIL
  6
CONTINUOUS
 62
     5
 10
151.79605138523667
 20
194.93700078872084
 30
0.0
 11
151.71549647648914
 21
194.86320668196404
 31
0.0
  0
LINE
  8
DETAIL
  6
CONTINUOUS
 62
     5
 10
151.71549647648914
 20
194.86320668196404
 30
0.0
 11
151.63468861018822
 21
194.78973402611496
 31
0.0
  0
LINE
  8
DETAIL
  6
CONTINUOUS
 62
     5
 10
151.63468861018822
 20
194.78973402611496
 30
0.0
 11
151.55365332039665
 21
194.71650723378278
 31
0.0
  0
LINE
  8
DETAIL
  6
CONTINUOUS
 62
     5
 10
151.55365332039665
 20
194.71650723378278
 30
0.0
 11
151.4724192029567
 21
194.64348716175326
 31
0.0
  0
LINE
  8
DETAIL
  6
CONTINUOUS
 62
     5
 10
151.4724192029567
 20
194.64348716175326
 30
0.0
 11
151.39101630303418
 21
194.57065320052033
 31
0.0
  0
LINE
  8
DETAIL
  6
CONTINUOUS
 62
     5
 10
151.39101630303418
 20
194.57065320052033
 30
0.0
 11
151.30946619886271
 21
194.49798847112592
 31
0.0
  0
LINE
  8
DETAIL
  6
CONTINUOUS
 62
     5
 10
151.30946619886271
 20
194.49798847112592
 30
0.0
 11
151.2277776977912
 21
194.42548149609149
 31
0.0
  0
LINE
  8
DETAIL
  6
CONTINUOUS
 62
     5
 10
151.2277776977912
 20
194.42548149609149
 30
0.0
 11
151.1459582511217
 21
194.35312180639491
 31
0.0
  0
LINE
  8
DETAIL
  6
CONTINUOUS
 62
     5
 10
151.1459582511217
 20
194.35312180639491
 30
0.0
 11
151.06401258099658
 21
194.28090404567115
 31
0.0
  0
LINE
  8
DETAIL
  6
CONTINUOUS
 62
     5
 10
151.06401258099658
 20
194.28090404567115
 30
0.0
 11
150.98194395208918
 21
194.20882558787548
 31
0.0
  0
LINE
  8
DETAIL
  6
CONTINUOUS
 62
     5
 10
150.98194395208918
 20
194.20882558787548
 30
0.0
 11
150.89975461457598
 21
194.13688491223729
 31
0.0
  0
LINE
  8
DETAIL
  6
CONTINUOUS
 62
     5
 10
150.89975461457598
 20
194.13688491223729
 30
0.0
 11
150.81744317130219
 21
194.06508443256206
 31
0.0
  0
LINE
  8
DETAIL
  6
CONTINUOUS
 62
     5
 10
150.81744317130219
 20
194.06508443256206
 30
0.0
 11
150.7350073551915
 21
193.99342749239955
 31
0.0
  0
LINE
  8
DETAIL
  6
CONTINUOUS
 62
     5
 10
150.7350073551915
 20
193.99342749239955
 30
0.0
 11
150.65244242404734
 21
193.92191955787951
 31
0.0
  0
LINE
  8
DETAIL
  6
CONTINUOUS
 62
     5
 10
150.65244242404734
 20
193.92191955787951
 30
0.0
 11
150.56973972951201
 21
193.8505694449241
 31
0.0
  0
LINE
  8
DETAIL
  6
CONTINUOUS
 62
     5
 10
150.56973972951201
 20
193.8505694449241
 30
0.0
 11
150.48688966141987
 21
193.77938763964448
 31
0.0
  0
LINE
  8
DETAIL
  6
CONTINUOUS
 62
     5
 10
150.48688966141987
 20
193.77938763964448
 30
0.0
 11
150.40387669763624
 21
193.70839779156984
 31
0.0
  0
LINE
  8
DETAIL
  6
CONTINUOUS
 62
     5
 10
150.40387669763624
 20
193.70839779156984
 30
0.0
 11
150.32068181557261
 21
193.63763090332392
 31
0.0
  0
LINE
  8
DETAIL
  6
CONTINUOUS
 62
     5
 10
150.32068181557261
 20
193.63763090332392
 30
0.0
 11
150.23727101601011
 21
193.56712033373165
 31
0.0
  0
LINE
  8
DETAIL
  6
CONTINUOUS
 62
     5
 10
150.23727101601011
 20
193.56712033373165
 30
0.0
 11
150.15358572324521
 21
193.4969035027616
 31
0.0
  0
LINE
  8
DETAIL
  6
CONTINUOUS
 62
     5
 10
150.15358572324521
 20
193.4969035027616
 30
0.0
 11
150.06954917914894
 21
193.42709870832414
 31
0.0
  0
LINE
  8
DETAIL
  6
CONTINUOUS
 62
     5
 10
150.06954917914894
 20
193.42709870832414
 30
0.0
 11
149.98503088136175
 21
193.35799386901476
 31
0.0
  0
LINE
  8
DETAIL
  6
CONTINUOUS
 62
     5
 10
149.98503088136175
 20
193.35799386901476
 30
0.0
 11
149.89961081831387
 21
193.29004253177902
 31
0.0
  0
LINE
  8
DETAIL
  6
CONTINUOUS
 62
     5
 10
149.89961081831387
 20
193.29004253177902
 30
0.0
 11
149.8097274140996
 21
193.22860961099991
 31
0.0
  0
LINE
  8
DETAIL
  6
CONTINUOUS
 62
     5
 10
195.24296330369859
 20
-152.1066575805005
 30
0.0
 11
195.16173604588272
 21
-152.03436455982236
 31
0.0
  0
LINE
  8
DETAIL
  6
CONTINUOUS
 62
     5
 10
195.16173604588272
 20
-152.03436455982236
 30
0.0
 11
195.08593381764175
 21
-151.95579904373236
 31
0.0
  0
LINE
  8
DETAIL
  6
CONTINUOUS
 62
     5
 10
195.08593381764175
 20
-151.95579904373236
 30
0.0
 11
195.01120245353187
 21
-151.87625183868761
 31
0.0
  0
LINE
  8
DETAIL
  6
CONTINUOUS
 62
     5
 10
195.01120245353187
 20
-151.87625183868761
 30
0.0
 11
194.93700078845205
 21
-151.79605138496731
 31
0.0
  0
LINE
  8
DETAIL
  6
CONTINUOUS
 62
     5
 10
194.93700078845205
 20
-151.79605138496731
 30
0.0
 11
194.86320668177885
 21
-151.71549647630451
 31
0.0
  0
LINE
  8
DETAIL
  6
CONTINUOUS
 62
     5
 10
194.86320668177885
 20
-151.71549647630451
 30
0.0
 11
194.78973402600727
 21
-151.63468861010625
 31
0.0
  0
LINE
  8
DETAIL
  6
CONTINUOUS
 62
     5
 10
194.78973402600727
 20
-151.63468861010625
 30
0.0
 11
194.71650723366687
 21
-151.55365332037658
 31
0.0
  0
LINE
  8
DETAIL
  6
CONTINUOUS
 62
     5
 10
194.71650723366687
 20
-151.55365332037658
 30
0.0
 11
194.64348716156329
 21
-151.47241920295528
 31
0.0
  0
LINE
  8
DETAIL
  6
CONTINUOUS
 62
     5
 10
194.64348716156329
 20
-151.47241920295528
 30
0.0
 11
194.57065320026007
 21
-151.39101630303398
 31
0.0
  0
LINE
  8
DETAIL
  6
CONTINUOUS
 62
     5
 10
194.57065320026007
 20
-151.39101630303398
 30
0.0
 11
194.49798847083511
 21
-151.30946619886254
 31
0.0
  0
LINE
  8
DETAIL
  6
CONTINUOUS
 62
     5
 10
194.49798847083511
 20
-151.30946619886254
 30
0.0
 11
194.42548149579432
 21
-151.22777769779094
 31
0.0
  0
LINE
  8
DETAIL
  6
CONTINUOUS
 62
     5
 10
194.42548149579432
 20
-151.22777769779094
 30
0.0
 11
194.35312180609714
 21
-151.14595825112033
 31
0.0
  0
LINE
  8
DETAIL
  6
CONTINUOUS
 62
     5
 10
194.35312180609714
 20
-151.14595825112033
 30
0.0
 11
194.28090404537238
 21
-151.06401258098285
 31
0.0
  0
LINE
  8
DETAIL
  6
CONTINUOUS
 62
     5
 10
194.28090404537238
 20
-151.06401258098285
 30
0.0
 11
194.20882558757575
 21
-150.98194395203677
 31
0.0
  0
LINE
  8
DETAIL
  6
CONTINUOUS
 62
     5
 10
194.20882558757575
 20
-150.98194395203677
 30
0.0
 11
194.13688491193997
 21
-150.89975461445181
 31
0.0
  0
LINE
  8
DETAIL
  6
CONTINUOUS
 62
     5
 10
194.13688491193997
 20
-150.89975461445181
 30
0.0
 11
194.06508443228432
 21
-150.81744317109676
 31
0.0
  0
LINE
  8
DETAIL
  6
CONTINUOUS
 62
     5
 10
194.06508443228432
 20
-150.81744317109676
 30
0.0
 11
193.99342749217402
 21
-150.73500735492578
 31
0.0
  0
LINE
  8
DETAIL
  6
CONTINUOUS
 62
     5
 10
193.99342749217402
 20
-150.73500735492578
 30
0.0
 11
193.92191955772893
 21
-150.65244242376272
 31
0.0
  0
LINE
  8
DETAIL
  6
CONTINUOUS
 62
     5
 10
193.92191955772893
 20
-150.65244242376272
 30
0.0
 11
193.85056944482074
 21
-150.56973972925437
 31
0.0
  0
LINE
  8
DETAIL
  6
CONTINUOUS
 62
     5
 10
193.85056944482074
 20
-150.56973972925437
 30
0.0
 11
193.779387639514
 21
-150.48688966123544
 31
0.0
  0
LINE
  8
DETAIL
  6
CONTINUOUS
 62
     5
 10
193.779387639514
 20
-150.48688966123544
 30
0.0
 11
193.70839779136193
 21
-150.40387669754318
 31
0.0
  0
LINE
  8
DETAIL
  6
CONTINUOUS
 62
     5
 10
193.70839779136193
 20
-150.40387669754318
 30
0.0
 11
193.63763090305122
 21
-150.32068181554564
 31
0.0
  0
LINE
  8
DETAIL
  6
CONTINUOUS
 62
     5
 10
193.63763090305122
 20
-150.32068181554564
 30
0.0
 11
193.5671203334544
 21
-150.23727101600588
 31
0.0
  0
LINE
  8
DETAIL
  6
CONTINUOUS
 62
     5
 10
193.5671203334544
 20
-150.23727101600588
 30
0.0
 11
193.49690350256171
 21
-150.15358572324374
 31
0.0
  0
LINE
  8
DETAIL
  6
CONTINUOUS
 62
     5
 10
193.49690350256171
 20
-150.15358572324374
 30
0.0
 11
193.42709870822088
 21
-150.0695491791121
 31
0.0
  0
LINE
  8
DETAIL
  6
CONTINUOUS
 62
     5
 10
193.42709870822088
 20
-150.0695491791121
 30
0.0
 11
193.35799386879538
 21
-149.98503088114259
 31
0.0
  0
LINE
  8
DETAIL
  6
CONTINUOUS
 62
     5
 10
193.35799386879538
 20
-149.98503088114259
 30
0.0
 11
193.29004253148042
 21
-149.89961081813126
 31
0.0
  0
LINE
  8
DETAIL
  6
CONTINUOUS
 62
     5
 10
193.29004253148042
 20
-149.89961081813126
 30
0.0
 11
193.22860961069961
 21
-149.80972741380009
 31
0.0
  0
LINE
  8
SIZE
  6
CONTINUOUS
 62
    30
 10
508.62831159894893
 20
117.469164832505
 30
0.0
 11
106.2043656840851
 21
24.528202331592372
 31
0.0
  0
LINE
  8
SIZE
  6
CONTINUOUS
 62
    30
 10
-106.2043656840841
 20
-24.528202331593281
 30
0.0
 11
-117.89658942913159
 21
-27.228554881862841
 31
0.0
  0
TEXT
  8
SIZE
  6
CONTINUOUS
 62
    30
 10
278.19229376527727
 20
89.907385699804479
 30
0.0
 40
64.0
  1
φ194
 50
13.00460577030691
 41
0.9
 51
0.0
  7
STANDARD
 71
     0
 72
     1
 11
385.10598768999165
 21
114.59940941946932
 31
0.0
210
0.0
220
0.0
230
1.0
  0
LINE
  8
SIZE
  6
CONTINUOUS
 62
    30
 10
-94.51214193903661
 20
-21.827849781323721
 30
0.0
 11
94.512141939037633
 21
21.827849781322811
 31
0.0
  0
CIRCLE
  8
SIZE
  6
CONTINUOUS
 62
    30
 10
-94.51214193903661
 20
-21.827849781323721
 30
0.0
 40
6.0
  0
LINE
  8
SIZE
  6
CONTINUOUS
 62
    30
 10
-94.51214193903661
 20
-21.827849781323721
 30
0.0
 11
-106.20436568408411
 21
-24.528202331593285
 31
0.0
  0
CIRCLE
  8
SIZE
  6
CONTINUOUS
 62
    30
 10
94.512141939037633
 20
21.827849781322811
 30
0.0
 40
6.0
  0
LINE
  8
SIZE
  6
CONTINUOUS
 62
    30
 10
94.512141939037633
 20
21.827849781322811
 30
0.0
 11
106.20436568408513
 21
24.528202331592368
 31
0.0
  0
POINT
  8
DEFPOINTS
  6
CONTINUOUS
 62
    30
 10
94.512141939037633
 20
21.827849781322811
 30
0.0
  0
POINT
  8
DEFPOINTS
  6
CONTINUOUS
 62
    30
 10
-94.51214193903661
 20
-21.827849781323721
 30
0.0
  0
LINE
  8
SIZE
  6
CONTINUOUS
 62
    30
 10
492.98680798058018
 20
-163.0704987579843
 30
0.0
 11
254.4413039978545
 21
-84.164260941433767
 31
0.0
  0
LINE
  8
SIZE
  6
CONTINUOUS
 62
    30
 10
-254.44130399785459
 20
84.164260941433668
 30
0.0
 11
-265.83419820671799
 21
87.93280993881271
 31
0.0
  0
TEXT
  8
SIZE
  6
CONTINUOUS
 62
    30
 10
283.63188111436716
 20
-67.487736399773382
 30
0.0
 40
64.0
  1
φ512
 50
341.69678380342253
 41
0.9
 51
0.0
  7
STANDARD
 71
     0
 72
     1
 11
387.26164683818877
 21
-101.76645807993309
 31
0.0
210
0.0
220
0.0
230
1.0
  0
LINE
  8
SIZE
  6
CONTINUOUS
 62
    30
 10
-243.04840978899119
 20
80.395711944054653
 30
0.0
 11
243.04840978899111
 21
-80.395711944054739
 31
0.0
  0
CIRCLE
  8
SIZE
  6
CONTINUOUS
 62
    30
 10
-243.04840978899119
 20
80.395711944054653
 30
0.0
 40
6.0
  0
LINE
  8
SIZE
  6
CONTINUOUS
 62
    30
 10
-243.04840978899119
 20
80.395711944054653
 30
0.0
 11
-254.44130399785459
 21
84.164260941433696
 31
0.0
  0
CIRCLE
  8
SIZE
  6
CONTINUOUS
 62
    30
 10
243.04840978899111
 20
-80.395711944054739
 30
0.0
 40
6.0
  0
LINE
  8
SIZE
  6
CONTINUOUS
 62
    30
 10
243.04840978899111
 20
-80.395711944054739
 30
0.0
 11
254.44130399785453
 21
-84.164260941433767
 31
0.0
  0
POINT
  8
DEFPOINTS
  6
CONTINUOUS
 62
    30
 10
243.04840978899111
 20
-80.395711944054739
 30
0.0
  0
POINT
  8
DEFPOINTS
  6
CONTINUOUS
 62
    30
 10
-243.04840978899119
 20
80.395711944054653
 30
0.0
  0
LINE
  8
SIZE
  6
CONTINUOUS
 62
    30
 10
171.82694782826829
 20
252.4371208836306
 30
0.0
 11
-47.881979977458258
 21
472.14604868935709
 31
0.0
  0
LINE
  8
SIZE
  6
CONTINUOUS
 62
    30
 10
-252.43712088363171
 20
-171.8269478282694
 30
0.0
 11
-472.14604868935828
 21
47.881979977457057
 31
0.0
  0
LINE
  8
SIZE
  6
CONTINUOUS
 62
    30
 10
-42.22512572796586
 20
449.51863169138761
 30
0.0
 11
-449.51863169138869
 21
42.225125727964667
 31
0.0
  0
CIRCLE
  8
SIZE
  6
CONTINUOUS
 62
    30
 10
-33.739844353727278
 20
458.00391306562619
 30
0.0
 40
6.0
  0
LINE
  8
SIZE
  6
CONTINUOUS
 62
    30
 10
-33.739844353727278
 20
458.00391306562619
 30
0.0
 11
-42.225125727965846
 21
449.51863169138761
 31
0.0
  0
CIRCLE
  8
SIZE
  6
CONTINUOUS
 62
    30
 10
-458.00391306562727
 20
33.739844353726113
 30
0.0
 40
6.0
  0
LINE
  8
SIZE
  6
CONTINUOUS
 62
    30
 10
-458.00391306562727
 20
33.739844353726113
 30
0.0
 11
-449.51863169138869
 21
42.225125727964681
 31
0.0
  0
TEXT
  8
SIZE
  6
CONTINUOUS
 62
    30
 10
-321.1815793331694
 20
205.91751714551148
 30
0.0
 40
64.0
  1
600
 50
45.0
 41
0.9
 51
0.0
  7
STANDARD
 71
     0
 72
     1
 11
-263.54954823934099
 21
263.54954823933986
 31
0.0
210
0.0
220
0.0
230
1.0
  0
POINT
  8
DEFPOINTS
  6
CONTINUOUS
 62
    30
 10
185.9690834519993
 20
238.2949852598997
 30
0.0
  0
POINT
  8
DEFPOINTS
  6
CONTINUOUS
 62
    30
 10
-238.29498525990081
 20
-185.9690834520004
 30
0.0
  0
POINT
  8
DEFPOINTS
  6
CONTINUOUS
 62
    30
 10
-458.00391306562727
 20
33.739844353726113
 30
0.0
  0
LINE
  8
DETAIL
  6
CONTINUOUS
 62
     5
 10
-47.631397208082937
 20
-84.499999999920647
 30
0.0
 11
-125.2404142044002
 21
-218.92276056300059
 31
0.0
  0
LINE
  8
DETAIL
  6
CONTINUOUS
 62
     5
 10
-49.36602540389913
 20
-83.504464166999924
 30
0.0
 11
-126.9724650119992
 21
-217.92276056279999
 31
0.0
  0
ARC
  8
DETAIL
  6
CONTINUOUS
 62
     5
 10
-126.0971512167002
 20
-218.42709006360039
 30
0.0
 40
0.9897825906
 50
277.30629267834593
 51
329.94820606778688
  0
ARC
  8
DETAIL
  6
CONTINUOUS
 62
     5
 10
-126.1147076661005
 20
-218.41690877280081
 30
0.0
 40
0.9899051168999999
 50
150.0540466708203
 51
202.68812139423881
  0
ARC
  8
DETAIL
  6
CONTINUOUS
 62
     5
 10
-153.52882895138151
 20
-200.09943503027921
 30
0.0
 40
0.9897825905999997
 50
269.80629267833382
 51
322.4482060678319
  0
ARC
  8
DETAIL
  6
CONTINUOUS
 62
     5
 10
-153.5449062778039
 20
-200.0870492653446
 30
0.0
 40
0.9899051168999997
 50
142.55404667080231
 51
195.1881213942238
  0
ARC
  8
DETAIL
  6
CONTINUOUS
 62
     5
 10
-200.08700566414649
 20
-153.5450272166938
 30
0.0
 40
0.989782590599999
 50
254.80629267833891
 51
307.44820606781968
  0
ARC
  8
DETAIL
  6
CONTINUOUS
 62
     5
 10
-200.09932949710171
 20
-153.5289023681928
 30
0.0
 40
0.9899051168999989
 50
127.5540466708252
 51
180.1881213942396
  0
LINE
  8
DETAIL
  6
CONTINUOUS
 62
     5
 10
-83.499999999906777
 20
-49.363448015674983
 30
0.0
 11
-217.92276056299531
 21
-126.97246501197721
 31
0.0
  0
LINE
  8
DETAIL
  6
CONTINUOUS
 62
     5
 10
-84.504464167144306
 20
-47.633974596079717
 30
0.0
 11
-218.9227605629217
 21
-125.24041420421941
 31
0.0
  0
ARC
  8
DETAIL
  6
CONTINUOUS
 62
     5
 10
-218.41688133030991
 20
-126.11483326144
 30
0.0
 40
0.989782590599998
 50
247.3062926783474
 51
299.94820606780797
  0
ARC
  8
DETAIL
  6
CONTINUOUS
 62
     5
 10
-218.42699501609101
 20
-126.0972377802639
 30
0.0
 40
0.9899051168999979
 50
120.05404667081579
 51
172.68812139424119
  0
LINE
  8
DETAIL
  6
CONTINUOUS
 62
     5
 10
-89.228868828959548
 20
-38.042199824471709
 30
0.0
 11
-232.63163351138471
 21
-97.441569837720863
 31
0.0
  0
LINE
  8
DETAIL
  6
CONTINUOUS
 62
     5
 10
-89.998998085995936
 20
-36.196413406760477
 30
0.0
 11
-233.39700037601639
 21
-95.593810772520783
 31
0.0
  0
ARC
  8
DETAIL
  6
CONTINUOUS
 62
     5
 10
-233.00958360031149
 20
-96.5267795434454
 30
0.0
 40
0.9897825905999979
 50
239.8062926783785
 51
292.44820606779541
  0
ARC
  8
DETAIL
  6
CONTINUOUS
 62
     5
 10
-233.01731409095049
 20
-96.508014493155997
 30
0.0
 40
0.9899051168999978
 50
112.5540466708223
 51
165.188121394229
  0
LINE
  8
DETAIL
  6
CONTINUOUS
 62
     5
 10
-93.431006973432432
 20
-26.070039046981719
 30
0.0
 11
-243.36011471271971
 21
-66.243422387634155
 31
0.0
  0
LINE
  8
DETAIL
  6
CONTINUOUS
 62
     5
 10
-93.953624195159591
 20
-24.139521548510629
 30
0.0
 11
-243.87775280280451
 21
-64.311570734892712
 31
0.0
  0
ARC
  8
DETAIL
  6
CONTINUOUS
 62
     5
 10
-243.6154272924509
 20
-65.28712586518327
 30
0.0
 40
0.9897825905999976
 50
232.30629267833751
 51
284.94820606780542
  0
ARC
  8
DETAIL
  6
CONTINUOUS
 62
     5
 10
-243.62064231710929
 20
-65.267512320993092
 30
0.0
 40
0.9899051168999976
 50
105.0540466707924
 51
157.688121394245
  0
LINE
  8
DETAIL
  6
CONTINUOUS
 62
     5
 10
-96.034514684620717
 20
-13.651812673417909
 30
0.0
 11
-249.92463687914869
 21
-33.911831614348777
 31
0.0
  0
LINE
  8
DETAIL
  6
CONTINUOUS
 62
     5
 10
-96.30067774547706
 20
-11.66959578382534
 30
0.0
 11
-250.18568926344821
 21
-31.928941891455221
 31
0.0
  0
ARC
  8
DETAIL
  6
CONTINUOUS
 62
     5
 10
-250.05294348065809
 20
-32.930391362357341
 30
0.0
 40
0.9897825905999971
 50
224.8062926783673
 51
277.44820606777438
  0
ARC
  8
DETAIL
  6
CONTINUOUS
 62
     5
 10
-250.05555380881879
 20
-32.910264917445367
 30
0.0
 40
0.9899051168999971
 50
97.554046670829308
 51
150.18812139423721
  0
LINE
  8
DETAIL
  6
CONTINUOUS
 62
     5
 10
-96.994845223757238
 20
-1.000000000013415
 30
0.0
 11
-252.21287921637619
 21
-1.0000000000056839
 31
0.0
  0
LINE
  8
DETAIL
  6
CONTINUOUS
 62
     5
 10
-96.999999999978627
 20
1.0000000001443821
 30
0.0
 11
-252.212879216218
 21
1.000000000120735
 31
0.0
  0
ARC
  8
DETAIL
  6
CONTINUOUS
 62
     5
 10
-252.21198447813961
 20
-0.0102087332913925
 30
0.0
 40
0.9897825905999966
 50
217.3062926783366
 51
269.94820606779541
  0
ARC
  8
DETAIL
  6
CONTINUOUS
 62
     5
 10
-252.21194544636319
 20
0.0100862432893791
 30
0.0
 40
0.9899051168999966
 50
90.05404667084558
 51
142.688121394273
  0
LINE
  8
DETAIL
  6
CONTINUOUS
 62
     5
 10
-96.295567069063964
 20
11.66892295064349
 30
0.0
 11
-250.18568926359009
 21
31.92894189158983
 31
0.0
  0
ARC
  8
DETAIL
  6
CONTINUOUS
 62
     5
 10
-218.42709006360161
 20
126.09715121669819
 30
0.0
 40
0.9897825905999949
 50
187.30629267834769
 51
239.94820606780601
  0
LINE
  8
DETAIL
  6
CONTINUOUS
 62
     5
 10
-96.039625360999253
 20
13.652485506859421
 30
0.0
 11
-249.9246368789768
 21
33.911831614442463
 31
0.0
  0
ARC
  8
DETAIL
  6
CONTINUOUS
 62
     5
 10
-250.0556084948262
 20
32.910148570031417
 30
0.0
 40
0.9897825905999966
 50
209.80629267831671
 51
262.4482060677912
  0
LINE
  8
DETAIL
  6
CONTINUOUS
 62
     5
 10
-93.435986104878339
 20
26.071373201367582
 30
0.0
 11
-243.36011471253599
 21
66.243422387704186
 31
0.0
  0
ARC
  8
DETAIL
  6
CONTINUOUS
 62
     5
 10
-243.62071172165409
 20
65.267404106903768
 30
0.0
 40
0.9897825905999964
 50
202.3062926783509
 51
254.9482060677727
  0
ARC
  8
DETAIL
  6
CONTINUOUS
 62
     5
 10
-243.6154212933948
 20
65.286997446760097
 30
0.0
 40
0.9899051168999964
 50
75.054046670834424
 51
127.6881213942284
  0
ARC
  8
DETAIL
  6
CONTINUOUS
 62
     5
 10
-250.05292077095831
 20
32.930264825605043
 30
0.0
 40
0.9899051168999966
 50
82.554046670817726
 51
135.1881213942676
  0
LINE
  8
DETAIL
  6
CONTINUOUS
 62
     5
 10
-93.948645063643653
 20
24.13818739437761
 30
0.0
 11
-243.87775280292729
 21
64.311570735045052
 31
0.0
  0
LINE
  8
DETAIL
  6
CONTINUOUS
 62
     5
 10
-89.994235693699466
 20
36.194440759423969
 30
0.0
 11
-233.39700037611831
 21
95.59381077268722
 31
0.0
  0
LINE
  8
DETAIL
  6
CONTINUOUS
 62
     5
 10
-89.233631221154155
 20
38.044172472049688
 30
0.0
 11
-232.63163351119371
 21
97.441569837765883
 31
0.0
  0
ARC
  8
DETAIL
  6
CONTINUOUS
 62
     5
 10
-233.00959441454731
 20
96.526651440625528
 30
0.0
 40
0.9899051168999958
 50
67.55404667079911
 51
120.188121394218
  0
LINE
  8
DETAIL
  6
CONTINUOUS
 62
     5
 10
-83.504464166999696
 20
49.366025403898902
 30
0.0
 11
-217.9227605628007
 21
126.9724650119972
 31
0.0
  0
ARC
  8
DETAIL
  6
CONTINUOUS
 62
     5
 10
-233.01739702650369
 20
96.507916263963807
 30
0.0
 40
0.9897825905999959
 50
194.80629267834561
 51
247.4482060677843
  0
LINE
  8
DETAIL
  6
CONTINUOUS
 62
     5
 10
-84.499999999920419
 20
47.631397208082717
 30
0.0
 11
-218.9227605630017
 21
125.24041420439811
 31
0.0
  0
ARC
  8
DETAIL
  6
CONTINUOUS
 62
     5
 10
-218.41690877280189
 20
126.1147076660984
 30
0.0
 40
0.9899051168999948
 50
60.05404667082253
 51
112.6881213942373
  0
ARC
  8
DETAIL
  6
CONTINUOUS
 62
     5
 10
-200.09943503027941
 20
153.52882895137989
 30
0.0
 40
0.9897825905999946
 50
179.80629267835991
 51
232.44820606778339
  0
ARC
  8
DETAIL
  6
CONTINUOUS
 62
     5
 10
-153.54502721669499
 20
200.08700566414521
 30
0.0
 40
0.9897825905999946
 50
164.80629267832239
 51
217.448206067809
  0
ARC
  8
DETAIL
  6
CONTINUOUS
 62
     5
 10
-153.52890236819391
 20
200.0993294971006
 30
0.0
 40
0.9899051168999945
 50
37.554046670822878
 51
90.188121394239587
  0
LINE
  8
DETAIL
  6
CONTINUOUS
 62
     5
 10
-49.363448015673839
 20
83.499999999906095
 30
0.0
 11
-126.97246501197741
 21
217.9227605629942
 31
0.0
  0
LINE
  8
DETAIL
  6
CONTINUOUS
 62
     5
 10
-47.633974596079042
 20
84.504464167143624
 30
0.0
 11
-125.2404142042201
 21
218.9227605629201
 31
0.0
  0
ARC
  8
DETAIL
  6
CONTINUOUS
 62
     5
 10
-126.11483326144069
 20
218.41688133030831
 30
0.0
 40
0.9897825905999943
 50
157.30629267834951
 51
209.94820606781019
  0
ARC
  8
DETAIL
  6
CONTINUOUS
 62
     5
 10
-126.09723778026409
 20
218.42699501608919
 30
0.0
 40
0.9899051168999943
 50
30.054046670827081
 51
82.688121394213113
  0
LINE
  8
DETAIL
  6
CONTINUOUS
 62
     5
 10
-38.042199824470572
 20
89.228868828958866
 30
0.0
 11
-97.44156983772109
 21
232.63163351138309
 31
0.0
  0
LINE
  8
DETAIL
  6
CONTINUOUS
 62
     5
 10
-36.196413406759802
 20
89.998998085994799
 30
0.0
 11
-95.59381077252101
 21
233.39700037601531
 31
0.0
  0
ARC
  8
DETAIL
  6
CONTINUOUS
 62
     5
 10
-96.526779543446082
 20
233.00958360031041
 30
0.0
 40
0.9897825905999939
 50
149.8062926783478
 51
202.4482060678092
  0
ARC
  8
DETAIL
  6
CONTINUOUS
 62
     5
 10
-96.50801449315577
 20
233.01731409094921
 30
0.0
 40
0.9899051168999938
 50
22.554046670828949
 51
75.18812139425917
  0
LINE
  8
DETAIL
  6
CONTINUOUS
 62
     5
 10
-26.070039046980579
 20
93.431006973431295
 30
0.0
 11
-66.243422387634837
 21
243.36011471271809
 31
0.0
  0
LINE
  8
DETAIL
  6
CONTINUOUS
 62
     5
 10
-24.139521548509489
 20
93.953624195158
 30
0.0
 11
-64.311570734893849
 21
243.87775280280269
 31
0.0
  0
ARC
  8
DETAIL
  6
CONTINUOUS
 62
     5
 10
-65.287125865183498
 20
243.61542729244911
 30
0.0
 40
0.9897825905999937
 50
142.30629267837469
 51
194.94820606780891
  0
ARC
  8
DETAIL
  6
CONTINUOUS
 62
     5
 10
-65.267512320994229
 20
243.62064231710769
 30
0.0
 40
0.9899051168999937
 50
15.05404667081908
 51
67.688121394232311
  0
LINE
  8
DETAIL
  6
CONTINUOUS
 62
     5
 10
-13.651812673416771
 20
96.03451468461958
 30
0.0
 11
-33.911831614349012
 21
249.92463687914781
 31
0.0
  0
LINE
  8
DETAIL
  6
CONTINUOUS
 62
     5
 10
-11.66959578382421
 20
96.300677745476378
 30
0.0
 11
-31.928941891455452
 21
250.1856892634471
 31
0.0
  0
ARC
  8
DETAIL
  6
CONTINUOUS
 62
     5
 10
-32.930391362357568
 20
250.0529434806574
 30
0.0
 40
0.9897825905999935
 50
134.80629267836909
 51
187.4482060678005
  0
ARC
  8
DETAIL
  6
CONTINUOUS
 62
     5
 10
-32.910264917446057
 20
250.0555538088181
 30
0.0
 40
0.9899051168999935
 50
7.5540466708047633
 51
60.188121394224041
  0
LINE
  8
DETAIL
  6
CONTINUOUS
 62
     5
 10
-1.000000000012278
 20
96.994845223756101
 30
0.0
 11
-1.0000000000059119
 21
252.21287921637509
 31
0.0
  0
LINE
  8
DETAIL
  6
CONTINUOUS
 62
     5
 10
1.0000000001459739
 20
96.99999999997749
 30
0.0
 11
1.000000000120508
 21
252.21287921621641
 31
0.0
  0
ARC
  8
DETAIL
  6
CONTINUOUS
 62
     5
 10
-0.0102087332911651
 20
252.21198447813799
 30
0.0
 40
0.9897825905999932
 50
127.3062926783367
 51
179.94820606779541
  0
ARC
  8
DETAIL
  6
CONTINUOUS
 62
     5
 10
0.0100862432896065
 20
252.21194544636231
 30
0.0
 40
0.9899051168999932
 50
0.0540466708195308
 51
52.688121394255447
  0
LINE
  8
DETAIL
  6
CONTINUOUS
 62
     5
 10
11.66892295064417
 20
96.295567069062827
 30
0.0
 11
31.928941891589151
 21
250.18568926358941
 31
0.0
  0
LINE
  8
DETAIL
  6
CONTINUOUS
 62
     5
 10
13.652485506860559
 20
96.039625360998116
 30
0.0
 11
33.91183161444178
 21
249.92463687897569
 31
0.0
  0
ARC
  8
DETAIL
  6
CONTINUOUS
 62
     5
 10
32.910148570030742
 20
250.05560849482529
 30
0.0
 40
0.989782590599993
 50
119.8062926783343
 51
172.44820606781909
  0
ARC
  8
DETAIL
  6
CONTINUOUS
 62
     5
 10
32.930264825604809
 20
250.0529207709576
 30
0.0
 40
0.9899051168999929
 50
352.55404667081791
 51
45.188121394229569
  0
LINE
  8
DETAIL
  6
CONTINUOUS
 62
     5
 10
24.138187394377841
 20
93.948645063642971
 30
0.0
 11
64.311570735043915
 21
243.8777528029261
 31
0.0
  0
LINE
  8
DETAIL
  6
CONTINUOUS
 62
     5
 10
26.071373201367809
 20
93.435986104877657
 30
0.0
 11
66.243422387703049
 21
243.36011471253531
 31
0.0
  0
ARC
  8
DETAIL
  6
CONTINUOUS
 62
     5
 10
65.267404106902632
 20
243.62071172165361
 30
0.0
 40
0.9897825905999925
 50
112.30629267835521
 51
164.94820606780161
  0
ARC
  8
DETAIL
  6
CONTINUOUS
 62
     5
 10
65.28699744675896
 20
243.61542129339429
 30
0.0
 40
0.9899051168999925
 50
345.05404667082928
 51
37.688121394218001
  0
LINE
  8
DETAIL
  6
CONTINUOUS
 62
     5
 10
36.194440759425113
 20
89.994235693698329
 30
0.0
 11
95.593810772687448
 21
233.3970003761178
 31
0.0
  0
LINE
  8
DETAIL
  6
CONTINUOUS
 62
     5
 10
38.044172472051741
 20
89.233631221153018
 30
0.0
 11
97.44156983776611
 21
232.6316335111928
 31
0.0
  0
ARC
  8
DETAIL
  6
CONTINUOUS
 62
     5
 10
96.50791626396358
 20
233.01739702650249
 30
0.0
 40
0.9897825905999916
 50
104.8062926783458
 51
157.44820606778569
  0
ARC
  8
DETAIL
  6
CONTINUOUS
 62
     5
 10
96.526651440625301
 20
233.0095944145462
 30
0.0
 40
0.9899051168999916
 50
337.55404667082689
 51
30.18812139424789
  0
LINE
  8
DETAIL
  6
CONTINUOUS
 62
     5
 10
47.631397208083847
 20
84.499999999918373
 30
0.0
 11
125.24041420439789
 21
218.92276056300011
 31
0.0
  0
LINE
  8
DETAIL
  6
CONTINUOUS
 62
     5
 10
49.366025403900039
 20
83.50446416699765
 30
0.0
 11
126.972465011997
 21
217.9227605627996
 31
0.0
  0
ARC
  8
DETAIL
  6
CONTINUOUS
 62
     5
 10
126.09715121669799
 20
218.42709006359999
 30
0.0
 40
0.989782590599991
 50
97.306292678345926
 51
149.948206067787
  0
ARC
  8
DETAIL
  6
CONTINUOUS
 62
     5
 10
126.1147076660982
 20
218.4169087728003
 30
0.0
 40
0.9899051168999909
 50
330.0540466708203
 51
22.688121394238809
  0
ARC
  8
DETAIL
  6
CONTINUOUS
 62
     5
 10
153.52882895137961
 20
200.09943503027901
 30
0.0
 40
0.9897825905999907
 50
89.80629267838593
 51
142.44820606780519
  0
ARC
  8
DETAIL
  6
CONTINUOUS
 62
     5
 10
153.54490627780109
 20
200.0870492653444
 30
0.0
 40
0.9899051168999907
 50
322.55404667080228
 51
15.1881213942491
  0
ARC
  8
DETAIL
  6
CONTINUOUS
 62
     5
 10
200.0870056641447
 20
153.5450272166938
 30
0.0
 40
0.98978259059999
 50
74.806292678338977
 51
127.4482060678198
  0
ARC
  8
DETAIL
  6
CONTINUOUS
 62
     5
 10
200.0993294971004
 20
153.5289023681928
 30
0.0
 40
0.98990511689999
 50
307.55404667082507
 51
0.1881213942395983
  0
LINE
  8
DETAIL
  6
CONTINUOUS
 62
     5
 10
83.499999999906777
 20
49.363448015672247
 30
0.0
 11
217.922760562994
 21
126.97246501197721
 31
0.0
  0
LINE
  8
DETAIL
  6
CONTINUOUS
 62
     5
 10
84.504464167144306
 20
47.633974596077003
 30
0.0
 11
218.92276056291979
 21
125.24041420421941
 31
0.0
  0
ARC
  8
DETAIL
  6
CONTINUOUS
 62
     5
 10
218.41688133030809
 20
126.11483326144
 30
0.0
 40
0.9897825905999897
 50
67.306292678347376
 51
119.948206067808
  0
ARC
  8
DETAIL
  6
CONTINUOUS
 62
     5
 10
218.42699501608919
 20
126.0972377802639
 30
0.0
 40
0.9899051168999897
 50
300.05404667081541
 51
352.68812139424108
  0
LINE
  8
DETAIL
  6
CONTINUOUS
 62
     5
 10
89.228868828959548
 20
38.04219982446898
 30
0.0
 11
232.63163351138289
 21
97.441569837720863
 31
0.0
  0
LINE
  8
DETAIL
  6
CONTINUOUS
 62
     5
 10
89.998998085995481
 20
36.196413406757763
 30
0.0
 11
233.39700037601509
 21
95.593810772520783
 31
0.0
  0
ARC
  8
DETAIL
  6
CONTINUOUS
 62
     5
 10
233.00958360031021
 20
96.5267795434454
 30
0.0
 40
0.9897825905999896
 50
59.806292678371271
 51
112.44820606779869
  0
ARC
  8
DETAIL
  6
CONTINUOUS
 62
     5
 10
233.01731409094921
 20
96.508014493155997
 30
0.0
 40
0.9899051168999896
 50
292.55404667082229
 51
345.18812139422897
  0
LINE
  8
DETAIL
  6
CONTINUOUS
 62
     5
 10
93.431006973431977
 20
26.070039046978991
 30
0.0
 11
243.36011471271831
 21
66.243422387634155
 31
0.0
  0
LINE
  8
DETAIL
  6
CONTINUOUS
 62
     5
 10
93.953624195158682
 20
24.139521548507449
 30
0.0
 11
243.87775280280309
 21
64.311570734893166
 31
0.0
  0
ARC
  8
DETAIL
  6
CONTINUOUS
 62
     5
 10
243.61542729244911
 20
65.28712586518327
 30
0.0
 40
0.9897825905999897
 50
52.306292678337599
 51
104.9482060678056
  0
ARC
  8
DETAIL
  6
CONTINUOUS
 62
     5
 10
243.62064231710789
 20
65.267512320993546
 30
0.0
 40
0.9899051168999897
 50
285.05404667084952
 51
337.688121394245
  0
LINE
  8
DETAIL
  6
CONTINUOUS
 62
     5
 10
96.034514684619808
 20
13.651812673414719
 30
0.0
 11
249.92463687914781
 21
33.911831614349239
 31
0.0
  0
LINE
  8
DETAIL
  6
CONTINUOUS
 62
     5
 10
96.30067774547615
 20
11.66959578382261
 30
0.0
 11
250.1856892634469
 21
31.928941891455679
 31
0.0
  0
ARC
  8
DETAIL
  6
CONTINUOUS
 62
     5
 10
250.05294348065721
 20
32.930391362357341
 30
0.0
 40
0.9897825905999887
 50
44.806292678358673
 51
97.448206067774436
  0
ARC
  8
DETAIL
  6
CONTINUOUS
 62
     5
 10
250.0555538088179
 20
32.910264917445829
 30
0.0
 40
0.9899051168999887
 50
277.55404667082922
 51
330.18812139423721
  0
LINE
  8
DETAIL
  6
CONTINUOUS
 62
     5
 10
96.994845223756329
 20
1.000000000010687
 30
0.0
 11
252.21287921637531
 21
1.0000000000061391
 31
0.0
  0
LINE
  8
DETAIL
  6
CONTINUOUS
 62
     5
 10
96.999999999977717
 20
-1.000000000147111
 30
0.0
 11
252.21287921621661
 21
-1.0000000001202809
 31
0.0
  0
ARC
  8
DETAIL
  6
CONTINUOUS
 62
     5
 10
252.21198447813819
 20
0.0102087332918472
 30
0.0
 40
0.9897825905999882
 50
37.306292678336668
 51
89.94820606779534
  0
ARC
  8
DETAIL
  6
CONTINUOUS
 62
     5
 10
252.21194544636271
 20
-0.0100862432889244
 30
0.0
 40
0.9899051168999882
 50
270.05404667084548
 51
322.68812139426262
  0
LINE
  8
DETAIL
  6
CONTINUOUS
 62
     5
 10
96.295567069063054
 20
-11.66892295064622
 30
0.0
 11
250.18568926358969
 21
-31.92894189158983
 31
0.0
  0
LINE
  8
DETAIL
  6
CONTINUOUS
 62
     5
 10
96.039625360997888
 20
-13.652485506862149
 30
0.0
 11
249.92463687897589
 21
-33.911831614442008
 31
0.0
  0
ARC
  8
DETAIL
  6
CONTINUOUS
 62
     5
 10
250.05560849482529
 20
-32.910148570031417
 30
0.0
 40
0.989782590599988
 50
29.806292678328429
 51
82.448206067791332
  0
ARC
  8
DETAIL
  6
CONTINUOUS
 62
     5
 10
250.0529207709578
 20
-32.930264825605043
 30
0.0
 40
0.989905116899988
 50
262.55404667081763
 51
315.18812139420248
  0
LINE
  8
DETAIL
  6
CONTINUOUS
 62
     5
 10
93.948645063642743
 20
-24.138187394380338
 30
0.0
 11
243.87775280292641
 21
-64.311570735045052
 31
0.0
  0
LINE
  8
DETAIL
  6
CONTINUOUS
 62
     5
 10
93.435986104877429
 20
-26.07137320137031
 30
0.0
 11
243.36011471253551
 21
-66.243422387704186
 31
0.0
  0
ARC
  8
DETAIL
  6
CONTINUOUS
 62
     5
 10
243.62071172165361
 20
-65.267404106903768
 30
0.0
 40
0.9897825905999877
 50
22.306292678350928
 51
74.948206067826661
  0
ARC
  8
DETAIL
  6
CONTINUOUS
 62
     5
 10
243.61542129339429
 20
-65.286997446759642
 30
0.0
 40
0.9899051168999877
 50
255.05404667083451
 51
307.6881213942284
  0
LINE
  8
DETAIL
  6
CONTINUOUS
 62
     5
 10
89.994235693698101
 20
-36.194440759426698
 30
0.0
 11
233.39700037611831
 21
-95.59381077268722
 31
0.0
  0
LINE
  8
DETAIL
  6
CONTINUOUS
 62
     5
 10
89.233631221152791
 20
-38.044172472052878
 30
0.0
 11
232.63163351119329
 21
-97.441569837765883
 31
0.0
  0
ARC
  8
DETAIL
  6
CONTINUOUS
 62
     5
 10
233.01739702650269
 20
-96.507916263963352
 30
0.0
 40
0.9897825905999876
 50
14.80629267834555
 51
67.448206067784241
  0
ARC
  8
DETAIL
  6
CONTINUOUS
 62
     5
 10
233.0095944145464
 20
-96.526651440625528
 30
0.0
 40
0.9899051168999876
 50
247.55404667085901
 51
300.18812139421789
  0
LINE
  8
DETAIL
  6
CONTINUOUS
 62
     5
 10
84.499999999918145
 20
-47.631397208084991
 30
0.0
 11
218.92276056300079
 21
-125.24041420439769
 31
0.0
  0
LINE
  8
DETAIL
  6
CONTINUOUS
 62
     5
 10
83.504464166997423
 20
-49.366025403901183
 30
0.0
 11
217.92276056280019
 21
-126.9724650119967
 31
0.0
  0
ARC
  8
DETAIL
  6
CONTINUOUS
 62
     5
 10
218.42709006360059
 20
-126.0971512166977
 30
0.0
 40
0.989782590599987
 50
7.3062926783477353
 51
59.948206067806368
  0
ARC
  8
DETAIL
  6
CONTINUOUS
 62
     5
 10
218.41690877280101
 20
-126.114707666098
 30
0.0
 40
0.989905116899987
 50
240.05404667082249
 51
292.68812139423733
  0
ARC
  8
DETAIL
  6
CONTINUOUS
 62
     5
 10
200.09943503027941
 20
-153.52882895137989
 30
0.0
 40
0.9897825905999869
 50
359.80629267835991
 51
52.44820606778385
  0
ARC
  8
DETAIL
  6
CONTINUOUS
 62
     5
 10
200.08704926534531
 20
-153.5449062778018
 30
0.0
 40
0.9899051168999868
 50
232.55404667082189
 51
285.18812139425268
  0
ARC
  8
DETAIL
  6
CONTINUOUS
 62
     5
 10
153.54502721669451
 20
-200.08700566414541
 30
0.0
 40
0.9897825905999861
 50
344.80629267834212
 51
37.448206067809018
  0
ARC
  8
DETAIL
  6
CONTINUOUS
 62
     5
 10
153.52890236819351
 20
-200.09932949710111
 30
0.0
 40
0.9899051168999861
 50
217.55404667082291
 51
270.1881213942396
  0
LINE
  8
DETAIL
  6
CONTINUOUS
 62
     5
 10
49.36344801567202
 20
-83.499999999908368
 30
0.0
 11
126.9724650119779
 21
-217.92276056299471
 31
0.0
  0
LINE
  8
DETAIL
  6
CONTINUOUS
 62
     5
 10
47.633974596076307
 20
-84.504464167145898
 30
0.0
 11
125.2404142042201
 21
-218.9227605629205
 31
0.0
  0
ARC
  8
DETAIL
  6
CONTINUOUS
 62
     5
 10
126.11483326144069
 20
-218.4168813303088
 30
0.0
 40
0.9897825905999855
 50
337.30629267834951
 51
29.948206067810201
  0
ARC
  8
DETAIL
  6
CONTINUOUS
 62
     5
 10
126.097237780265
 20
-218.4269950160899
 30
0.0
 40
0.9899051168999855
 50
210.05404667082709
 51
262.68812139421311
  0
LINE
  8
DETAIL
  6
CONTINUOUS
 62
     5
 10
38.042199824468753
 20
-89.228868828960685
 30
0.0
 11
97.441569837722
 21
-232.6316335113836
 31
0.0
  0
LINE
  8
DETAIL
  6
CONTINUOUS
 62
     5
 10
36.196413406757067
 20
-89.998998085996618
 30
0.0
 11
95.59381077252192
 21
-233.39700037601531
 31
0.0
  0
ARC
  8
DETAIL
  6
CONTINUOUS
 62
     5
 10
96.526779543446537
 20
-233.00958360031041
 30
0.0
 40
0.9897825905999849
 50
329.80629267834792
 51
22.448206067809231
  0
ARC
  8
DETAIL
  6
CONTINUOUS
 62
     5
 10
96.508014493157134
 20
-233.01731409094941
 30
0.0
 40
0.9899051168999848
 50
202.554046670829
 51
255.1881213942593
  0
LINE
  8
DETAIL
  6
CONTINUOUS
 62
     5
 10
26.07003904697876
 20
-93.431006973433114
 30
0.0
 11
66.243422387635746
 21
-243.360114712719
 31
0.0
  0
LINE
  8
DETAIL
  6
CONTINUOUS
 62
     5
 10
24.13952154850676
 20
-93.953624195159364
 30
0.0
 11
64.311570734893849
 21
-243.87775280280329
 31
0.0
  0
ARC
  8
DETAIL
  6
CONTINUOUS
 62
     5
 10
65.287125865184407
 20
-243.61542729244979
 30
0.0
 40
0.9897825905999851
 50
322.30629267837469
 51
14.948206067808959
  0
ARC
  8
DETAIL
  6
CONTINUOUS
 62
     5
 10
65.267512320994229
 20
-243.6206423171086
 30
0.0
 40
0.9899051168999851
 50
195.0540466708191
 51
247.68812139423201
  0
LINE
  8
DETAIL
  6
CONTINUOUS
 62
     5
 10
13.651812673414041
 20
-96.034514684621399
 30
0.0
 11
33.911831614349921
 21
-249.9246368791494
 31
0.0
  0
LINE
  8
DETAIL
  6
CONTINUOUS
 62
     5
 10
11.669595783822389
 20
-96.300677745478197
 30
0.0
 11
31.928941891456361
 21
-250.1856892634485
 31
0.0
  0
ARC
  8
DETAIL
  6
CONTINUOUS
 62
     5
 10
32.930391362358478
 20
-250.0529434806588
 30
0.0
 40
0.9897825905999845
 50
314.80629267836042
 51
7.4482060678004647
  0
ARC
  8
DETAIL
  6
CONTINUOUS
 62
     5
 10
32.910264917446973
 20
-250.0555538088195
 30
0.0
 40
0.9899051168999845
 50
187.55404667082939
 51
240.18812139422411
  0
LINE
  8
DETAIL
  6
CONTINUOUS
 62
     5
 10
1.000000000010459
 20
-96.994845223757466
 30
0.0
 11
1.0000000000077309
 21
-252.21287921637651
 31
0.0
  0
LINE
  8
DETAIL
  6
CONTINUOUS
 62
     5
 10
-1.0000000001477929
 20
-96.999999999978854
 30
0.0
 11
-1.0000000001186891
 21
-252.21287921621769
 31
0.0
  0
ARC
  8
DETAIL
  6
CONTINUOUS
 62
     5
 10
0.0102087332929841
 20
-252.21198447813941
 30
0.0
 40
0.9897825905999841
 50
307.30629267833672
 51
359.94820606779541
  0
ARC
  8
DETAIL
  6
CONTINUOUS
 62
     5
 10
-0.0100862432877875
 20
-252.2119454463639
 30
0.0
 40
0.9899051168999841
 50
180.0540466708195
 51
232.68812139425549
  0
LINE
  8
DETAIL
  6
CONTINUOUS
 62
     5
 10
-11.6689229506469
 20
-96.295567069063736
 30
0.0
 11
-31.928941891589151
 21
-250.1856892635908
 31
0.0
  0
ARC
  8
DETAIL
  6
CONTINUOUS
 62
     5
 10
-32.910148570030742
 20
-250.0556084948264
 30
0.0
 40
0.9897825905999841
 50
299.80629267833427
 51
352.44820606778961
  0
ARC
  8
DETAIL
  6
CONTINUOUS
 62
     5
 10
-65.267404106901722
 20
-243.62071172165571
 30
0.0
 40
0.9897825905999835
 50
292.30629267835519
 51
344.94820606780161
  0
ARC
  8
DETAIL
  6
CONTINUOUS
 62
     5
 10
-0.0000000000004547
 20
-0.0000000000006821
 30
0.0
 40
247.5
 50
247.73149872888931
 51
254.7685012710503
  0
ARC
  8
DETAIL
  6
CONTINUOUS
 62
     5
 10
-0.0000000000004547
 20
-0.0000000000006821
 30
0.0
 40
244.5
 50
247.73433921987171
 51
254.76566078013121
  0
LINE
  8
DETAIL
  6
CONTINUOUS
 62
     5
 10
-13.65248550686238
 20
-96.039625360999025
 30
0.0
 11
-33.911831614440871
 21
-249.924636878977
 31
0.0
  0
LINE
  8
DETAIL
  6
CONTINUOUS
 62
     5
 10
-24.138187394380569
 20
-93.94864506364388
 30
0.0
 11
-64.311570735043006
 21
-243.8777528029284
 31
0.0
  0
ARC
  8
DETAIL
  6
CONTINUOUS
 62
     5
 10
-32.930264825603899
 20
-250.05292077095899
 30
0.0
 40
0.9899051168999841
 50
172.5540466708178
 51
225.18812139423011
  0
LINE
  8
DETAIL
  6
CONTINUOUS
 62
     5
 10
-26.07137320137053
 20
-93.435986104878566
 30
0.0
 11
-66.243422387703049
 21
-243.3601147125371
 31
0.0
  0
LINE
  8
DETAIL
  6
CONTINUOUS
 62
     5
 10
-36.194440759427827
 20
-89.994235693699238
 30
0.0
 11
-95.593810772686538
 21
-233.39700037611991
 31
0.0
  0
LINE
  8
DETAIL
  6
CONTINUOUS
 62
     5
 10
-38.04417247205356
 20
-89.233631221153928
 30
0.0
 11
-97.441569837765655
 21
-232.63163351119491
 31
0.0
  0
ARC
  8
DETAIL
  6
CONTINUOUS
 62
     5
 10
-96.526651440624391
 20
-233.00959441454799
 30
0.0
 40
0.9899051168999831
 50
157.55404667082689
 51
210.1881213942479
  0
ARC
  8
DETAIL
  6
CONTINUOUS
 62
     5
 10
-65.286997446758051
 20
-243.61542129339639
 30
0.0
 40
0.9899051168999835
 50
165.05404667082931
 51
217.68812139420751
  0
ARC
  8
DETAIL
  6
CONTINUOUS
 62
     5
 10
-96.50791626396267
 20
-233.01739702650431
 30
0.0
 40
0.9897825905999831
 50
284.80629267834553
 51
337.44820606778569
  0
ARC
  8
DETAIL
  6
CONTINUOUS
 62
     5
 10
-0.0000000000004547
 20
-0.0000000000006821
 30
0.0
 40
163.5
 50
247.85043508710081
 51
254.64956491284741
  0
ARC
  8
DETAIL
  6
CONTINUOUS
 62
     5
 10
-0.0000000000004547
 20
-0.0000000000006821
 30
0.0
 40
99.999999999899984
 50
248.07296734485041
 51
254.42703265506859
  0
ARC
  8
DETAIL
  6
CONTINUOUS
 62
     5
 10
-0.0000000000004547
 20
-0.0000000000006821
 30
0.0
 40
166.5
 50
247.84412086477101
 51
254.6558791351907
  0
ARC
  8
DETAIL
  6
CONTINUOUS
 62
     5
 10
-0.0000000000013642
 20
-0.0000000000006821
 30
0.0
 40
244.49999999999989
 50
240.2343392198724
 51
247.26566078013909
  0
ARC
  8
DETAIL
  6
CONTINUOUS
 62
     5
 10
-0.0000000000013642
 20
-0.0000000000006821
 30
0.0
 40
163.49999999999989
 50
240.35043508711991
 51
247.14956491286469
  0
ARC
  8
DETAIL
  6
CONTINUOUS
 62
     5
 10
-0.0000000000013642
 20
-0.0000000000006821
 30
0.0
 40
166.49999999999989
 50
240.34412086479091
 51
247.15587913516731
  0
ARC
  8
DETAIL
  6
CONTINUOUS
 62
     5
 10
-0.0000000000004547
 20
-0.0000000000006821
 30
0.0
 40
244.49999999999989
 50
232.73433921984491
 51
239.7656607801373
  0
ARC
  8
DETAIL
  6
CONTINUOUS
 62
     5
 10
-0.0000000000013642
 20
-0.0000000000006821
 30
0.0
 40
99.999999999899941
 50
240.57296734485919
 51
246.92703265508769
  0
ARC
  8
DETAIL
  6
CONTINUOUS
 62
     5
 10
-0.0000000000004547
 20
-0.0000000000006821
 30
0.0
 40
166.49999999999989
 50
232.8441208647925
 51
239.65587913520869
  0
ARC
  8
DETAIL
  6
CONTINUOUS
 62
     5
 10
-0.0000000000004547
 20
-0.0000000000006821
 30
0.0
 40
163.49999999999989
 50
232.85043508708449
 51
239.64956491284431
  0
ARC
  8
DETAIL
  6
CONTINUOUS
 62
     5
 10
-0.0000000000004547
 20
-0.0000000000002274
 30
0.0
 40
166.49999999999989
 50
225.34412086474831
 51
232.1558791351967
  0
ARC
  8
DETAIL
  6
CONTINUOUS
 62
     5
 10
-0.0000000000004547
 20
-0.0000000000006821
 30
0.0
 40
99.999999999899913
 50
210.57296734486351
 51
216.92703265505571
  0
ARC
  8
DETAIL
  6
CONTINUOUS
 62
     5
 10
-0.0000000000004547
 20
-0.0000000000006821
 30
0.0
 40
247.49999999999989
 50
232.73149872887711
 51
239.7685012710302
  0
ARC
  8
DETAIL
  6
CONTINUOUS
 62
     5
 10
-0.0000000000004547
 20
-0.0000000000006821
 30
0.0
 40
99.999999999899927
 50
233.07296734483259
 51
239.4270326550963
  0
ARC
  8
DETAIL
  6
CONTINUOUS
 62
     5
 10
-0.0000000000004547
 20
-0.0000000000002274
 30
0.0
 40
99.999999999899941
 50
225.57296734483521
 51
231.9270326550903
  0
ARC
  8
DETAIL
  6
CONTINUOUS
 62
     5
 10
-0.0000000000013642
 20
-0.0000000000006821
 30
0.0
 40
166.49999999999989
 50
217.84412086476721
 51
224.65587913518709
  0
ARC
  8
DETAIL
  6
CONTINUOUS
 62
     5
 10
-0.0000000000004547
 20
-0.0000000000006821
 30
0.0
 40
166.49999999999989
 50
210.34412086475041
 51
217.15587913518789
  0
ARC
  8
DETAIL
  6
CONTINUOUS
 62
     5
 10
-0.0000000000004547
 20
-0.0000000000006821
 30
0.0
 40
247.4999999999998
 50
195.07940733125159
 51
217.2685012710578
  0
ARC
  8
DETAIL
  6
CONTINUOUS
 62
     5
 10
-0.0000000000004547
 20
-0.0000000000002274
 30
0.0
 40
163.49999999999989
 50
225.3504350871103
 51
232.14956491281379
  0
ARC
  8
DETAIL
  6
CONTINUOUS
 62
     5
 10
-0.0000000000013642
 20
-0.0000000000006821
 30
0.0
 40
99.999999999899913
 50
218.07296734484811
 51
224.42703265503701
  0
ARC
  8
DETAIL
  6
CONTINUOUS
 62
     5
 10
-0.0000000000013642
 20
-0.0000000000006821
 30
0.0
 40
163.49999999999989
 50
217.85043508708529
 51
224.6495649128529
  0
ARC
  8
DETAIL
  6
CONTINUOUS
 62
     5
 10
-0.0000000000004547
 20
-0.0000000000006821
 30
0.0
 40
244.4999999999998
 50
195.07940733125159
 51
217.2656607801274
  0
ARC
  8
DETAIL
  6
CONTINUOUS
 62
     5
 10
-0.0000000000013642
 20
0.0000000000002274
 30
0.0
 40
166.49999999999969
 50
202.84412086479099
 51
209.65587913520909
  0
ARC
  8
DETAIL
  6
CONTINUOUS
 62
     5
 10
-0.0000000000013642
 20
0.0000000000002274
 30
0.0
 40
99.999999999899828
 50
203.07296734483489
 51
209.42703265503661
  0
ARC
  8
DETAIL
  6
CONTINUOUS
 62
     5
 10
-0.0000000000004547
 20
0.0000000000002274
 30
0.0
 40
99.999999999899771
 50
195.57296734485359
 51
201.92703265506699
  0
ARC
  8
DETAIL
  6
CONTINUOUS
 62
     5
 10
-0.0000000000004547
 20
0.0000000000002274
 30
0.0
 40
163.49999999999969
 50
195.35043508710001
 51
202.14956491283991
  0
ARC
  8
DETAIL
  6
CONTINUOUS
 62
     5
 10
-0.0000000000004547
 20
-0.0000000000006821
 30
0.0
 40
163.49999999999989
 50
210.35043508711041
 51
217.14956491285059
  0
ARC
  8
DETAIL
  6
CONTINUOUS
 62
     5
 10
-0.0000000000004547
 20
0.0000000000002274
 30
0.0
 40
166.49999999999969
 50
195.34412086478051
 51
202.15587913521449
  0
ARC
  8
DETAIL
  6
CONTINUOUS
 62
     5
 10
-0.0000000000004547
 20
0.0000000000002274
 30
0.0
 40
247.4999999999996
 50
165.28560198443009
 51
187.2685012710472
  0
ARC
  8
DETAIL
  6
CONTINUOUS
 62
     5
 10
-0.0000000000013642
 20
0.0000000000002274
 30
0.0
 40
163.49999999999969
 50
202.8504350871047
 51
209.64956491286779
  0
ARC
  8
DETAIL
  6
CONTINUOUS
 62
     5
 10
-0.0000000000004547
 20
0.0000000000002274
 30
0.0
 40
247.4999999999996
 50
187.73149872890249
 51
194.76850127106491
  0
ARC
  8
DETAIL
  6
CONTINUOUS
 62
     5
 10
-0.0000000000004547
 20
0.0000000000002274
 30
0.0
 40
99.999999999899813
 50
188.07296734484001
 51
194.4270326550558
  0
ARC
  8
DETAIL
  6
CONTINUOUS
 62
     5
 10
-0.0000000000004547
 20
0.0000000000002274
 30
0.0
 40
166.49999999999969
 50
180.34412086477741
 51
187.155879135188
  0
ARC
  8
DETAIL
  6
CONTINUOUS
 62
     5
 10
-0.0000000000004547
 20
0.0000000000002274
 30
0.0
 40
99.999999999899813
 50
180.57296734484359
 51
186.92703265507441
  0
ARC
  8
DETAIL
  6
CONTINUOUS
 62
     5
 10
-0.0000000000004547
 20
0.0000000000002274
 30
0.0
 40
166.49999999999969
 50
187.844120864768
 51
194.65587913520639
  0
ARC
  8
DETAIL
  6
CONTINUOUS
 62
     5
 10
-0.0000000000004547
 20
0.0000000000002274
 30
0.0
 40
163.49999999999969
 50
187.85043508709151
 51
194.64956491284349
  0
ARC
  8
DETAIL
  6
CONTINUOUS
 62
     5
 10
-0.0000000000004547
 20
0.0000000000002274
 30
0.0
 40
166.49999999999969
 50
172.84412086478781
 51
179.65587913519661
  0
ARC
  8
DETAIL
  6
CONTINUOUS
 62
     5
 10
-0.0000000000004547
 20
0.0000000000002274
 30
0.0
 40
244.4999999999996
 50
187.7343392198616
 51
194.76566078013769
  0
ARC
  8
DETAIL
  6
CONTINUOUS
 62
     5
 10
-0.0000000000004547
 20
0.0000000000002274
 30
0.0
 40
244.4999999999996
 50
165.28560198443009
 51
187.26566078013261
  0
ARC
  8
DETAIL
  6
CONTINUOUS
 62
     5
 10
-0.0000000000004547
 20
0.0000000000002274
 30
0.0
 40
99.999999999899799
 50
173.07296734484521
 51
179.42703265505219
  0
ARC
  8
DETAIL
  6
CONTINUOUS
 62
     5
 10
-0.0000000000004547
 20
0.0000000000002274
 30
0.0
 40
163.49999999999969
 50
180.3504350871107
 51
187.1495649128405
  0
ARC
  8
DETAIL
  6
CONTINUOUS
 62
     5
 10
-0.0000000000004547
 20
0.0000000000002274
 30
0.0
 40
163.49999999999969
 50
172.8504350871037
 51
179.64956491283721
  0
ARC
  8
DETAIL
  6
CONTINUOUS
 62
     5
 10
-0.0000000000004547
 20
0.0000000000006821
 30
0.0
 40
166.4999999999996
 50
165.34412086476831
 51
172.1558791352073
  0
ARC
  8
DETAIL
  6
CONTINUOUS
 62
     5
 10
-0.0000000000004547
 20
0.0000000000006821
 30
0.0
 40
163.4999999999996
 50
165.35043508709879
 51
172.1495649128309
  0
ARC
  8
DETAIL
  6
CONTINUOUS
 62
     5
 10
-0.0000000000004547
 20
0.0000000000006821
 30
0.0
 40
99.999999999899757
 50
165.5729673448368
 51
171.92703265505659
  0
ARC
  8
DETAIL
  6
CONTINUOUS
 62
     5
 10
-0.0000000000004547
 20
0.0000000000002274
 30
0.0
 40
247.49999999999949
 50
157.73149872889081
 51
164.76850127103381
  0
ARC
  8
DETAIL
  6
CONTINUOUS
 62
     5
 10
-0.0000000000004547
 20
0.0000000000002274
 30
0.0
 40
244.49999999999949
 50
157.73433921985421
 51
164.76566078013431
  0
ARC
  8
DETAIL
  6
CONTINUOUS
 62
     5
 10
-0.0000000000004547
 20
0.0000000000002274
 30
0.0
 40
166.4999999999996
 50
157.84412086477249
 51
164.65587913518709
  0
ARC
  8
DETAIL
  6
CONTINUOUS
 62
     5
 10
-0.0000000000004547
 20
0.0000000000002274
 30
0.0
 40
163.4999999999996
 50
157.85043508710021
 51
164.64956491284229
  0
ARC
  8
DETAIL
  6
CONTINUOUS
 62
     5
 10
-0.0000000000004547
 20
0.0000000000002274
 30
0.0
 40
99.999999999899757
 50
158.0729673448628
 51
164.42703265507211
  0
ARC
  8
DETAIL
  6
CONTINUOUS
 62
     5
 10
0.0000000000004547
 20
0.0000000000002274
 30
0.0
 40
247.4999999999994
 50
150.2314987288772
 51
157.268501271057
  0
ARC
  8
DETAIL
  6
CONTINUOUS
 62
     5
 10
0.0000000000004547
 20
0.0000000000002274
 30
0.0
 40
244.4999999999994
 50
150.23433921987299
 51
157.26566078013769
  0
ARC
  8
DETAIL
  6
CONTINUOUS
 62
     5
 10
0.0000000000004547
 20
0.0000000000002274
 30
0.0
 40
166.4999999999996
 50
150.34412086477909
 51
157.15587913519721
  0
ARC
  8
DETAIL
  6
CONTINUOUS
 62
     5
 10
0.0000000000004547
 20
0.0000000000002274
 30
0.0
 40
163.4999999999996
 50
150.35043508712209
 51
157.1495649128384
  0
ARC
  8
DETAIL
  6
CONTINUOUS
 62
     5
 10
0.0000000000004547
 20
0.0000000000002274
 30
0.0
 40
99.999999999899757
 50
150.57296734485999
 51
156.9270326550614
  0
ARC
  8
DETAIL
  6
CONTINUOUS
 62
     5
 10
-0.0000000000004547
 20
0.0000000000002274
 30
0.0
 40
247.4999999999994
 50
142.73149872891551
 51
149.7685012710777
  0
ARC
  8
DETAIL
  6
CONTINUOUS
 62
     5
 10
-0.0000000000004547
 20
0.0000000000002274
 30
0.0
 40
244.4999999999994
 50
142.7343392198726
 51
149.76566078013869
  0
ARC
  8
DETAIL
  6
CONTINUOUS
 62
     5
 10
-0.0000000000004547
 20
0.0000000000002274
 30
0.0
 40
166.4999999999996
 50
142.84412086478471
 51
149.65587913519121
  0
ARC
  8
DETAIL
  6
CONTINUOUS
 62
     5
 10
-0.0000000000004547
 20
0.0000000000002274
 30
0.0
 40
163.4999999999996
 50
142.8504350870752
 51
149.649564912843
  0
ARC
  8
DETAIL
  6
CONTINUOUS
 62
     5
 10
-0.0000000000004547
 20
0.0000000000002274
 30
0.0
 40
99.999999999899728
 50
143.07296734486161
 51
149.42703265506651
  0
ARC
  8
DETAIL
  6
CONTINUOUS
 62
     5
 10
0.0000000000004547
 20
0.0000000000002274
 30
0.0
 40
247.4999999999994
 50
142.07914637835549
 51
142.26850127105291
  0
ARC
  8
DETAIL
  6
CONTINUOUS
 62
     5
 10
0.0000000000004547
 20
0.0000000000002274
 30
0.0
 40
244.4999999999994
 50
142.21365488063569
 51
142.26566078011959
  0
ARC
  8
DETAIL
  6
CONTINUOUS
 62
     5
 10
0.0000000000004547
 20
0.0000000000002274
 30
0.0
 40
166.4999999999996
 50
135.34412086480361
 51
142.15587913523211
  0
ARC
  8
DETAIL
  6
CONTINUOUS
 62
     5
 10
0.0000000000004547
 20
0.0000000000002274
 30
0.0
 40
163.4999999999996
 50
135.35043508707341
 51
142.1495649128417
  0
ARC
  8
DETAIL
  6
CONTINUOUS
 62
     5
 10
0.0000000000004547
 20
0.0000000000002274
 30
0.0
 40
99.999999999899742
 50
135.57296734482429
 51
141.9270326550438
  0
ARC
  8
DETAIL
  6
CONTINUOUS
 62
     5
 10
0.0000000000013642
 20
0.0000000000002274
 30
0.0
 40
166.4999999999996
 50
127.8441208647952
 51
134.65587913518709
  0
ARC
  8
DETAIL
  6
CONTINUOUS
 62
     5
 10
0.0000000000013642
 20
0.0000000000002274
 30
0.0
 40
163.4999999999996
 50
127.8504350871201
 51
134.6495649128166
  0
ARC
  8
DETAIL
  6
CONTINUOUS
 62
     5
 10
0.0000000000013642
 20
0.0000000000002274
 30
0.0
 40
99.999999999899757
 50
128.07296734483589
 51
134.42703265509169
  0
ARC
  8
DETAIL
  6
CONTINUOUS
 62
     5
 10
0.0000000000013642
 20
0.0000000000002274
 30
0.0
 40
247.4999999999994
 50
120.2314987289128
 51
127.2685012710578
  0
ARC
  8
DETAIL
  6
CONTINUOUS
 62
     5
 10
0.0000000000013642
 20
0.0000000000002274
 30
0.0
 40
244.4999999999994
 50
120.2343392198627
 51
127.2656607801551
  0
ARC
  8
DETAIL
  6
CONTINUOUS
 62
     5
 10
0.0000000000013642
 20
0.0000000000002274
 30
0.0
 40
166.4999999999996
 50
120.34412086479171
 51
127.155879135207
  0
ARC
  8
DETAIL
  6
CONTINUOUS
 62
     5
 10
0.0000000000013642
 20
0.0000000000002274
 30
0.0
 40
163.4999999999996
 50
120.3504350870987
 51
127.1495649128529
  0
ARC
  8
DETAIL
  6
CONTINUOUS
 62
     5
 10
0.0000000000013642
 20
-0.0000000000002274
 30
0.0
 40
247.49999999999929
 50
112.7314987288689
 51
119.7685012710286
  0
ARC
  8
DETAIL
  6
CONTINUOUS
 62
     5
 10
0.0000000000013642
 20
0.0000000000002274
 30
0.0
 40
99.999999999899728
 50
120.5729673448463
 51
126.9270326550448
  0
ARC
  8
DETAIL
  6
CONTINUOUS
 62
     5
 10
0.0000000000013642
 20
-0.0000000000002274
 30
0.0
 40
247.49999999999909
 50
105.2314987288956
 51
112.26850127105079
  0
ARC
  8
DETAIL
  6
CONTINUOUS
 62
     5
 10
0.0000000000013642
 20
-0.0000000000002274
 30
0.0
 40
166.4999999999994
 50
105.3441208647552
 51
112.1558791351691
  0
ARC
  8
DETAIL
  6
CONTINUOUS
 62
     5
 10
0.0000000000013642
 20
-0.0000000000002274
 30
0.0
 40
244.49999999999929
 50
112.7343392198608
 51
119.7656607801276
  0
ARC
  8
DETAIL
  6
CONTINUOUS
 62
     5
 10
0.0000000000013642
 20
-0.0000000000002274
 30
0.0
 40
166.49999999999949
 50
112.8441208647729
 51
119.6558791352091
  0
ARC
  8
DETAIL
  6
CONTINUOUS
 62
     5
 10
0.0000000000013642
 20
-0.0000000000002274
 30
0.0
 40
163.49999999999949
 50
112.8504350870754
 51
119.6495649128203
  0
ARC
  8
DETAIL
  6
CONTINUOUS
 62
     5
 10
0.0000000000013642
 20
-0.0000000000002274
 30
0.0
 40
244.49999999999909
 50
105.234339219869
 51
112.2656607801283
  0
ARC
  8
DETAIL
  6
CONTINUOUS
 62
     5
 10
0.0000000000013642
 20
-0.0000000000002274
 30
0.0
 40
99.999999999899686
 50
113.0729673448524
 51
119.4270326550843
  0
ARC
  8
DETAIL
  6
CONTINUOUS
 62
     5
 10
0.0000000000013642
 20
-0.0000000000002274
 30
0.0
 40
99.999999999899643
 50
105.5729673448773
 51
111.9270326550407
  0
ARC
  8
DETAIL
  6
CONTINUOUS
 62
     5
 10
0.0000000000013642
 20
-0.0000000000002274
 30
0.0
 40
163.4999999999994
 50
97.850435087090048
 51
104.649564912842
  0
ARC
  8
DETAIL
  6
CONTINUOUS
 62
     5
 10
0.0000000000013642
 20
-0.0000000000002274
 30
0.0
 40
244.49999999999909
 50
82.597174827752042
 51
104.765660780114
  0
ARC
  8
DETAIL
  6
CONTINUOUS
 62
     5
 10
0.0000000000013642
 20
-0.0000000000002274
 30
0.0
 40
99.9999999998996
 50
98.072967344838275
 51
104.42703265508111
  0
ARC
  8
DETAIL
  6
CONTINUOUS
 62
     5
 10
0.0000000000013642
 20
-0.0000000000002274
 30
0.0
 40
163.4999999999994
 50
105.3504350870985
 51
112.1495649128463
  0
ARC
  8
DETAIL
  6
CONTINUOUS
 62
     5
 10
0.0000000000013642
 20
-0.0000000000002274
 30
0.0
 40
247.49999999999909
 50
82.597174827752042
 51
104.76850127104009
  0
ARC
  8
DETAIL
  6
CONTINUOUS
 62
     5
 10
0.0000000000013642
 20
-0.0000000000002274
 30
0.0
 40
166.4999999999994
 50
97.844120864766325
 51
104.6558791352069
  0
ARC
  8
DETAIL
  6
CONTINUOUS
 62
     5
 10
0.0000000000022737
 20
-0.0000000000006821
 30
0.0
 40
163.4999999999994
 50
90.350435087084691
 51
97.149564912868641
  0
ARC
  8
DETAIL
  6
CONTINUOUS
 62
     5
 10
0.0000000000022737
 20
-0.0000000000006821
 30
0.0
 40
166.4999999999994
 50
90.344120864751361
 51
97.155879135187803
  0
ARC
  8
DETAIL
  6
CONTINUOUS
 62
     5
 10
0.0000000000022737
 20
-0.0000000000006821
 30
0.0
 40
99.999999999899629
 50
90.572967344869653
 51
96.927032655049743
  0
ARC
  8
DETAIL
  6
CONTINUOUS
 62
     5
 10
0.0000000000013642
 20
-0.0000000000006821
 30
0.0
 40
166.4999999999994
 50
82.844120864759688
 51
89.655879135196543
  0
ARC
  8
DETAIL
  6
CONTINUOUS
 62
     5
 10
0.0000000000013642
 20
-0.0000000000006821
 30
0.0
 40
163.4999999999994
 50
82.85043508707885
 51
89.649564912863212
  0
ARC
  8
DETAIL
  6
CONTINUOUS
 62
     5
 10
0.0000000000013642
 20
-0.0000000000006821
 30
0.0
 40
99.9999999998996
 50
83.07296734484521
 51
89.427032655078222
  0
ARC
  8
DETAIL
  6
CONTINUOUS
 62
     5
 10
0.0000000000013642
 20
-0.0000000000011369
 30
0.0
 40
247.49999999999889
 50
75.231498728906217
 51
82.268501271071401
  0
ARC
  8
DETAIL
  6
CONTINUOUS
 62
     5
 10
0.0000000000013642
 20
-0.0000000000011369
 30
0.0
 40
244.49999999999889
 50
75.234339219886024
 51
82.265660780138191
  0
ARC
  8
DETAIL
  6
CONTINUOUS
 62
     5
 10
0.0000000000013642
 20
-0.0000000000011369
 30
0.0
 40
166.49999999999929
 50
75.34412086479314
 51
82.155879135181053
  0
ARC
  8
DETAIL
  6
CONTINUOUS
 62
     5
 10
0.0000000000013642
 20
-0.0000000000011369
 30
0.0
 40
163.49999999999929
 50
75.350435087100962
 51
82.149564912857343
  0
ARC
  8
DETAIL
  6
CONTINUOUS
 62
     5
 10
0.0000000000013642
 20
-0.0000000000011369
 30
0.0
 40
99.999999999899558
 50
75.572967344865191
 51
81.927032655056479
  0
ARC
  8
DETAIL
  6
CONTINUOUS
 62
     5
 10
0.0000000000022737
 20
-0.0000000000015916
 30
0.0
 40
247.49999999999869
 50
67.731498728889619
 51
74.768501271050326
  0
ARC
  8
DETAIL
  6
CONTINUOUS
 62
     5
 10
0.0000000000022737
 20
-0.0000000000015916
 30
0.0
 40
244.49999999999869
 50
67.734339219871714
 51
74.765660780130972
  0
ARC
  8
DETAIL
  6
CONTINUOUS
 62
     5
 10
0.0000000000022737
 20
-0.0000000000015916
 30
0.0
 40
166.49999999999909
 50
67.844120864771313
 51
74.655879135190688
  0
ARC
  8
DETAIL
  6
CONTINUOUS
 62
     5
 10
0.0000000000022737
 20
-0.0000000000015916
 30
0.0
 40
163.49999999999909
 50
67.850435087100522
 51
74.649564912847396
  0
ARC
  8
DETAIL
  6
CONTINUOUS
 62
     5
 10
0.0000000000022737
 20
-0.0000000000015916
 30
0.0
 40
99.999999999899458
 50
68.072967344850412
 51
74.427032655068558
  0
ARC
  8
DETAIL
  6
CONTINUOUS
 62
     5
 10
0.0000000000022737
 20
-0.0000000000020464
 30
0.0
 40
247.49999999999861
 50
60.231498728855037
 51
67.268501271017698
  0
ARC
  8
DETAIL
  6
CONTINUOUS
 62
     5
 10
0.0000000000022737
 20
-0.0000000000020464
 30
0.0
 40
244.49999999999861
 50
60.234339219875231
 51
67.265660780139171
  0
ARC
  8
DETAIL
  6
CONTINUOUS
 62
     5
 10
0.0000000000022737
 20
-0.0000000000020464
 30
0.0
 40
166.49999999999901
 50
60.344120864790867
 51
67.155879135174203
  0
ARC
  8
DETAIL
  6
CONTINUOUS
 62
     5
 10
0.0000000000022737
 20
-0.0000000000020464
 30
0.0
 40
163.49999999999909
 50
60.350435087120282
 51
67.149564912814796
  0
ARC
  8
DETAIL
  6
CONTINUOUS
 62
     5
 10
0.0000000000022737
 20
-0.0000000000020464
 30
0.0
 40
99.999999999899401
 50
60.572967344859173
 51
66.927032655034765
  0
ARC
  8
DETAIL
  6
CONTINUOUS
 62
     5
 10
0.0000000000022737
 20
-0.0000000000025011
 30
0.0
 40
247.49999999999849
 50
52.731498728877092
 51
59.768501271030239
  0
ARC
  8
DETAIL
  6
CONTINUOUS
 62
     5
 10
0.0000000000022737
 20
-0.0000000000025011
 30
0.0
 40
244.49999999999849
 50
52.734339219844941
 51
59.765660780137303
  0
ARC
  8
DETAIL
  6
CONTINUOUS
 62
     5
 10
0.0000000000022737
 20
-0.0000000000025011
 30
0.0
 40
166.49999999999901
 50
52.844120864793013
 51
59.655879135208338
  0
ARC
  8
DETAIL
  6
CONTINUOUS
 62
     5
 10
0.0000000000022737
 20
-0.0000000000025011
 30
0.0
 40
163.49999999999901
 50
52.85043508709272
 51
59.649564912843957
  0
ARC
  8
DETAIL
  6
CONTINUOUS
 62
     5
 10
0.0000000000022737
 20
-0.0000000000025011
 30
0.0
 40
99.999999999899373
 50
53.072967344890053
 51
59.427032655089477
  0
ARC
  8
DETAIL
  6
CONTINUOUS
 62
     5
 10
0.0000000000022737
 20
-0.0000000000034106
 30
0.0
 40
247.49999999999829
 50
52.079146510531437
 51
52.268501271015083
  0
ARC
  8
DETAIL
  6
CONTINUOUS
 62
     5
 10
0.0000000000022737
 20
-0.0000000000034106
 30
0.0
 40
166.49999999999889
 50
45.344120864748938
 51
52.155879135196663
  0
ARC
  8
DETAIL
  6
CONTINUOUS
 62
     5
 10
0.0000000000022737
 20
-0.0000000000034106
 30
0.0
 40
163.49999999999889
 50
45.350435087109723
 51
52.14956491282188
  0
ARC
  8
DETAIL
  6
CONTINUOUS
 62
     5
 10
0.0000000000022737
 20
-0.0000000000034106
 30
0.0
 40
99.999999999899302
 50
45.572967344834623
 51
51.927032655032328
  0
ARC
  8
DETAIL
  6
CONTINUOUS
 62
     5
 10
0.0000000000022737
 20
-0.0000000000034106
 30
0.0
 40
166.49999999999889
 50
37.844120864767852
 51
44.655879135187149
  0
ARC
  8
DETAIL
  6
CONTINUOUS
 62
     5
 10
0.0000000000022737
 20
-0.0000000000034106
 30
0.0
 40
163.49999999999889
 50
37.850435087085287
 51
44.649564912852277
  0
ARC
  8
DETAIL
  6
CONTINUOUS
 62
     5
 10
0.0000000000013642
 20
-0.0000000000034106
 30
0.0
 40
99.999999999899302
 50
30.572967344863461
 51
36.927032655055733
  0
ARC
  8
DETAIL
  6
CONTINUOUS
 62
     5
 10
0.0000000000022737
 20
-0.0000000000034106
 30
0.0
 40
99.999999999899302
 50
38.072967344848117
 51
44.427032655037003
  0
ARC
  8
DETAIL
  6
CONTINUOUS
 62
     5
 10
0.0000000000013642
 20
-0.0000000000034106
 30
0.0
 40
244.49999999999841
 50
30.234339219861301
 51
37.265660780127376
  0
ARC
  8
DETAIL
  6
CONTINUOUS
 62
     5
 10
0.0000000000004547
 20
-0.0000000000043201
 30
0.0
 40
247.4999999999981
 50
0.0912523289116756
 51
22.268501271050809
  0
ARC
  8
DETAIL
  6
CONTINUOUS
 62
     5
 10
0.0000000000013642
 20
-0.0000000000034106
 30
0.0
 40
247.49999999999829
 50
30.231498728875639
 51
37.268501271057779
  0
ARC
  8
DETAIL
  6
CONTINUOUS
 62
     5
 10
0.0000000000013642
 20
-0.0000000000034106
 30
0.0
 40
166.49999999999889
 50
30.344120864750462
 51
37.155879135187938
  0
ARC
  8
DETAIL
  6
CONTINUOUS
 62
     5
 10
0.0000000000013642
 20
-0.0000000000043201
 30
0.0
 40
244.49999999999829
 50
22.734339219862331
 51
29.765660780126989
  0
ARC
  8
DETAIL
  6
CONTINUOUS
 62
     5
 10
0.0000000000013642
 20
-0.0000000000034106
 30
0.0
 40
163.49999999999889
 50
30.350435087110391
 51
37.1495649128506
  0
ARC
  8
DETAIL
  6
CONTINUOUS
 62
     5
 10
0.0000000000004547
 20
-0.0000000000043201
 30
0.0
 40
166.49999999999869
 50
15.34412086478047
 51
22.155879135193921
  0
ARC
  8
DETAIL
  6
CONTINUOUS
 62
     5
 10
0.0000000000013642
 20
-0.0000000000043201
 30
0.0
 40
166.49999999999889
 50
22.844120864769248
 51
29.65587913520914
  0
ARC
  8
DETAIL
  6
CONTINUOUS
 62
     5
 10
0.0000000000013642
 20
-0.0000000000043201
 30
0.0
 40
247.49999999999829
 50
22.731498728896121
 51
29.76850127106437
  0
ARC
  8
DETAIL
  6
CONTINUOUS
 62
     5
 10
0.0000000000013642
 20
-0.0000000000043201
 30
0.0
 40
99.999999999899302
 50
23.0729673448349
 51
29.42703265505984
  0
ARC
  8
DETAIL
  6
CONTINUOUS
 62
     5
 10
0.0000000000013642
 20
-0.0000000000043201
 30
0.0
 40
163.49999999999889
 50
22.850435087104721
 51
29.649564912856089
  0
ARC
  8
DETAIL
  6
CONTINUOUS
 62
     5
 10
0.0000000000004547
 20
-0.0000000000043201
 30
0.0
 40
99.999999999899217
 50
15.572967344853611
 51
21.92703265506703
  0
ARC
  8
DETAIL
  6
CONTINUOUS
 62
     5
 10
0.0000000000004547
 20
-0.0000000000043201
 30
0.0
 40
244.4999999999981
 50
0.0912523289116756
 51
22.265660780145829
  0
ARC
  8
DETAIL
  6
CONTINUOUS
 62
     5
 10
0.0000000000004547
 20
-0.0000000000043201
 30
0.0
 40
163.49999999999869
 50
15.35043508710004
 51
22.14956491284142
  0
ARC
  8
DETAIL
  6
CONTINUOUS
 62
     5
 10
0.0000000000004547
 20
-0.0000000000052296
 30
0.0
 40
166.49999999999869
 50
7.8441208647680414
 51
14.65587913520646
  0
ARC
  8
DETAIL
  6
CONTINUOUS
 62
     5
 10
0.0000000000004547
 20
-0.0000000000052296
 30
0.0
 40
163.49999999999869
 50
7.8504350870915429
 51
14.649564912843561
  0
ARC
  8
DETAIL
  6
CONTINUOUS
 62
     5
 10
0.0000000000004547
 20
-0.0000000000052296
 30
0.0
 40
99.999999999899188
 50
8.0729673448399986
 51
14.427032655055831
  0
ARC
  8
DETAIL
  6
CONTINUOUS
 62
     5
 10
-0.0000000000004547
 20
-0.0000000000052296
 30
0.0
 40
166.49999999999861
 50
0.3441208647773988
 51
7.1558791351880036
  0
ARC
  8
DETAIL
  6
CONTINUOUS
 62
     5
 10
-0.0000000000004547
 20
-0.0000000000052296
 30
0.0
 40
163.49999999999869
 50
0.3504350871107301
 51
7.1495649128405532
  0
ARC
  8
DETAIL
  6
CONTINUOUS
 62
     5
 10
-0.0000000000004547
 20
-0.0000000000052296
 30
0.0
 40
99.99999999989916
 50
0.5729673448436193
 51
6.9270326550743908
  0
ARC
  8
DETAIL
  6
CONTINUOUS
 62
     5
 10
-0.0000000000013642
 20
-0.0000000000052296
 30
0.0
 40
247.4999999999979
 50
352.73149872889712
 51
359.76850127105553
  0
ARC
  8
DETAIL
  6
CONTINUOUS
 62
     5
 10
-0.0000000000013642
 20
-0.0000000000052296
 30
0.0
 40
244.49999999999801
 50
352.73433921986742
 51
359.76566078013059
  0
ARC
  8
DETAIL
  6
CONTINUOUS
 62
     5
 10
-0.0000000000013642
 20
-0.0000000000052296
 30
0.0
 40
166.49999999999861
 50
352.84412086478778
 51
359.65587913519659
  0
ARC
  8
DETAIL
  6
CONTINUOUS
 62
     5
 10
-0.0000000000013642
 20
-0.0000000000052296
 30
0.0
 40
163.49999999999861
 50
352.85043508710368
 51
359.64956491283709
  0
ARC
  8
DETAIL
  6
CONTINUOUS
 62
     5
 10
-0.0000000000013642
 20
-0.0000000000052296
 30
0.0
 40
99.999999999899146
 50
353.07296734484362
 51
359.42703265507822
  0
ARC
  8
DETAIL
  6
CONTINUOUS
 62
     5
 10
-0.0000000000013642
 20
-0.0000000000056843
 30
0.0
 40
247.49999999999781
 50
345.2314987289098
 51
352.26850127104672
  0
ARC
  8
DETAIL
  6
CONTINUOUS
 62
     5
 10
-0.0000000000013642
 20
-0.0000000000056843
 30
0.0
 40
244.49999999999781
 50
345.23433921986231
 51
352.26566078013838
  0
ARC
  8
DETAIL
  6
CONTINUOUS
 62
     5
 10
-0.0000000000013642
 20
-0.0000000000056843
 30
0.0
 40
166.49999999999849
 50
345.34412086476817
 51
352.15587913520727
  0
ARC
  8
DETAIL
  6
CONTINUOUS
 62
     5
 10
-0.0000000000013642
 20
-0.0000000000056843
 30
0.0
 40
163.49999999999849
 50
345.35043508709879
 51
352.14956491283078
  0
ARC
  8
DETAIL
  6
CONTINUOUS
 62
     5
 10
-0.0000000000013642
 20
-0.0000000000056843
 30
0.0
 40
99.999999999899075
 50
345.57296734483668
 51
351.92703265505662
  0
ARC
  8
DETAIL
  6
CONTINUOUS
 62
     5
 10
-0.0000000000022737
 20
-0.0000000000056843
 30
0.0
 40
247.4999999999975
 50
337.73149872889081
 51
344.76850127105348
  0
ARC
  8
DETAIL
  6
CONTINUOUS
 62
     5
 10
-0.0000000000022737
 20
-0.0000000000056843
 30
0.0
 40
244.4999999999975
 50
337.73433921985418
 51
344.76566078013428
  0
ARC
  8
DETAIL
  6
CONTINUOUS
 62
     5
 10
-0.0000000000022737
 20
-0.0000000000056843
 30
0.0
 40
166.49999999999829
 50
337.84412086477249
 51
344.65587913518709
  0
ARC
  8
DETAIL
  6
CONTINUOUS
 62
     5
 10
-0.0000000000022737
 20
-0.0000000000056843
 30
0.0
 40
163.49999999999841
 50
337.85043508710021
 51
344.64956491284232
  0
ARC
  8
DETAIL
  6
CONTINUOUS
 62
     5
 10
-0.0000000000022737
 20
-0.0000000000056843
 30
0.0
 40
99.999999999898975
 50
338.07296734486278
 51
344.42703265507208
  0
ARC
  8
DETAIL
  6
CONTINUOUS
 62
     5
 10
-0.0000000000031832
 20
-0.0000000000056843
 30
0.0
 40
247.49999999999741
 50
330.23149872887728
 51
337.2685012710586
  0
ARC
  8
DETAIL
  6
CONTINUOUS
 62
     5
 10
-0.0000000000031832
 20
-0.0000000000056843
 30
0.0
 40
244.49999999999741
 50
330.23433921987299
 51
337.26566078013769
  0
ARC
  8
DETAIL
  6
CONTINUOUS
 62
     5
 10
-0.0000000000031832
 20
-0.0000000000056843
 30
0.0
 40
166.49999999999821
 50
330.34412086477909
 51
337.15587913519721
  0
ARC
  8
DETAIL
  6
CONTINUOUS
 62
     5
 10
-0.0000000000031832
 20
-0.0000000000056843
 30
0.0
 40
163.49999999999829
 50
330.35043508711908
 51
337.14956491283829
  0
ARC
  8
DETAIL
  6
CONTINUOUS
 62
     5
 10
-0.0000000000031832
 20
-0.0000000000056843
 30
0.0
 40
99.999999999898918
 50
330.57296734485988
 51
336.9270326550614
  0
ARC
  8
DETAIL
  6
CONTINUOUS
 62
     5
 10
-0.0000000000040927
 20
-0.0000000000056843
 30
0.0
 40
247.4999999999973
 50
322.73149872891548
 51
329.76850127106599
  0
ARC
  8
DETAIL
  6
CONTINUOUS
 62
     5
 10
-0.0000000000040927
 20
-0.0000000000056843
 30
0.0
 40
244.4999999999973
 50
322.7343392198726
 51
329.76566078013872
  0
ARC
  8
DETAIL
  6
CONTINUOUS
 62
     5
 10
-0.0000000000040927
 20
-0.0000000000056843
 30
0.0
 40
166.49999999999821
 50
322.84412086475407
 51
329.65587913519119
  0
ARC
  8
DETAIL
  6
CONTINUOUS
 62
     5
 10
-0.0000000000040927
 20
-0.0000000000056843
 30
0.0
 40
163.49999999999821
 50
322.85043508712857
 51
329.649564912843
  0
ARC
  8
DETAIL
  6
CONTINUOUS
 62
     5
 10
-0.0000000000040927
 20
-0.0000000000056843
 30
0.0
 40
99.99999999989889
 50
323.07296734486152
 51
329.42703265506651
  0
ARC
  8
DETAIL
  6
CONTINUOUS
 62
     5
 10
-0.0000000000050022
 20
-0.0000000000056843
 30
0.0
 40
244.49999999999719
 50
322.21365477436422
 51
322.26566078012291
  0
ARC
  8
DETAIL
  6
CONTINUOUS
 62
     5
 10
-0.0000000000050022
 20
-0.0000000000056843
 30
0.0
 40
166.4999999999981
 50
315.34412086480359
 51
322.15587913520608
  0
ARC
  8
DETAIL
  6
CONTINUOUS
 62
     5
 10
-0.0000000000050022
 20
-0.0000000000056843
 30
0.0
 40
99.999999999898819
 50
315.57296734488932
 51
321.92703265505207
  0
ARC
  8
DETAIL
  6
CONTINUOUS
 62
     5
 10
-0.0000000000050022
 20
-0.0000000000047748
 30
0.0
 40
166.4999999999981
 50
307.84412086479517
 51
314.65587913518709
  0
ARC
  8
DETAIL
  6
CONTINUOUS
 62
     5
 10
-0.0000000000050022
 20
-0.0000000000047748
 30
0.0
 40
163.4999999999981
 50
307.85043508705502
 51
314.64956491288052
  0
ARC
  8
DETAIL
  6
CONTINUOUS
 62
     5
 10
-0.0000000000068212
 20
-0.0000000000034106
 30
0.0
 40
244.4999999999971
 50
277.58532983007848
 51
299.76566078012479
  0
ARC
  8
DETAIL
  6
CONTINUOUS
 62
     5
 10
-0.0000000000050022
 20
-0.0000000000056843
 30
0.0
 40
163.4999999999981
 50
315.35043508713801
 51
322.14956491284181
  0
ARC
  8
DETAIL
  6
CONTINUOUS
 62
     5
 10
-0.0000000000050022
 20
-0.0000000000047748
 30
0.0
 40
99.999999999898819
 50
308.07296734483538
 51
314.42703265509232
  0
ARC
  8
DETAIL
  6
CONTINUOUS
 62
     5
 10
-0.0000000000059117
 20
-0.0000000000038654
 30
0.0
 40
166.4999999999981
 50
300.34412086479131
 51
307.1558791352075
  0
ARC
  8
DETAIL
  6
CONTINUOUS
 62
     5
 10
-0.0000000000059117
 20
-0.0000000000038654
 30
0.0
 40
163.4999999999981
 50
300.35043508709867
 51
307.14956491285278
  0
ARC
  8
DETAIL
  6
CONTINUOUS
 62
     5
 10
-0.0000000000059117
 20
-0.0000000000038654
 30
0.0
 40
244.49999999999719
 50
300.2343392198627
 51
307.26566078015509
  0
ARC
  8
DETAIL
  6
CONTINUOUS
 62
     5
 10
-0.0000000000068212
 20
-0.0000000000034106
 30
0.0
 40
247.4999999999971
 50
277.58532983007848
 51
299.76850127102858
  0
ARC
  8
DETAIL
  6
CONTINUOUS
 62
     5
 10
-0.0000000000068212
 20
-0.0000000000029559
 30
0.0
 40
166.4999999999979
 50
285.34412086475521
 51
292.15587913516907
  0
ARC
  8
DETAIL
  6
CONTINUOUS
 62
     5
 10
-0.0000000000059117
 20
-0.0000000000038654
 30
0.0
 40
247.4999999999971
 50
300.23149872885301
 51
307.26850127105769
  0
ARC
  8
DETAIL
  6
CONTINUOUS
 62
     5
 10
-0.0000000000068212
 20
-0.0000000000029559
 30
0.0
 40
99.999999999898733
 50
285.57296734487733
 51
291.92703265509329
  0
ARC
  8
DETAIL
  6
CONTINUOUS
 62
     5
 10
-0.0000000000068212
 20
-0.0000000000034106
 30
0.0
 40
99.99999999989879
 50
293.07296734485237
 51
299.42703265508459
  0
ARC
  8
DETAIL
  6
CONTINUOUS
 62
     5
 10
-0.0000000000068212
 20
-0.0000000000034106
 30
0.0
 40
166.49999999999801
 50
292.84412086477289
 51
299.65587913520909
  0
ARC
  8
DETAIL
  6
CONTINUOUS
 62
     5
 10
-0.0000000000059117
 20
-0.0000000000038654
 30
0.0
 40
99.999999999898819
 50
300.57296734484578
 51
306.92703265510232
  0
ARC
  8
DETAIL
  6
CONTINUOUS
 62
     5
 10
-0.0000000000068212
 20
-0.0000000000034106
 30
0.0
 40
163.4999999999981
 50
292.85043508713528
 51
299.64956491282038
  0
ARC
  8
DETAIL
  6
CONTINUOUS
 62
     5
 10
-0.0000000000068212
 20
-0.0000000000029559
 30
0.0
 40
163.49999999999801
 50
285.35043508709839
 51
292.14956491284659
  0
ARC
  8
DETAIL
  6
CONTINUOUS
 62
     5
 10
-0.0000000000068212
 20
-0.0000000000020464
 30
0.0
 40
166.4999999999979
 50
277.84412086476618
 51
284.65587913520687
  0
ARC
  8
DETAIL
  6
CONTINUOUS
 62
     5
 10
-0.0000000000068212
 20
-0.0000000000020464
 30
0.0
 40
163.49999999999801
 50
277.85043508709009
 51
284.64956491284192
  0
ARC
  8
DETAIL
  6
CONTINUOUS
 62
     5
 10
-0.0000000000068212
 20
-0.0000000000020464
 30
0.0
 40
99.999999999898733
 50
278.07296734483839
 51
284.42703265508112
  0
ARC
  8
DETAIL
  6
CONTINUOUS
 62
     5
 10
-0.0000000000077307
 20
-0.0000000000011369
 30
0.0
 40
247.49999999999679
 50
270.23149872889229
 51
277.26850127107508
  0
ARC
  8
DETAIL
  6
CONTINUOUS
 62
     5
 10
-0.0000000000077307
 20
-0.0000000000011369
 30
0.0
 40
244.49999999999679
 50
270.23433921986941
 51
277.26566078013121
  0
ARC
  8
DETAIL
  6
CONTINUOUS
 62
     5
 10
-0.0000000000077307
 20
-0.0000000000011369
 30
0.0
 40
166.49999999999781
 50
270.34412086475129
 51
277.15587913518777
  0
ARC
  8
DETAIL
  6
CONTINUOUS
 62
     5
 10
-0.0000000000077307
 20
-0.0000000000011369
 30
0.0
 40
163.4999999999979
 50
270.35043508708469
 51
277.14956491286858
  0
ARC
  8
DETAIL
  6
CONTINUOUS
 62
     5
 10
-0.0000000000077307
 20
-0.0000000000011369
 30
0.0
 40
99.999999999898691
 50
270.57296734486971
 51
276.92703265504969
  0
ARC
  8
DETAIL
  6
CONTINUOUS
 62
     5
 10
-0.0000000000077307
 20
0.0000000000002274
 30
0.0
 40
247.4999999999967
 50
262.7314987288724
 51
269.76850127105553
  0
ARC
  8
DETAIL
  6
CONTINUOUS
 62
     5
 10
-0.0000000000077307
 20
0.0000000000002274
 30
0.0
 40
244.49999999999679
 50
262.73433921986879
 51
269.76566078013059
  0
ARC
  8
DETAIL
  6
CONTINUOUS
 62
     5
 10
-0.0000000000077307
 20
0.0000000000002274
 30
0.0
 40
166.49999999999781
 50
262.8441208647597
 51
269.65587913519653
  0
ARC
  8
DETAIL
  6
CONTINUOUS
 62
     5
 10
-0.0000000000077307
 20
0.0000000000002274
 30
0.0
 40
163.49999999999781
 50
262.85043508707878
 51
269.64956491286318
  0
ARC
  8
DETAIL
  6
CONTINUOUS
 62
     5
 10
-0.0000000000077307
 20
0.0000000000002274
 30
0.0
 40
99.999999999898662
 50
263.07296734484532
 51
269.42703265507822
  0
ARC
  8
DETAIL
  6
CONTINUOUS
 62
     5
 10
-0.0000000000077307
 20
0.0000000000011369
 30
0.0
 40
247.49999999999659
 50
255.23149872890619
 51
262.26850127107127
  0
ARC
  8
DETAIL
  6
CONTINUOUS
 62
     5
 10
-0.0000000000077307
 20
0.0000000000011369
 30
0.0
 40
244.4999999999967
 50
255.23433921988601
 51
262.26566078013821
  0
ARC
  8
DETAIL
  6
CONTINUOUS
 62
     5
 10
-0.0000000000077307
 20
0.0000000000011369
 30
0.0
 40
166.49999999999781
 50
255.3441208647931
 51
262.15587913518112
  0
ARC
  8
DETAIL
  6
CONTINUOUS
 62
     5
 10
-0.0000000000077307
 20
0.0000000000011369
 30
0.0
 40
163.49999999999781
 50
255.35043508710069
 51
262.14956491285727
  0
ARC
  8
DETAIL
  6
CONTINUOUS
 62
     5
 10
-0.0000000000077307
 20
0.0000000000011369
 30
0.0
 40
99.999999999898634
 50
255.57296734486519
 51
261.92703265505639
  0
ARC
  8
DETAIL
  6
CONTINUOUS
 62
     5
 10
-2.2969307128446421
 20
-2.014353267183878
 30
0.0
 40
247.49999999999829
 50
52.079146510531437
 51
52.130522519197619
  0
ARC
  8
DETAIL
  6
CONTINUOUS
 62
     5
 10
2.0143545207624811
 20
-2.2969290986363831
 30
0.0
 40
244.49999999999719
 50
322.21365477436422
 51
322.40533069957968
  0
LINE
  8
DETAIL
  6
CONTINUOUS
 62
     5
 10
-142.4906457672009
 20
191.2958826653996
 30
0.0
 11
-140.51260832190059
 21
189.0403632428995
 31
0.0
  0
LINE
  8
DETAIL
  6
CONTINUOUS
 62
     5
 10
-155.6094087839997
 20
161.7371297216998
 30
0.0
 11
-153.35388936179919
 21
159.75909227639951
 31
0.0
  0
LINE
  8
DETAIL
  6
CONTINUOUS
 62
     5
 10
-171.0605584515001
 20
166.2407416916997
 30
0.0
 11
-169.08252100620169
 21
163.98522226919911
 31
0.0
  0
LINE
  8
DETAIL
  6
CONTINUOUS
 62
     5
 10
-180.66454975799979
 20
133.16721703739969
 30
0.0
 11
-178.409030335501
 21
131.18917959209941
 31
0.0
  0
LINE
  8
DETAIL
  6
CONTINUOUS
 62
     5
 10
-140.51260832195891
 20
189.0403632429645
 30
0.0
 11
-169.08252100620169
 21
163.98522226919911
 31
0.0
  0
LINE
  8
DETAIL
  6
CONTINUOUS
 62
     5
 10
-142.4906457672009
 20
191.2958826653996
 30
0.0
 11
-171.0605584515001
 21
166.2407416916997
 31
0.0
  0
LINE
  8
DETAIL
  6
CONTINUOUS
 62
     5
 10
-153.3538893616801
 20
159.75909227629589
 30
0.0
 11
-178.409030335501
 21
131.18917959209941
 31
0.0
  0
LINE
  8
DETAIL
  6
CONTINUOUS
 62
     5
 10
-155.6094087839997
 20
161.7371297216998
 30
0.0
 11
-180.66454975786061
 21
133.16721703727831
 31
0.0
  0
ARC
  8
DETAIL
  6
CONTINUOUS
 62
     5
 10
-169.35458515611523
 20
169.33520722798568
 30
0.0
 40
1.0137022732575476
 50
44.992345648505648
 51
71.381637193270194
  0
ARC
  8
DETAIL
  6
CONTINUOUS
 62
     5
 10
-169.35251139808872
 20
169.34123938221438
 30
0.0
 40
1.0073237314269121
 50
71.383877456943594
 51
89.774982267072801
  0
ARC
  8
DETAIL
  6
CONTINUOUS
 62
     5
 10
-169.35248476512919
 20
169.34830259500978
 30
0.0
 40
1.0002604685070731
 50
89.774918883946498
 51
108.25287633964774
  0
ARC
  8
DETAIL
  6
CONTINUOUS
 62
     5
 10
-169.35451333996056
 20
169.35432018662351
 30
0.0
 40
0.9939102895669234
 50
108.25047102211892
 51
134.99212659369948
  0
ARC
  8
DETAIL
  6
CONTINUOUS
 62
     5
 10
-169.35432018662419
 20
169.35451333995988
 30
0.0
 40
0.9939102895669234
 50
135.00787340630052
 51
161.74952897788103
  0
ARC
  8
DETAIL
  6
CONTINUOUS
 62
     5
 10
-169.34830259501047
 20
169.35248476512851
 30
0.0
 40
1.0002604685070733
 50
161.74712366035226
 51
180.2250811160535
  0
ARC
  8
DETAIL
  6
CONTINUOUS
 62
     5
 10
-169.34123938221506
 20
169.35251139808804
 30
0.0
 40
1.0073237314269123
 50
180.2250177329272
 51
198.61612254305646
  0
ARC
  8
DETAIL
  6
CONTINUOUS
 62
     5
 10
-169.33520722798636
 20
169.35458515611455
 30
0.0
 40
1.013702273257548
 50
198.61836280672981
 51
225.00765435149435
  0
LINE
  8
DETAIL
  6
CONTINUOUS
 62
     5
 10
-77.55994587831583
 20
58.253367244592248
 30
0.0
 11
-176.0770990219994
 21
133.84823763060399
 31
0.0
  0
LINE
  8
DETAIL
  6
CONTINUOUS
 62
     5
 10
-178.46226586807691
 20
135.67844052243319
 30
0.0
 11
-200.70269161979419
 21
152.7441194258688
 31
0.0
  0
LINE
  8
DETAIL
  6
CONTINUOUS
 62
     5
 10
-76.346512579135833
 20
59.843211954238313
 30
0.0
 11
-174.75557791357599
 21
135.35514364711409
 31
0.0
  0
LINE
  8
DETAIL
  6
CONTINUOUS
 62
     5
 10
-177.14074475965981
 20
137.18534653894559
 30
0.0
 11
-199.48516876157419
 21
154.33082610645471
 31
0.0
  0
LINE
  8
DETAIL
  6
CONTINUOUS
 62
     5
 10
-69.292819579054139
 20
67.878606016661934
 30
0.0
 11
-157.00734178352971
 21
155.5931282213667
 31
0.0
  0
LINE
  8
DETAIL
  6
CONTINUOUS
 62
     5
 10
-159.1332137821951
 20
157.71900022003749
 30
0.0
 11
-167.12027734066439
 21
165.70606377852781
 31
0.0
  0
LINE
  8
DETAIL
  6
CONTINUOUS
 62
     5
 10
-169.24614933938531
 20
167.83193577725299
 30
0.0
 11
-170.05190721376081
 21
168.63769365163239
 31
0.0
  0
LINE
  8
DETAIL
  6
CONTINUOUS
 62
     5
 10
-67.882250993790421
 20
69.296464556368164
 30
0.0
 11
-155.68582067538091
 21
157.10003423756581
 31
0.0
  0
LINE
  8
DETAIL
  6
CONTINUOUS
 62
     5
 10
-157.81169267405721
 20
159.22590623623341
 30
0.0
 11
-165.61337132450029
 21
167.02758488664091
 31
0.0
  0
LINE
  8
DETAIL
  6
CONTINUOUS
 62
     5
 10
-167.73924332322579
 20
169.15345688535601
 30
0.0
 11
-168.6376936516331
 21
170.05190721376019
 31
0.0
  0
LINE
  8
DETAIL
  6
CONTINUOUS
 62
     5
 10
-59.840073925196073
 20
76.342423020282013
 30
0.0
 11
-143.98175800393031
 21
185.99800062528581
 31
0.0
  0
LINE
  8
DETAIL
  6
CONTINUOUS
 62
     5
 10
-145.8119608958182
 20
188.38316747144219
 30
0.0
 11
-154.3308261064617
 21
199.48516876176879
 31
0.0
  0
LINE
  8
DETAIL
  6
CONTINUOUS
 62
     5
 10
-58.256505273426683
 20
77.564035437328812
 30
0.0
 11
-142.47485198741791
 21
187.3195217337047
 31
0.0
  0
LINE
  8
DETAIL
  6
CONTINUOUS
 62
     5
 10
-144.30505487930489
 20
189.70468857985719
 30
0.0
 11
-152.7441194256821
 21
200.70269161973741
 31
0.0
  0
LINE
  8
DETAIL
  6
CONTINUOUS
 62
     5
 10
191.29588266540119
 20
142.4906457672021
 30
0.0
 11
189.04036324290109
 21
140.51260832190181
 31
0.0
  0
LINE
  8
DETAIL
  6
CONTINUOUS
 62
     5
 10
161.73712972170139
 20
155.60940878400081
 30
0.0
 11
159.75909227640111
 21
153.35388936180041
 31
0.0
  0
LINE
  8
DETAIL
  6
CONTINUOUS
 62
     5
 10
166.24074169170129
 20
171.06055845150129
 30
0.0
 11
163.9852222692007
 21
169.0825210062028
 31
0.0
  0
LINE
  8
DETAIL
  6
CONTINUOUS
 62
     5
 10
133.16721703740129
 20
180.6645497580009
 30
0.0
 11
131.189179592101
 21
178.40903033550219
 31
0.0
  0
LINE
  8
DETAIL
  6
CONTINUOUS
 62
     5
 10
189.04036324296609
 20
140.51260832195999
 30
0.0
 11
163.9852222692007
 21
169.0825210062028
 31
0.0
  0
LINE
  8
DETAIL
  6
CONTINUOUS
 62
     5
 10
191.29588266540119
 20
142.4906457672021
 30
0.0
 11
166.24074169170129
 21
171.06055845150129
 31
0.0
  0
LINE
  8
DETAIL
  6
CONTINUOUS
 62
     5
 10
159.75909227629751
 20
153.35388936168121
 30
0.0
 11
131.189179592101
 21
178.40903033550219
 31
0.0
  0
LINE
  8
DETAIL
  6
CONTINUOUS
 62
     5
 10
161.73712972170139
 20
155.60940878400081
 30
0.0
 11
133.1672170372799
 21
180.66454975786181
 31
0.0
  0
ARC
  8
DETAIL
  6
CONTINUOUS
 62
     5
 10
169.33520722798727
 20
169.35458515611634
 30
0.0
 40
1.0137022732575476
 50
314.99234564850565
 51
341.38163719327019
  0
ARC
  8
DETAIL
  6
CONTINUOUS
 62
     5
 10
169.3412393822156
 20
169.35251139808989
 30
0.0
 40
1.0073237314272696
 50
341.38387745694729
 51
359.77498226706962
  0
ARC
  8
DETAIL
  6
CONTINUOUS
 62
     5
 10
169.34830259501106
 20
169.35248476513024
 30
0.0
 40
1.0002604685074117
 50
359.77491888394979
 51
18.25287633964524
  0
ARC
  8
DETAIL
  6
CONTINUOUS
 62
     5
 10
169.35432018662462
 20
169.35451333996139
 30
0.0
 40
0.993910289567458
 50
18.250471022125737
 51
44.99212659369141
  0
ARC
  8
DETAIL
  6
CONTINUOUS
 62
     5
 10
169.35451333996147
 20
169.3543201866253
 30
0.0
 40
0.9939102895669234
 50
45.007873406300519
 51
71.749528977881084
  0
ARC
  8
DETAIL
  6
CONTINUOUS
 62
     5
 10
169.3524847651301
 20
169.34830259501157
 30
0.0
 40
1.0002604685070733
 50
71.747123660352258
 51
90.225081116053502
  0
ARC
  8
DETAIL
  6
CONTINUOUS
 62
     5
 10
169.35251139808926
 20
169.34123938221833
 30
0.0
 40
1.0073237314247587
 50
90.225017732906679
 51
108.61612254307568
  0
ARC
  8
DETAIL
  6
CONTINUOUS
 62
     5
 10
169.35458515611614
 20
169.33520722798747
 30
0.0
 40
1.013702273257548
 50
108.61836280672981
 51
135.00765435149435
  0
LINE
  8
DETAIL
  6
CONTINUOUS
 62
     5
 10
58.253367244593854
 20
77.559945878316967
 30
0.0
 11
133.84823763060561
 21
176.07709902200051
 31
0.0
  0
LINE
  8
DETAIL
  6
CONTINUOUS
 62
     5
 10
135.67844052243481
 20
178.46226586807799
 30
0.0
 11
152.74411942587039
 21
200.70269161979539
 31
0.0
  0
LINE
  8
DETAIL
  6
CONTINUOUS
 62
     5
 10
59.843211954239912
 20
76.34651257913697
 30
0.0
 11
135.35514364711571
 21
174.7555779135771
 31
0.0
  0
LINE
  8
DETAIL
  6
CONTINUOUS
 62
     5
 10
137.18534653894719
 20
177.14074475966089
 30
0.0
 11
154.33082610645619
 21
199.4851687615753
 31
0.0
  0
LINE
  8
DETAIL
  6
CONTINUOUS
 62
     5
 10
67.878606016663525
 20
69.292819579055276
 30
0.0
 11
155.59312822136829
 21
157.00734178353079
 31
0.0
  0
LINE
  8
DETAIL
  6
CONTINUOUS
 62
     5
 10
157.71900022003911
 20
159.13321378219621
 30
0.0
 11
165.7060637785294
 21
167.12027734066561
 31
0.0
  0
LINE
  8
DETAIL
  6
CONTINUOUS
 62
     5
 10
167.83193577725481
 20
169.24614933938639
 30
0.0
 11
168.63769365163401
 21
170.05190721376201
 31
0.0
  0
LINE
  8
DETAIL
  6
CONTINUOUS
 62
     5
 10
69.296464556369301
 20
67.882250993791558
 30
0.0
 11
157.10003423756729
 21
155.68582067538199
 31
0.0
  0
LINE
  8
DETAIL
  6
CONTINUOUS
 62
     5
 10
159.22590623623501
 20
157.81169267405829
 30
0.0
 11
167.0275848866427
 21
165.61337132450149
 31
0.0
  0
LINE
  8
DETAIL
  6
CONTINUOUS
 62
     5
 10
169.1534568853576
 20
167.7392433232269
 30
0.0
 11
170.05190721376181
 21
168.63769365163421
 31
0.0
  0
LINE
  8
DETAIL
  6
CONTINUOUS
 62
     5
 10
76.34242302028315
 20
59.840073925197203
 30
0.0
 11
185.99800062528769
 21
143.98175800393139
 31
0.0
  0
LINE
  8
DETAIL
  6
CONTINUOUS
 62
     5
 10
188.38316747144381
 20
145.81196089581931
 30
0.0
 11
199.48516876177061
 21
154.33082610646281
 31
0.0
  0
LINE
  8
DETAIL
  6
CONTINUOUS
 62
     5
 10
77.564035437330404
 20
58.25650527342782
 30
0.0
 11
187.31952173370661
 21
142.47485198741899
 31
0.0
  0
LINE
  8
DETAIL
  6
CONTINUOUS
 62
     5
 10
189.70468857985909
 20
144.305054879306
 30
0.0
 11
200.7026916197392
 21
152.74411942568329
 31
0.0
  0
LINE
  8
DETAIL
  6
CONTINUOUS
 62
     5
 10
142.49064576720369
 20
-191.29588266540009
 30
0.0
 11
140.5126083219034
 21
-189.04036324290001
 31
0.0
  0
LINE
  8
DETAIL
  6
CONTINUOUS
 62
     5
 10
155.6094087840024
 20
-161.73712972170031
 30
0.0
 11
153.353889361802
 21
-159.7590922764
 31
0.0
  0
LINE
  8
DETAIL
  6
CONTINUOUS
 62
     5
 10
171.06055845150291
 20
-166.24074169170009
 30
0.0
 11
169.08252100620439
 21
-163.98522226919951
 31
0.0
  0
LINE
  8
DETAIL
  6
CONTINUOUS
 62
     5
 10
180.66454975800249
 20
-133.16721703740021
 30
0.0
 11
178.40903033550379
 21
-131.18917959209989
 31
0.0
  0
LINE
  8
DETAIL
  6
CONTINUOUS
 62
     5
 10
140.51260832196161
 20
-189.04036324296499
 30
0.0
 11
169.08252100620439
 21
-163.98522226919951
 31
0.0
  0
LINE
  8
DETAIL
  6
CONTINUOUS
 62
     5
 10
142.49064576720369
 20
-191.29588266540009
 30
0.0
 11
171.06055845150291
 21
-166.24074169170009
 31
0.0
  0
LINE
  8
DETAIL
  6
CONTINUOUS
 62
     5
 10
153.3538893616828
 20
-159.75909227629629
 30
0.0
 11
178.40903033550379
 21
-131.18917959209989
 31
0.0
  0
LINE
  8
DETAIL
  6
CONTINUOUS
 62
     5
 10
155.6094087840024
 20
-161.73712972170031
 30
0.0
 11
180.6645497578634
 21
-133.16721703727879
 31
0.0
  0
ARC
  8
DETAIL
  6
CONTINUOUS
 62
     5
 10
169.35458515611793
 20
-169.33520722798616
 30
0.0
 40
1.0137022732575476
 50
224.99234564850565
 51
251.38163719327019
  0
ARC
  8
DETAIL
  6
CONTINUOUS
 62
     5
 10
169.35251139809111
 20
-169.34123938221666
 30
0.0
 40
1.0073237314251162
 50
251.38387745692796
 51
269.77498226709019
  0
ARC
  8
DETAIL
  6
CONTINUOUS
 62
     5
 10
169.35248476513183
 20
-169.34830259500995
 30
0.0
 40
1.0002604685074117
 50
269.77491888394979
 51
288.25287633964524
  0
ARC
  8
DETAIL
  6
CONTINUOUS
 62
     5
 10
169.35451333996298
 20
-169.35432018662351
 30
0.0
 40
0.993910289567458
 50
288.25047102212579
 51
314.99212659369141
  0
ARC
  8
DETAIL
  6
CONTINUOUS
 62
     5
 10
169.35432018662641
 20
-169.35451333996008
 30
0.0
 40
0.9939102895674586
 50
315.00787340630859
 51
341.74952897787421
  0
ARC
  8
DETAIL
  6
CONTINUOUS
 62
     5
 10
169.34830259501285
 20
-169.35248476512893
 30
0.0
 40
1.0002604685074121
 50
341.74712366035476
 51
0.2250811160502053
  0
ARC
  8
DETAIL
  6
CONTINUOUS
 62
     5
 10
169.34123938221956
 20
-169.35251139808821
 30
0.0
 40
1.007323731425116
 50
0.2250177329098619
 51
18.616122543072038
  0
ARC
  8
DETAIL
  6
CONTINUOUS
 62
     5
 10
169.33520722798906
 20
-169.35458515611504
 30
0.0
 40
1.013702273257548
 50
18.618362806729806
 51
45.007654351494352
  0
LINE
  8
DETAIL
  6
CONTINUOUS
 62
     5
 10
77.559945878318558
 20
-58.25336724459271
 30
0.0
 11
176.0770990220021
 21
-133.84823763060439
 31
0.0
  0
LINE
  8
DETAIL
  6
CONTINUOUS
 62
     5
 10
178.46226586807961
 20
-135.6784405224337
 30
0.0
 11
200.70269161979701
 21
-152.74411942586929
 31
0.0
  0
LINE
  8
DETAIL
  6
CONTINUOUS
 62
     5
 10
76.346512579138562
 20
-59.843211954238768
 30
0.0
 11
174.75557791357869
 21
-135.3551436471146
 31
0.0
  0
LINE
  8
DETAIL
  6
CONTINUOUS
 62
     5
 10
177.14074475966251
 20
-137.18534653894611
 30
0.0
 11
199.48516876157689
 21
-154.33082610645511
 31
0.0
  0
LINE
  8
DETAIL
  6
CONTINUOUS
 62
     5
 10
69.292819579056868
 20
-67.878606016662388
 30
0.0
 11
157.00734178353241
 21
-155.5931282213671
 31
0.0
  0
LINE
  8
DETAIL
  6
CONTINUOUS
 62
     5
 10
159.1332137821978
 20
-157.719000220038
 30
0.0
 11
167.12027734066709
 21
-165.7060637785282
 31
0.0
  0
LINE
  8
DETAIL
  6
CONTINUOUS
 62
     5
 10
169.24614933938801
 20
-167.83193577725319
 30
0.0
 11
170.0519072137636
 21
-168.63769365163279
 31
0.0
  0
LINE
  8
DETAIL
  6
CONTINUOUS
 62
     5
 10
67.88225099379315
 20
-69.296464556368619
 30
0.0
 11
155.68582067538361
 21
-157.10003423756621
 31
0.0
  0
LINE
  8
DETAIL
  6
CONTINUOUS
 62
     5
 10
157.81169267405991
 20
-159.2259062362339
 30
0.0
 11
165.61337132450311
 21
-167.02758488664111
 31
0.0
  0
LINE
  8
DETAIL
  6
CONTINUOUS
 62
     5
 10
167.73924332322849
 20
-169.15345688535649
 30
0.0
 11
168.6376936516358
 21
-170.05190721376059
 31
0.0
  0
LINE
  8
DETAIL
  6
CONTINUOUS
 62
     5
 10
59.840073925198787
 20
-76.342423020282467
 30
0.0
 11
143.98175800393301
 21
-185.99800062528649
 31
0.0
  0
LINE
  8
DETAIL
  6
CONTINUOUS
 62
     5
 10
145.8119608958209
 20
-188.3831674714427
 30
0.0
 11
154.3308261064644
 21
-199.4851687617695
 31
0.0
  0
LINE
  8
DETAIL
  6
CONTINUOUS
 62
     5
 10
58.256505273429411
 20
-77.564035437329267
 30
0.0
 11
142.47485198742061
 21
-187.31952173370539
 31
0.0
  0
LINE
  8
DETAIL
  6
CONTINUOUS
 62
     5
 10
144.30505487930759
 20
-189.7046885798579
 30
0.0
 11
152.74411942568489
 21
-200.70269161973761
 31
0.0
  0
LINE
  8
DETAIL
  6
CONTINUOUS
 62
     5
 10
-191.29588266539801
 20
-142.49064576720249
 30
0.0
 11
-189.04036324289839
 21
-140.51260832190221
 31
0.0
  0
LINE
  8
DETAIL
  6
CONTINUOUS
 62
     5
 10
-161.73712972169821
 20
-155.60940878400129
 30
0.0
 11
-159.75909227639801
 21
-153.35388936180081
 31
0.0
  0
LINE
  8
DETAIL
  6
CONTINUOUS
 62
     5
 10
-166.2407416916981
 20
-171.06055845150169
 30
0.0
 11
-163.98522226919749
 21
-169.08252100620331
 31
0.0
  0
LINE
  8
DETAIL
  6
CONTINUOUS
 62
     5
 10
-133.1672170373981
 20
-180.66454975800141
 30
0.0
 11
-131.18917959209779
 21
-178.40903033550259
 31
0.0
  0
LINE
  8
DETAIL
  6
CONTINUOUS
 62
     5
 10
-189.04036324296291
 20
-140.51260832196041
 30
0.0
 11
-163.98522226919749
 21
-169.08252100620331
 31
0.0
  0
LINE
  8
DETAIL
  6
CONTINUOUS
 62
     5
 10
-191.29588266539801
 20
-142.49064576720249
 30
0.0
 11
-166.2407416916981
 21
-171.06055845150169
 31
0.0
  0
LINE
  8
DETAIL
  6
CONTINUOUS
 62
     5
 10
-159.7590922762943
 20
-153.35388936168169
 30
0.0
 11
-131.18917959209779
 21
-178.40903033550259
 31
0.0
  0
LINE
  8
DETAIL
  6
CONTINUOUS
 62
     5
 10
-161.73712972169821
 20
-155.60940878400129
 30
0.0
 11
-133.16721703727629
 21
-180.6645497578622
 31
0.0
  0
ARC
  8
DETAIL
  6
CONTINUOUS
 62
     5
 10
-169.33520722798457
 20
-169.35458515611683
 30
0.0
 40
1.0137022732575476
 50
134.99234564850565
 51
161.38163719327019
  0
ARC
  8
DETAIL
  6
CONTINUOUS
 62
     5
 10
-169.34123938221543
 20
-169.35251139808994
 30
0.0
 40
1.0073237314247585
 50
161.38387745692432
 51
179.77498226709326
  0
ARC
  8
DETAIL
  6
CONTINUOUS
 62
     5
 10
-169.34830259500868
 20
-169.35248476513078
 30
0.0
 40
1.0002604685070731
 50
179.7749188839465
 51
198.25287633964774
  0
ARC
  8
DETAIL
  6
CONTINUOUS
 62
     5
 10
-169.3543201866224
 20
-169.35451333996215
 30
0.0
 40
0.9939102895669234
 50
198.25047102211897
 51
224.99212659369948
  0
ARC
  8
DETAIL
  6
CONTINUOUS
 62
     5
 10
-169.35451333995849
 20
-169.3543201866253
 30
0.0
 40
0.9939102895674586
 50
225.00787340630859
 51
251.74952897787421
  0
ARC
  8
DETAIL
  6
CONTINUOUS
 62
     5
 10
-169.35248476512734
 20
-169.34830259501172
 30
0.0
 40
1.0002604685074121
 50
251.74712366035533
 51
270.22508111605021
  0
ARC
  8
DETAIL
  6
CONTINUOUS
 62
     5
 10
-169.35251139808699
 20
-169.34123938221629
 30
0.0
 40
1.0073237314272694
 50
270.22501773293038
 51
288.61612254305271
  0
ARC
  8
DETAIL
  6
CONTINUOUS
 62
     5
 10
-169.35458515611344
 20
-169.33520722798795
 30
0.0
 40
1.013702273257548
 50
288.61836280672981
 51
315.00765435149435
  0
LINE
  8
DETAIL
  6
CONTINUOUS
 62
     5
 10
-58.253367244590208
 20
-77.559945878317421
 30
0.0
 11
-133.8482376306024
 21
-176.07709902200099
 31
0.0
  0
LINE
  8
DETAIL
  6
CONTINUOUS
 62
     5
 10
-135.6784405224312
 20
-178.4622658680785
 30
0.0
 11
-152.74411942586769
 21
-200.70269161979579
 31
0.0
  0
LINE
  8
DETAIL
  6
CONTINUOUS
 62
     5
 10
-59.843211954236267
 20
-76.346512579137425
 30
0.0
 11
-135.3551436471121
 21
-174.75557791357761
 31
0.0
  0
LINE
  8
DETAIL
  6
CONTINUOUS
 62
     5
 10
-137.18534653894361
 20
-177.1407447596614
 30
0.0
 11
-154.33082610645349
 21
-199.48516876157581
 31
0.0
  0
LINE
  8
DETAIL
  6
CONTINUOUS
 62
     5
 10
-67.878606016659887
 20
-69.292819579055731
 30
0.0
 11
-155.5931282213655
 21
-157.0073417835313
 31
0.0
  0
LINE
  8
DETAIL
  6
CONTINUOUS
 62
     5
 10
-157.71900022003641
 20
-159.13321378219669
 30
0.0
 11
-165.70606377852661
 21
-167.12027734066601
 31
0.0
  0
LINE
  8
DETAIL
  6
CONTINUOUS
 62
     5
 10
-167.83193577725109
 20
-169.2461493393869
 30
0.0
 11
-168.63769365163131
 21
-170.05190721376241
 31
0.0
  0
LINE
  8
DETAIL
  6
CONTINUOUS
 62
     5
 10
-69.296464556366573
 20
-67.882250993792013
 30
0.0
 11
-157.10003423756419
 21
-155.6858206753825
 31
0.0
  0
LINE
  8
DETAIL
  6
CONTINUOUS
 62
     5
 10
-159.2259062362323
 20
-157.8116926740588
 30
0.0
 11
-167.027584886639
 21
-165.61337132450191
 31
0.0
  0
LINE
  8
DETAIL
  6
CONTINUOUS
 62
     5
 10
-169.15345688535439
 20
-167.73924332322741
 30
0.0
 11
-170.05190721375899
 21
-168.63769365163469
 31
0.0
  0
LINE
  8
DETAIL
  6
CONTINUOUS
 62
     5
 10
-76.342423020280421
 20
-59.840073925197657
 30
0.0
 11
-185.99800062528399
 21
-143.9817580039319
 31
0.0
  0
LINE
  8
DETAIL
  6
CONTINUOUS
 62
     5
 10
-188.3831674714406
 20
-145.81196089581979
 30
0.0
 11
-199.485168761767
 21
-154.33082610646329
 31
0.0
  0
LINE
  8
DETAIL
  6
CONTINUOUS
 62
     5
 10
-77.564035437326766
 20
-58.256505273428267
 30
0.0
 11
-187.31952173370291
 21
-142.4748519874195
 31
0.0
  0
LINE
  8
DETAIL
  6
CONTINUOUS
 62
     5
 10
-189.70468857985591
 20
-144.30505487930651
 30
0.0
 11
-200.70269161973599
 21
-152.74411942568369
 31
0.0
  0
ARC
  8
OUTLINE
  6
CONTINUOUS
 62
     3
 10
181.72644276480185
 20
234.05234457300065
 30
0.0
 40
5.9999999999998819
 50
45.000000000165414
 51
134.99941864659957
  0
LINE
  8
OUTLINE
  6
CONTINUOUS
 62
     3
 10
177.48384512598611
 20
238.29502830798651
 30
0.0
 11
148.041879671488
 21
208.85306285348571
 31
0.0
  0
ARC
  8
OUTLINE
  6
CONTINUOUS
 62
     3
 10
0.0000000000014211
 20
0.0000000000000568
 30
0.0
 40
255.99999999990027
 50
54.6697388386699
 51
125.33026116132987
  0
LINE
  8
OUTLINE
  6
CONTINUOUS
 62
     3
 10
-148.04187967148439
 20
208.85306285348631
 30
0.0
 11
-177.48380207797851
 21
238.29498526012
 31
0.0
  0
ARC
  8
OUTLINE
  6
CONTINUOUS
 62
     3
 10
-181.7264427650976
 20
234.05234457300065
 30
0.0
 40
5.9999999999999121
 50
45.000000000001705
 51
134.99941745148817
  0
LINE
  8
OUTLINE
  6
CONTINUOUS
 62
     3
 10
-185.96904031541681
 20
238.29502839648131
 30
0.0
 11
-238.29498525980719
 21
185.9690834522323
 31
0.0
  0
ARC
  8
OUTLINE
  6
CONTINUOUS
 62
     3
 10
-234.05234457269998
 20
181.72644276510107
 30
0.0
 40
5.9999999999999254
 50
134.99999999983783
 51
225.00000000000307
  0
LINE
  8
OUTLINE
  6
CONTINUOUS
 62
     3
 10
-238.29498525981899
 20
177.48380207798161
 30
0.0
 11
-208.85306285347681
 21
148.0418796714973
 31
0.0
  0
ARC
  8
OUTLINE
  6
CONTINUOUS
 62
     3
 10
0.0000000000012221
 20
0.0000000000004263
 30
0.0
 40
255.99999999990001
 50
144.66973883866706
 51
215.3302611612819
  0
LINE
  8
OUTLINE
  6
CONTINUOUS
 62
     3
 10
-208.85306285360869
 20
-148.0418796713104
 30
0.0
 11
-238.29498525981899
 21
-177.48380207767991
 31
0.0
  0
ARC
  8
OUTLINE
  6
CONTINUOUS
 62
     3
 10
-234.05234457269984
 20
-181.72644276479946
 30
0.0
 40
6.0000000000000959
 50
134.99999999999727
 51
225.000000000162
  0
LINE
  8
OUTLINE
  6
CONTINUOUS
 62
     3
 10
-238.29498525980719
 20
-185.9690834519308
 30
0.0
 11
-185.96912661134729
 21
-238.2949421002497
 31
0.0
  0
ARC
  8
OUTLINE
  6
CONTINUOUS
 62
     3
 10
-181.72644276509766
 20
-234.05234457269981
 30
0.0
 40
5.9999999999999973
 50
224.99941714399665
 51
314.99999999974034
  0
LINE
  8
OUTLINE
  6
CONTINUOUS
 62
     3
 10
-177.48380207799761
 20
-238.29498525983831
 30
0.0
 11
-148.04187967149531
 21
-208.85306285347789
 31
0.0
  0
ARC
  8
OUTLINE
  6
CONTINUOUS
 62
     3
 10
0.0000000000014495
 20
0.0000000000005116
 30
0.0
 40
255.99999999990024
 50
234.66973883866706
 51
305.33026116133578
  0
LINE
  8
OUTLINE
  6
CONTINUOUS
 62
     3
 10
148.0418796715085
 20
-208.85306285347059
 30
0.0
 11
177.48375900755809
 21
-238.294942189257
 31
0.0
  0
ARC
  8
OUTLINE
  6
CONTINUOUS
 62
     3
 10
181.72644276480182
 20
-234.05234457269975
 30
0.0
 40
5.9999999999997522
 50
224.99941834600861
 51
314.99999999983606
  0
LINE
  8
OUTLINE
  6
CONTINUOUS
 62
     3
 10
185.9690834519088
 20
-238.29498525983101
 30
0.0
 11
238.29498525981529
 21
-185.9690834519254
 31
0.0
  0
ARC
  8
OUTLINE
  6
CONTINUOUS
 62
     3
 10
234.05234457270234
 20
-181.72644276479946
 30
0.0
 40
6.0000000000002345
 50
314.99999999991223
 51
45.000000000001364
  0
LINE
  8
OUTLINE
  6
CONTINUOUS
 62
     3
 10
238.29498525982169
 20
-177.48380207767991
 30
0.0
 11
208.8530628536046
 21
-148.0418796713204
 31
0.0
  0
ARC
  8
OUTLINE
  6
CONTINUOUS
 62
     3
 10
0.0000000000013074
 20
0.0000000000000853
 30
0.0
 40
255.99999999990021
 50
324.66973883871538
 51
35.330261161329815
  0
LINE
  8
OUTLINE
  6
CONTINUOUS
 62
     3
 10
208.8530628534877
 20
148.0418796714855
 30
0.0
 11
238.29498525982169
 21
177.48380207798161
 31
0.0
  0
ARC
  8
OUTLINE
  6
CONTINUOUS
 62
     3
 10
234.05234457270248
 20
181.72644276510081
 30
0.0
 40
5.9999999999998908
 50
315.0
 51
45.000000000165812
  0
LINE
  8
OUTLINE
  6
CONTINUOUS
 62
     3
 10
238.29498525980941
 20
185.9690834522323
 30
0.0
 11
185.9690834519088
 21
238.29498526013211
 31
0.0
  0
TEXT
  8
ETC
  6
CONTINUOUS
 62
    61
 10
567.13378182093857
 20
423.75192026238187
 30
0.0
 40
64.0
  1
G-40XD3_3
 41
0.9
  0
TEXT
  8
ETC
  6
CONTINUOUS
 62
    61
 10
613.64918606949414
 20
197.6478373613252
 30
0.0
 40
40.0
  1
G-40XD3
 50
0.0
 41
0.9
 51
0.0
  7
STANDARD
 71
     0
 11
0.0
 21
0.0
 31
0.0
210
0.0
220
0.0
230
1.0
  0
TEXT
  8
ETC
  6
CONTINUOUS
 62
    61
 10
613.64918606949414
 20
131.6478373613252
 30
0.0
 40
40.0
  1
G-40XD3-F
 50
0.0
 41
0.9
 51
0.0
  7
STANDARD
 71
     0
 11
0.0
 21
0.0
 31
0.0
210
0.0
220
0.0
230
1.0
  0
TEXT
  8
ETC
  6
CONTINUOUS
 62
    61
 10
562.94778782093908
 20
305.79661024755052
 30
0.0
 40
64.0
  1
システム部材
 41
0.9
  0
POINT
  8
ARRANGE
  6
CONTINUOUS
 62
     1
 10
0.0
 20
0.0
 30
0.0
 50
180.0
  0
CIRCLE
  8
ARRANGE
  6
CONTINUOUS
 62
     1
 10
0.0
 20
0.0
 30
0.0
 40
40.0
  0
ENDSEC
  0
EOF
