  0
SECTION
  2
HEADER
  9
$ACADVER
  1
AC1009
  9
$DWGCODEPAGE
  3
dos932
  9
$INSBASE
 10
0.0
 20
0.0
 30
0.0
  9
$EXTMIN
 10
-188.07218752111481
 20
-262.11546659715901
 30
-0.0015258207003583
  9
$EXTMAX
 10
726.45722557378031
 20
412.07886523576241
 30
0.0000000349246037
  9
$LIMMIN
 10
-2970.0
 20
-2100.0
  9
$LIMMAX
 10
2970.0
 20
2100.0
  9
$ORTHOMODE
 70
     1
  9
$REGENMODE
 70
     1
  9
$FILLMODE
 70
     1
  9
$QTEXTMODE
 70
     0
  9
$MIRRTEXT
 70
     0
  9
$LTSCALE
 40
20.0
  9
$ATTMODE
 70
     1
  9
$TEXTSIZE
 40
64.0
  9
$TRACEWID
 40
0.05
  9
$TEXTSTYLE
  7
STANDARD
  9
$CLAYER
  8
SIZE
  9
$CELTYPE
  6
CONTINUOUS
  9
$CECOLOR
 62
     7
  9
$DIMSCALE
 40
1.0
  9
$DIMASZ
 40
12.0
  9
$DIMEXO
 40
20.0
  9
$DIMDLI
 40
200.0
  9
$DIMRND
 40
0.0
  9
$DIMDLE
 40
0.0
  9
$DIMEXE
 40
20.0
  9
$DIMTP
 40
0.0
  9
$DIMTM
 40
0.0
  9
$DIMTXT
 40
64.0
  9
$DIMCEN
 40
0.09
  9
$DIMTSZ
 40
0.0
  9
$DIMTOL
 70
     0
  9
$DIMLIM
 70
     0
  9
$DIMTIH
 70
     0
  9
$DIMTOH
 70
     0
  9
$DIMSE1
 70
     0
  9
$DIMSE2
 70
     0
  9
$DIMTAD
 70
     1
  9
$DIMZIN
 70
     8
  9
$DIMBLK
  1

  9
$DIMASO
 70
     1
  9
$DIMSHO
 70
     0
  9
$DIMPOST
  1

  9
$DIMAPOST
  1

  9
$DIMALT
 70
     0
  9
$DIMALTD
 70
     2
  9
$DIMALTF
 40
25.399999999999999
  9
$DIMLFAC
 40
1.0
  9
$DIMTOFL
 70
     1
  9
$DIMTVP
 40
0.0
  9
$DIMTIX
 70
     1
  9
$DIMSOXD
 70
     0
  9
$DIMSAH
 70
     0
  9
$DIMBLK1
  1

  9
$DIMBLK2
  1

  9
$DIMSTYLE
  2
STANDARD
  9
$DIMCLRD
 70
     7
  9
$DIMCLRE
 70
     7
  9
$DIMCLRT
 70
     7
  9
$DIMTFAC
 40
1.0
  9
$DIMGAP
 40
25.0
  9
$LUNITS
 70
     2
  9
$LUPREC
 70
     4
  9
$SKETCHINC
 40
0.1
  9
$FILLETRAD
 40
3.0
  9
$AUNITS
 70
     1
  9
$AUPREC
 70
     3
  9
$MENU
  1
ACAD
  9
$ELEVATION
 40
0.0
  9
$PELEVATION
 40
0.0
  9
$THICKNESS
 40
0.0
  9
$LIMCHECK
 70
     0
  9
$CHAMFERA
 40
0.0
  9
$CHAMFERB
 40
0.0
  9
$SKPOLY
 70
     0
  9
$TDCREATE
 40
2453019.62301037
  9
$TDUPDATE
 40
2459375.455093958
  9
$TDINDWG
 40
1.7175622801
  9
$TDUSRTIMER
 40
1.7175622801
  9
$USRTIMER
 70
     1
  9
$ANGBASE
 50
0.0
  9
$ANGDIR
 70
     0
  9
$PDMODE
 70
     3
  9
$PDSIZE
 40
-2.0
  9
$PLINEWID
 40
0.0
  9
$SPLFRAME
 70
     0
  9
$SPLINETYPE
 70
     6
  9
$SPLINESEGS
 70
     8
  9
$SURFTAB1
 70
     6
  9
$SURFTAB2
 70
     6
  9
$SURFTYPE
 70
     6
  9
$SURFU
 70
     6
  9
$SURFV
 70
     6
  9
$UCSNAME
  2

  9
$UCSORG
 10
0.0
 20
0.0
 30
0.0
  9
$UCSXDIR
 10
1.0
 20
0.0
 30
0.0
  9
$UCSYDIR
 10
0.0
 20
1.0
 30
0.0
  9
$PUCSNAME
  2

  9
$PUCSORG
 10
0.0
 20
0.0
 30
0.0
  9
$PUCSXDIR
 10
1.0
 20
0.0
 30
0.0
  9
$PUCSYDIR
 10
0.0
 20
1.0
 30
0.0
  9
$USERI1
 70
     0
  9
$USERI2
 70
     0
  9
$USERI3
 70
     0
  9
$USERI4
 70
     0
  9
$USERI5
 70
     0
  9
$USERR1
 40
20.0
  9
$USERR2
 40
0.0
  9
$USERR3
 40
0.0
  9
$USERR4
 40
0.0
  9
$USERR5
 40
0.0
  9
$WORLDVIEW
 70
     1
  9
$SHADEDGE
 70
     3
  9
$SHADEDIF
 70
    70
  9
$TILEMODE
 70
     1
  9
$MAXACTVP
 70
    48
  9
$PINSBASE
 10
0.0
 20
0.0
 30
0.0
  9
$PLIMCHECK
 70
     0
  9
$PEXTMIN
 10
-100000000000000000000.0
 20
-100000000000000000000.0
 30
-100000000000000000000.0
  9
$PEXTMAX
 10
100000000000000000000.0
 20
100000000000000000000.0
 30
100000000000000000000.0
  9
$PLIMMIN
 10
0.0
 20
0.0
  9
$PLIMMAX
 10
12.0
 20
9.0
  9
$UNITMODE
 70
     0
  9
$VISRETAIN
 70
     0
  9
$PLINEGEN
 70
     0
  9
$PSLTSCALE
 70
     0
  9
$TREEDEPTH
 70
  3020
  9
$ATTDIA
 70
     0
  9
$ATTREQ
 70
     1
  9
$BLIPMODE
 70
     1
  9
$COORDS
 70
     1
  9
$DRAGMODE
 70
     2
  9
$OSMODE
 70
     0
  9
$HANDLING
 70
     0
  9
$HANDSEED
  5
EFC1
  0
ENDSEC
  0
SECTION
  2
TABLES
  0
TABLE
  2
LTYPE
 70
     2
  0
LTYPE
  2
CONTINUOUS
 70
     0
  3
実線
 72
    65
 73
     0
 40
0.0
  0
LTYPE
  2
DASHDOT
 70
     0
  3
____ _ ____ _ ____ _ ____ _ ____ _ ____ _ ____
 72
    65
 73
     4
 40
5.5
 49
4.0
 49
-0.6
 49
0.3
 49
-0.6
  0
ENDTAB
  0
TABLE
  2
LAYER
 70
    12
  0
LAYER
  2
0
 70
     0
 62
     7
  6
CONTINUOUS
  0
LAYER
  2
BASIS
 70
     0
 62
     6
  6
DASHDOT
  0
LAYER
  2
OUTLINE
 70
     0
 62
     3
  6
CONTINUOUS
  0
LAYER
  2
DETAIL
 70
     0
 62
     5
  6
CONTINUOUS
  0
LAYER
  2
SIZE
 70
     0
 62
    30
  6
CONTINUOUS
  0
LAYER
  2
ARRANGE
 70
     0
 62
     1
  6
CONTINUOUS
  0
LAYER
  2
DEFPOINTS
 70
     0
 62
     7
  6
CONTINUOUS
  0
LAYER
  2
ETC
 70
     0
 62
    61
  6
CONTINUOUS
  0
LAYER
  2
FIX
 70
    64
 62
    11
  6
CONTINUOUS
  0
LAYER
  2
NOTE
 70
    64
 62
     4
  6
CONTINUOUS
  0
LAYER
  2
SERVICESPACE
 70
    64
 62
     2
  6
DASHDOT
  0
LAYER
  2
SYMBOLLINE
 70
    64
 62
    15
  6
CONTINUOUS
  0
ENDTAB
  0
TABLE
  2
STYLE
 70
     1
  0
STYLE
  2
STANDARD
 70
     0
 40
64.0
 41
0.9
 50
0.0
 71
     0
 42
64.0
  3
SIMPLEX.shx
  4
BIGFONT.shx
  0
ENDTAB
  0
TABLE
  2
APPID
 70
    19
  0
APPID
  2
ACAD
 70
     0
  0
APPID
  2
AUTOCAD_POSTSCRIPT_FIGURE
 70
     0
  0
APPID
  2
ACAD_EXEMPT_FROM_CAD_STANDARDS
 70
     0
  0
APPID
  2
ACAD_PSEXT
 70
     0
  0
APPID
  2
ACAUTHENVIRON
 70
     0
  0
APPID
  2
GENIUS_GENOENT_13
 70
     0
  0
APPID
  2
GENIUS_GENCFG_13
 70
     0
  0
APPID
  2
GENIUS_GENCFG0_13
 70
     0
  0
APPID
  2
GENIUS_GENCFG1_13
 70
     0
  0
APPID
  2
GENIUS_GENCFG2_13
 70
     0
  0
APPID
  2
GENIUS_GENCFG3_13
 70
     0
  0
APPID
  2
GENIUS_GENCFG4_13
 70
     0
  0
APPID
  2
GENIUS_GEVCFG0_13
 70
     0
  0
APPID
  2
CONTENTBLOCKICON
 70
     0
  0
APPID
  2
CONTENTBLOCKDESCRIPTION
 70
     0
  0
APPID
  2
ACAD_NAV_VCDISPLAY
 70
     0
  0
APPID
  2
ACAD_MLEADERVER
 70
     0
  0
APPID
  2
ACDBDYNAMICBLOCKTRUENAME
 70
     0
  0
APPID
  2
ACDBDYNAMICBLOCKGUID
 70
     0
  0
ENDTAB
  0
TABLE
  2
DIMSTYLE
 70
     1
  0
DIMSTYLE
  2
STANDARD
 70
     0
  3

  4

  5
_ORIGIN
  6

  7

 40
1.0
 41
12.0
 42
20.0
 43
200.0
 44
20.0
 45
0.0
 46
0.0
 47
0.0
 48
0.0
140
64.0
141
0.09
142
0.0
143
25.399999999999999
144
1.0
145
0.0
146
1.0
147
25.0
 71
     0
 72
     0
 73
     0
 74
     0
 75
     0
 76
     0
 77
     1
 78
     8
170
     0
171
     2
172
     1
173
     0
174
     1
175
     0
176
     7
177
     7
178
     7
  0
ENDTAB
  0
TABLE
  2
VIEW
 70
     1
  0
VIEW
  2
ALL
 70
     0
 40
4282.6198079999986
 10
0.0
 20
41.309904000000003
 41
5940.0
 11
0.0
 21
0.0
 31
1.0
 12
0.0
 22
0.0
 32
0.0
 42
50.0
 43
0.0
 44
0.0
 50
0.0
 71
     0
  0
ENDTAB
  0
TABLE
  2
UCS
 70
     0
  0
ENDTAB
  0
TABLE
  2
VPORT
 70
     1
  0
VPORT
  2
*ACTIVE
 70
     0
 10
0.0
 20
0.0
 11
1.0
 21
1.0
 12
269.19251902633277
 22
74.981699319301697
 13
0.0
 23
0.0
 14
1.0
 24
1.0
 15
0.0
 25
0.0
 16
0.0
 26
0.0
 36
1.0
 17
0.0
 27
0.0
 37
0.0
 40
678.71407037034874
 41
1.767337807606264
 42
50.0
 43
0.0
 44
0.0
 50
0.0
 51
0.0
 71
     0
 72
  1000
 73
     1
 74
     3
 75
     0
 76
     0
 77
     0
 78
     0
  0
ENDTAB
  0
ENDSEC
  0
SECTION
  2
BLOCKS
  0
BLOCK
  8
0
  2
_ORIGIN
 70
     0
 10
0.0
 20
0.0
 30
0.0
  3
_ORIGIN
  1
_ORIGIN
  0
CIRCLE
  8
SIZE
  6
CONTINUOUS
 62
    30
 10
0.0
 20
0.0
 30
0.0
 40
0.5
  0
LINE
  8
SIZE
  6
CONTINUOUS
 62
    30
 10
0.0
 20
0.0
 30
0.0
 11
-1.0
 21
0.0
 31
0.0
  0
ENDBLK
  8
0
  0
ENDSEC
  0
SECTION
  2
ENTITIES
  0
LINE
  8
BASIS
  6
DASHDOT
 62
     6
 10
-171.90897497196599
 20
0.0
 30
0.0
 11
59.315399726721807
 21
0.0
 31
0.0
  0
CIRCLE
  8
ARRANGE
  6
CONTINUOUS
 62
     1
 10
0.0
 20
0.0
 30
0.0
 40
40.0
  0
POINT
  8
ARRANGE
  6
CONTINUOUS
 62
     1
 10
0.0
 20
0.0
 30
0.0
  0
ARC
  8
DETAIL
  6
CONTINUOUS
 62
     5
 10
-1.5
 20
254.5
 30
0.0
 40
1.5
 50
0.0
 51
180.0
  0
LINE
  8
DETAIL
  6
CONTINUOUS
 62
     5
 10
0.0
 20
254.5
 30
0.0
 11
-0.0000000000027285
 21
198.99021486527371
 31
0.0
  0
ARC
  8
DETAIL
  6
CONTINUOUS
 62
     5
 10
-162.5
 20
164.98100955806879
 30
0.0
 40
1.5
 50
0.0
 51
180.0
  0
ARC
  8
DETAIL
  6
CONTINUOUS
 62
     5
 10
-73.260000000009313
 20
245.79241208287749
 30
0.0
 40
1.5
 50
0.0
 51
180.0
  0
ARC
  8
DETAIL
  6
CONTINUOUS
 62
     5
 10
-1.5
 20
156.10413017566131
 30
0.0
 40
1.5
 50
0.0
 51
180.0
  0
ARC
  8
DETAIL
  6
CONTINUOUS
 62
     5
 10
-1.5
 20
201.29303386063239
 30
0.0
 40
1.5
 50
180.0
 51
0.0
  0
LINE
  8
DETAIL
  6
CONTINUOUS
 62
     5
 10
-74.760000000009313
 20
194.6912992807938
 30
0.0
 11
-74.760000000009313
 21
245.79241208287749
 31
0.0
  0
LINE
  8
DETAIL
  6
CONTINUOUS
 62
     5
 10
-71.760000000009313
 20
194.6912992807938
 30
0.0
 11
-71.760000000009313
 21
245.79241208287749
 31
0.0
  0
LINE
  8
DETAIL
  6
CONTINUOUS
 62
     5
 10
-71.760000000009313
 20
-1.0000000000001139
 30
0.0
 11
-3.0
 21
-1.0000000000001139
 31
0.0
  0
LINE
  8
DETAIL
  6
CONTINUOUS
 62
     5
 10
-74.760000000011132
 20
-0.9041666666671517
 30
0.0
 11
-160.16407711761349
 21
-0.9041666666671517
 31
0.0
  0
ARC
  8
DETAIL
  6
CONTINUOUS
 62
     5
 10
-160.0930476612393
 20
0.0000000000001705
 30
0.0
 40
0.9069523387612433
 50
94.491812477310077
 51
265.50818752268992
  0
LINE
  8
DETAIL
  6
CONTINUOUS
 62
     5
 10
-74.760000000011132
 20
0.9041666666671517
 30
0.0
 11
-160.16407711761349
 21
0.9041666666671517
 31
0.0
  0
LINE
  8
DETAIL
  6
CONTINUOUS
 62
     5
 10
-71.760000000009313
 20
1.0000000000001139
 30
0.0
 11
-3.0
 21
1.0000000000001139
 31
0.0
  0
ARC
  8
DETAIL
  6
CONTINUOUS
 62
     5
 10
-101.0920142288214
 20
161.7118744533266
 30
0.0
 40
60.116537029313221
 50
94.941149421346495
 51
175.22610688602111
  0
ARC
  8
DETAIL
  6
CONTINUOUS
 62
     5
 10
-100.04427447876699
 20
160.55321187969491
 30
0.0
 40
59.51457449172608
 50
95.782004480722165
 51
171.54030416285369
  0
ARC
  8
DETAIL
  6
CONTINUOUS
 62
     5
 10
-100.2512759052233
 20
170.83350757980051
 30
0.0
 40
59.105645222654267
 50
95.620478165377264
 51
172.79648161652949
  0
ARC
  8
DETAIL
  6
CONTINUOUS
 62
     5
 10
-101.5089110173039
 20
172.3862032884723
 30
0.0
 40
59.529494903577728
 50
94.587338871889344
 51
177.9417696651833
  0
ARC
  8
DETAIL
  6
CONTINUOUS
 62
     5
 10
-100.4638763110861
 20
179.51487104494771
 30
0.0
 40
60.539195683217308
 50
95.503516951918655
 51
180.57720667712269
  0
ARC
  8
DETAIL
  6
CONTINUOUS
 62
     5
 10
-98.138723383834076
 20
175.47819138024349
 30
0.0
 40
62.95461154777626
 50
97.210064850265752
 51
176.8796764163346
  0
ARC
  8
DETAIL
  6
CONTINUOUS
 62
     5
 10
-100.02511491986751
 20
176.5499048939904
 30
0.0
 40
59.390464775213822
 50
95.812707622171629
 51
160.71361690268731
  0
ARC
  8
DETAIL
  6
CONTINUOUS
 62
     5
 10
-99.822142281286688
 20
145.73473658744061
 30
0.0
 40
60.321582905193978
 50
95.916471444632663
 51
168.39827270868221
  0
ARC
  8
DETAIL
  6
CONTINUOUS
 62
     5
 10
-100.15062538919391
 20
146.50261423552831
 30
0.0
 40
61.607055164517149
 50
95.700539577347769
 51
171.00478425745831
  0
ARC
  8
DETAIL
  6
CONTINUOUS
 62
     5
 10
-103.1937382546848
 20
81.304889257711636
 30
0.0
 40
63.084352765911362
 50
92.585968753922515
 51
152.03366239009421
  0
ARC
  8
DETAIL
  6
CONTINUOUS
 62
     5
 10
-104.6980371093068
 20
84.776044921749076
 30
0.0
 40
61.639003011621689
 50
91.461357269434998
 51
155.9815676715383
  0
LINE
  8
DETAIL
  6
CONTINUOUS
 62
     5
 10
-106.04000000004631
 20
144.32500000000439
 30
0.0
 11
-74.760000000009313
 21
147.08411792906369
 31
0.0
  0
LINE
  8
DETAIL
  6
CONTINUOUS
 62
     5
 10
-106.27000000002769
 20
146.39500000001141
 30
0.0
 11
-74.760000000009313
 21
149.15412436548749
 31
0.0
  0
LINE
  8
DETAIL
  6
CONTINUOUS
 62
     5
 10
-71.760000000009313
 20
244.6050000000032
 30
0.0
 11
-3.0
 21
252.65378904502131
 31
0.0
  0
LINE
  8
DETAIL
  6
CONTINUOUS
 62
     5
 10
-71.760000000009313
 20
242.53499999999619
 30
0.0
 11
-3.0
 21
250.58382943145071
 31
0.0
  0
LINE
  8
DETAIL
  6
CONTINUOUS
 62
     5
 10
-71.760000000009313
 20
224.13500000000201
 30
0.0
 11
-6.0
 21
231.2878421052512
 31
0.0
  0
LINE
  8
DETAIL
  6
CONTINUOUS
 62
     5
 10
-71.760000000009313
 20
225.97499999999849
 30
0.0
 11
-6.0
 21
233.35857894737791
 31
0.0
  0
LINE
  8
DETAIL
  6
CONTINUOUS
 62
     5
 10
-71.760000000009313
 20
236.32500000000439
 30
0.0
 11
-3.0
 21
244.14386287625001
 31
0.0
  0
LINE
  8
DETAIL
  6
CONTINUOUS
 62
     5
 10
-71.760000000009313
 20
234.2550000000119
 30
0.0
 11
-3.0
 21
242.07386287625749
 31
0.0
  0
LINE
  8
DETAIL
  6
CONTINUOUS
 62
     5
 10
-106.04000000004631
 20
237.93500000000489
 30
0.0
 11
-74.75
 21
242.07500000000439
 31
0.0
  0
LINE
  8
DETAIL
  6
CONTINUOUS
 62
     5
 10
-6.0
 20
200.4648947368529
 30
0.0
 11
-71.833324378872931
 21
194.22805347989049
 31
0.0
  0
LINE
  8
DETAIL
  6
CONTINUOUS
 62
     5
 10
-0.000000000001819
 20
198.99021486527391
 30
0.0
 11
-3.0
 21
198.69300961635111
 31
0.0
  0
LINE
  8
DETAIL
  6
CONTINUOUS
 62
     5
 10
-6.0000000000009086
 20
198.3958043674281
 30
0.0
 11
-106.04000000004631
 21
188.48500000000789
 31
0.0
  0
LINE
  8
DETAIL
  6
CONTINUOUS
 62
     5
 10
-74.75
 20
225.74500000000259
 30
0.0
 11
-106.27000000002769
 21
221.6050000000032
 31
0.0
  0
LINE
  8
DETAIL
  6
CONTINUOUS
 62
     5
 10
-106.04000000004631
 20
229.65500000000611
 30
0.0
 11
-74.75
 21
234.02500000001601
 31
0.0
  0
LINE
  8
DETAIL
  6
CONTINUOUS
 62
     5
 10
-106.27000000002769
 20
231.7250000000131
 30
0.0
 11
-74.75
 21
235.86500000001249
 31
0.0
  0
LINE
  8
DETAIL
  6
CONTINUOUS
 62
     5
 10
-106.27000000002769
 20
239.77500000000151
 30
0.0
 11
-74.75
 21
244.3750000000073
 31
0.0
  0
LINE
  8
DETAIL
  6
CONTINUOUS
 62
     5
 10
-106.04000000004631
 20
235.63500000001659
 30
0.0
 11
-74.75
 21
240.23500000000789
 31
0.0
  0
LINE
  8
DETAIL
  6
CONTINUOUS
 62
     5
 10
-71.760000000009313
 20
147.3150000000096
 30
0.0
 11
-6.0
 21
152.16047368421911
 31
0.0
  0
ARC
  8
DETAIL
  6
CONTINUOUS
 62
     5
 10
-100.9829598382739
 20
106.4380582571534
 30
0.0
 40
63.636949123036977
 50
94.765700880361706
 51
160.58165183713081
  0
LINE
  8
DETAIL
  6
CONTINUOUS
 62
     5
 10
-74.58985592190038
 20
193.9974093565173
 30
0.0
 11
-106.27000000002769
 21
190.55500000000029
 31
0.0
  0
LINE
  8
DETAIL
  6
CONTINUOUS
 62
     5
 10
-74.75
 20
209.6449999999968
 30
0.0
 11
-106.04000000004631
 21
205.73500000000789
 31
0.0
  0
LINE
  8
DETAIL
  6
CONTINUOUS
 62
     5
 10
-71.760000000009313
 20
149.38500000001659
 30
0.0
 11
-6.0
 21
153.99973684211051
 31
0.0
  0
LINE
  8
DETAIL
  6
CONTINUOUS
 62
     5
 10
-101.4400000000696
 20
168.24500000000259
 30
0.0
 11
-106.04000000004631
 21
167.78500000001
 31
0.0
  0
LINE
  8
DETAIL
  6
CONTINUOUS
 62
     5
 10
-101.4400000000696
 20
170.3150000000096
 30
0.0
 11
-106.27000000002769
 21
169.85500000000329
 31
0.0
  0
ARC
  8
DETAIL
  6
CONTINUOUS
 62
     5
 10
-99.530457657918305
 20
103.59393616307651
 30
0.0
 40
64.520282222114702
 50
95.790504212582192
 51
156.97641054964251
  0
LINE
  8
SIZE
  6
CONTINUOUS
 62
    30
 10
-164.0
 20
209.07497068477281
 30
0.0
 11
-164.0
 21
330.45046510147978
 31
0.0
  0
LINE
  8
SIZE
  6
CONTINUOUS
 62
    30
 10
0.0000000000000012
 20
274.5
 30
0.0
 11
0.0000000000000047
 21
330.45046510147978
 31
0.0
  0
LINE
  8
SIZE
  6
CONTINUOUS
 62
    30
 10
-176.0
 20
310.45046510147978
 30
0.0
 11
-188.0
 21
310.45046510147978
 31
0.0
  0
LINE
  8
SIZE
  6
CONTINUOUS
 62
    30
 10
12.0
 20
310.45046510147978
 30
0.0
 11
24.0
 21
310.45046510147978
 31
0.0
  0
LINE
  8
SIZE
  6
CONTINUOUS
 62
    30
 10
-164.0
 20
310.45046510147978
 30
0.0
 11
0.0000000000000034
 21
310.45046510147978
 31
0.0
  0
CIRCLE
  8
SIZE
  6
CONTINUOUS
 62
    30
 10
-164.0
 20
310.45046510147978
 30
0.0
 40
6.0
  0
LINE
  8
SIZE
  6
CONTINUOUS
 62
    30
 10
-164.0
 20
310.45046510147978
 30
0.0
 11
-176.0
 21
310.45046510147978
 31
0.0
  0
CIRCLE
  8
SIZE
  6
CONTINUOUS
 62
    30
 10
0.0000000000000034
 20
310.45046510147978
 30
0.0
 40
6.0
  0
LINE
  8
SIZE
  6
CONTINUOUS
 62
    30
 10
0.0000000000000034
 20
310.45046510147978
 30
0.0
 11
12.000000000000004
 21
310.45046510147978
 31
0.0
  0
TEXT
  8
SIZE
  6
CONTINUOUS
 62
    30
 10
-157.16800000000001
 20
335.45046510147978
 30
0.0
 40
64.0
  1
164
 50
0.0
 41
0.9
 51
0.0
  7
STANDARD
 71
     0
 72
     1
 11
-82.0
 21
335.45046510147978
 31
0.0
210
0.0
220
0.0
230
1.0
  0
POINT
  8
DEFPOINTS
  6
CONTINUOUS
 62
    30
 10
-164.0
 20
189.07497068477281
 30
0.0
  0
POINT
  8
DEFPOINTS
  6
CONTINUOUS
 62
    30
 10
0.0
 20
254.5
 30
0.0
  0
POINT
  8
DEFPOINTS
  6
CONTINUOUS
 62
    30
 10
0.0000000000000034
 20
310.45046510147978
 30
0.0
  0
LINE
  8
SIZE
  6
CONTINUOUS
 62
    30
 10
18.5
 20
256.00000000000011
 30
0.0
 11
211.01938863651091
 21
256.00000000000023
 31
0.0
  0
LINE
  8
SIZE
  6
CONTINUOUS
 62
    30
 10
18.5
 20
-256.00000000000011
 30
0.0
 11
211.019388636511
 21
-256.00000000000011
 31
0.0
  0
LINE
  8
SIZE
  6
CONTINUOUS
 62
    30
 10
191.01938863651091
 20
244.00000000000011
 30
0.0
 11
191.019388636511
 21
-244.00000000000011
 31
0.0
  0
CIRCLE
  8
SIZE
  6
CONTINUOUS
 62
    30
 10
191.01938863651091
 20
256.00000000000023
 30
0.0
 40
6.0
  0
LINE
  8
SIZE
  6
CONTINUOUS
 62
    30
 10
191.01938863651091
 20
256.00000000000023
 30
0.0
 11
191.01938863651091
 21
244.00000000000023
 31
0.0
  0
CIRCLE
  8
SIZE
  6
CONTINUOUS
 62
    30
 10
191.019388636511
 20
-256.00000000000011
 30
0.0
 40
6.0
  0
LINE
  8
SIZE
  6
CONTINUOUS
 62
    30
 10
191.019388636511
 20
-256.00000000000011
 30
0.0
 11
191.019388636511
 21
-244.00000000000011
 31
0.0
  0
TEXT
  8
SIZE
  6
CONTINUOUS
 62
    30
 10
166.01938863651091
 20
-109.152
 30
0.0
 40
64.0
  1
φ512
 50
90.0
 41
0.9
 51
0.0
  7
STANDARD
 71
     0
 72
     1
 11
166.01938863651091
 21
-0.0000000000000067
 31
0.0
210
0.0
220
0.0
230
1.0
  0
POINT
  8
DEFPOINTS
  6
CONTINUOUS
 62
    30
 10
-1.5000000000000011
 20
256.00000000000011
 30
0.0
  0
POINT
  8
DEFPOINTS
  6
CONTINUOUS
 62
    30
 10
-1.5000000000000011
 20
-256.00000000000011
 30
0.0
  0
POINT
  8
DEFPOINTS
  6
CONTINUOUS
 62
    30
 10
191.019388636511
 20
-256.00000000000011
 30
0.0
  0
LINE
  8
DETAIL
  6
CONTINUOUS
 62
     5
 10
-71.760000000009313
 20
240.46500000000381
 30
0.0
 11
-3.0
 21
248.5138294314437
 31
0.0
  0
LINE
  8
DETAIL
  6
CONTINUOUS
 62
     5
 10
-71.760000000009313
 20
122.70500000000899
 30
0.0
 11
-3.0
 21
126.8443979933044
 31
0.0
  0
LINE
  8
DETAIL
  6
CONTINUOUS
 62
     5
 10
-71.760000000009313
 20
120.86499999999801
 30
0.0
 11
-3.0
 21
125.0043979933079
 31
0.0
  0
LINE
  8
DETAIL
  6
CONTINUOUS
 62
     5
 10
-71.760000000009313
 20
94.1850000000195
 30
0.0
 11
-3.0
 21
97.404531772580924
 31
0.0
  0
LINE
  8
DETAIL
  6
CONTINUOUS
 62
     5
 10
-71.760000000009313
 20
92.344999999993888
 30
0.0
 11
-3.0
 21
95.334565217404588
 31
0.0
  0
LINE
  8
DETAIL
  6
CONTINUOUS
 62
     5
 10
-74.760000000009313
 20
211.48383248730181
 30
0.0
 11
-106.27000000002769
 21
207.80500000000029
 31
0.0
  0
LINE
  8
DETAIL
  6
CONTINUOUS
 62
     5
 10
-74.75
 20
223.67500000001019
 30
0.0
 11
-106.04000000004631
 21
219.76500000000669
 31
0.0
  0
ARC
  8
DETAIL
  6
CONTINUOUS
 62
     5
 10
-105.42799106100389
 20
52.279557095002303
 30
0.0
 40
66.058277999935513
 50
90.530834771204411
 51
144.06061220893429
  0
ARC
  8
DETAIL
  6
CONTINUOUS
 62
     5
 10
-105.2373193507001
 20
53.70812024133977
 30
0.0
 40
66.704873876392966
 50
90.887050722110388
 51
146.71604893884529
  0
LINE
  8
DETAIL
  6
CONTINUOUS
 62
     5
 10
-106.04000000004631
 20
118.3349999999991
 30
0.0
 11
-74.760000000009313
 21
120.6342649408771
 31
0.0
  0
LINE
  8
DETAIL
  6
CONTINUOUS
 62
     5
 10
-106.27000000002769
 20
120.4050000000061
 30
0.0
 11
-74.760000000009313
 21
122.70427030457689
 31
0.0
  0
ARC
  8
DETAIL
  6
CONTINUOUS
 62
     5
 10
-103.3510368034476
 20
8.2124416399019537
 30
0.0
 40
82.336478455922219
 50
91.871511209593109
 51
132.4382567882582
  0
ARC
  8
DETAIL
  6
CONTINUOUS
 62
     5
 10
-107.3344679516358
 20
19.173509008943139
 30
0.0
 40
73.179233296567588
 50
89.166543986890247
 51
137.16744828310641
  0
LINE
  8
DETAIL
  6
CONTINUOUS
 62
     5
 10
-106.04000000004631
 20
90.504999999997381
 30
0.0
 11
-74.760000000009313
 21
92.114485458610488
 31
0.0
  0
LINE
  8
DETAIL
  6
CONTINUOUS
 62
     5
 10
-106.27000000002769
 20
92.344999999993888
 30
0.0
 11
-74.760000000009313
 21
94.184416243673809
 31
0.0
  0
ARC
  8
DETAIL
  6
CONTINUOUS
 62
     5
 10
-159.95565311140669
 20
12.66217911769081
 30
0.0
 40
1.0543152222771821
 50
187.8850862928025
 51
352.1149137071975
  0
ARC
  8
DETAIL
  6
CONTINUOUS
 62
     5
 10
-73.260000000009313
 20
194.6912992807938
 30
0.0
 40
1.5
 50
180.0
 51
0.0
  0
ARC
  8
DETAIL
  6
CONTINUOUS
 62
     5
 10
-73.260000000009313
 20
150.70443270675861
 30
0.0
 40
1.5
 50
0.0
 51
180.0
  0
LINE
  8
DETAIL
  6
CONTINUOUS
 62
     5
 10
-71.760000000009313
 20
211.94499999999971
 30
0.0
 11
-6.0
 21
218.63636842106141
 31
0.0
  0
LINE
  8
DETAIL
  6
CONTINUOUS
 62
     5
 10
-71.760000000009313
 20
209.8750000000073
 30
0.0
 11
-6.0
 21
216.79710526317001
 31
0.0
  0
ARC
  8
DETAIL
  6
CONTINUOUS
 62
     5
 10
-102.1654786595691
 20
130.3240183106183
 30
0.0
 40
58.289893692571852
 50
93.811252733589967
 51
166.78286513968581
  0
ARC
  8
DETAIL
  6
CONTINUOUS
 62
     5
 10
-102.65612951425371
 20
131.06504265245701
 30
0.0
 40
59.599623195960483
 50
93.476307540767309
 51
168.21760875169909
  0
LINE
  8
DETAIL
  6
CONTINUOUS
 62
     5
 10
-71.760000000009313
 20
64.055000000014843
 30
0.0
 11
-3.0
 21
66.124698996662516
 31
0.0
  0
LINE
  8
DETAIL
  6
CONTINUOUS
 62
     5
 10
-71.760000000009313
 20
61.985000000007858
 30
0.0
 11
-3.0
 21
64.284665551849912
 31
0.0
  0
ARC
  8
DETAIL
  6
CONTINUOUS
 62
     5
 10
-105.4666873973911
 20
-41.82193276097604
 30
0.0
 40
102.66007575991711
 50
90.448342660327114
 51
121.37236532390421
  0
ARC
  8
DETAIL
  6
CONTINUOUS
 62
     5
 10
-108.503391056669
 20
-30.673119245749259
 30
0.0
 40
93.604767171254153
 50
88.632804397110363
 51
124.1134001109934
  0
LINE
  8
DETAIL
  6
CONTINUOUS
 62
     5
 10
-106.27000000002769
 20
60.835000000013679
 30
0.0
 11
-74.760000000009313
 21
61.984635152291787
 31
0.0
  0
LINE
  8
DETAIL
  6
CONTINUOUS
 62
     5
 10
-106.27000000002769
 20
62.905000000006112
 30
0.0
 11
-74.760000000009313
 21
64.054635152298772
 31
0.0
  0
LINE
  8
DETAIL
  6
CONTINUOUS
 62
     5
 10
-158.91130622281341
 20
12.517541072173341
 30
0.0
 11
-158.91130622281341
 21
22.404870442471971
 31
0.0
  0
LINE
  8
DETAIL
  6
CONTINUOUS
 62
     5
 10
-158.91130622281341
 20
71.087186781012861
 30
0.0
 11
-158.9113062228125
 21
91.051081331474848
 31
0.0
  0
LINE
  8
DETAIL
  6
CONTINUOUS
 62
     5
 10
-158.91130622281341
 20
24.222261466422989
 30
0.0
 11
-158.91130622281341
 21
45.82944414570585
 31
0.0
  0
LINE
  8
DETAIL
  6
CONTINUOUS
 62
     5
 10
-158.91130622281341
 20
48.199528267742103
 30
0.0
 11
-158.91130622281341
 21
68.977169456045431
 31
0.0
  0
ARC
  8
DETAIL
  6
CONTINUOUS
 62
     5
 10
-4.5
 20
238.87500000002379
 30
0.0
 40
1.5
 50
0.0
 51
180.0
  0
LINE
  8
DETAIL
  6
CONTINUOUS
 62
     5
 10
-6.0
 20
238.87500000002379
 30
0.0
 11
-6.0
 21
145.66759135714639
 31
0.0
  0
ARC
  8
DETAIL
  6
CONTINUOUS
 62
     5
 10
-4.5
 20
145.66759135714639
 30
0.0
 40
1.5
 50
180.0
 51
0.0
  0
ARC
  8
DETAIL
  6
CONTINUOUS
 62
     5
 10
-102.9300000000603
 20
189.87342760618949
 30
0.0
 40
1.5
 50
50.010743236823842
 51
142.39227533568231
  0
LINE
  8
DETAIL
  6
CONTINUOUS
 62
     5
 10
-104.4300000000603
 20
141.77247781874931
 30
0.0
 11
-104.4300000000603
 21
144.46701342282219
 31
0.0
  0
LINE
  8
DETAIL
  6
CONTINUOUS
 62
     5
 10
-104.4300000000603
 20
146.55611675127699
 30
0.0
 11
-104.4300000000603
 21
167.94600000000679
 31
0.0
  0
LINE
  8
DETAIL
  6
CONTINUOUS
 62
     5
 10
-104.4300000000603
 20
170.0302380952422
 30
0.0
 11
-104.4300000000603
 21
188.64450015026179
 31
0.0
  0
LINE
  8
DETAIL
  6
CONTINUOUS
 62
     5
 10
-101.4300000000603
 20
141.77247781874931
 30
0.0
 11
-101.4300000000603
 21
144.73163470757819
 31
0.0
  0
LINE
  8
DETAIL
  6
CONTINUOUS
 62
     5
 10
-101.4300000000603
 20
146.81880710660641
 30
0.0
 11
-101.4300000000603
 21
188.94170539918471
 31
0.0
  0
ARC
  8
DETAIL
  6
CONTINUOUS
 62
     5
 10
-102.9300000000603
 20
141.77247781874931
 30
0.0
 40
1.5
 50
180.0
 51
0.0
  0
LINE
  8
DETAIL
  6
CONTINUOUS
 62
     5
 10
-158.91130622281341
 20
93.314222449430474
 30
0.0
 11
-158.91130622281341
 21
110.8884688857905
 31
0.0
  0
ARC
  8
DETAIL
  6
CONTINUOUS
 62
     5
 10
-137.65999999992621
 20
179.2975075987213
 30
0.0
 40
1.5
 50
0.0
 51
180.0
  0
LINE
  8
DETAIL
  6
CONTINUOUS
 62
     5
 10
-158.91130622281341
 20
114.1067139269595
 30
0.0
 11
-158.91130622281341
 21
128.82846888580059
 31
0.0
  0
LINE
  8
DETAIL
  6
CONTINUOUS
 62
     5
 10
-139.15999999992621
 20
132.50828833273749
 30
0.0
 11
-139.15999999992621
 21
133.13213672433611
 31
0.0
  0
LINE
  8
DETAIL
  6
CONTINUOUS
 62
     5
 10
-139.15999999992621
 20
135.8812286704871
 30
0.0
 11
-139.15999999992621
 21
154.5092206244673
 31
0.0
  0
LINE
  8
DETAIL
  6
CONTINUOUS
 62
     5
 10
-158.91130622281341
 20
133.52189710270849
 30
0.0
 11
-158.91130622281341
 21
143.65153724153191
 31
0.0
  0
LINE
  8
DETAIL
  6
CONTINUOUS
 62
     5
 10
-139.15999999992621
 20
157.35146413599421
 30
0.0
 11
-139.15999999992621
 21
175.36974061017969
 31
0.0
  0
LINE
  8
DETAIL
  6
CONTINUOUS
 62
     5
 10
-158.9113062228125
 20
150.74930485832201
 30
0.0
 11
-158.9113062228125
 21
157.86585644010319
 31
0.0
  0
LINE
  8
DETAIL
  6
CONTINUOUS
 62
     5
 10
-158.9113062228125
 20
165.97182707819849
 30
0.0
 11
-158.9113062228125
 21
169.30861881351291
 31
0.0
  0
LINE
  8
DETAIL
  6
CONTINUOUS
 62
     5
 10
-139.15999999992621
 20
178.1774881914624
 30
0.0
 11
-139.15999999992621
 21
179.2975075987213
 31
0.0
  0
LINE
  8
DETAIL
  6
CONTINUOUS
 62
     5
 10
-136.15999999992621
 20
132.50828833273749
 30
0.0
 11
-136.15999999992621
 21
135.09021393311139
 31
0.0
  0
LINE
  8
DETAIL
  6
CONTINUOUS
 62
     5
 10
-136.15999999992621
 20
137.78087095991259
 30
0.0
 11
-136.15999999992621
 21
156.70837342674719
 31
0.0
  0
LINE
  8
DETAIL
  6
CONTINUOUS
 62
     5
 10
-136.15999999992621
 20
159.4685885124085
 30
0.0
 11
-136.15999999992709
 21
177.6746701068848
 31
0.0
  0
ARC
  8
DETAIL
  6
CONTINUOUS
 62
     5
 10
-137.65999999992621
 20
132.50828833273749
 30
0.0
 40
1.5
 50
180.0
 51
0.0
  0
LINE
  8
DETAIL
  6
CONTINUOUS
 62
     5
 10
-71.760000000009313
 20
33.005000000011933
 30
0.0
 11
-3.0
 21
33.924866220745862
 31
0.0
  0
LINE
  8
DETAIL
  6
CONTINUOUS
 62
     5
 10
-71.75999457008038
 20
30.934999323120909
 30
0.0
 11
-3.0
 21
31.85486622073887
 31
0.0
  0
ARC
  8
DETAIL
  6
CONTINUOUS
 62
     5
 10
-106.3742216177689
 20
-149.7011352918997
 30
0.0
 40
179.9461654735581
 50
89.966815301968481
 51
106.9753355693384
  0
ARC
  8
DETAIL
  6
CONTINUOUS
 62
     5
 10
-103.44518879818411
 20
-161.31556323906429
 30
0.0
 40
193.65116725340661
 50
90.835809576925797
 51
107.29002791621571
  0
LINE
  8
DETAIL
  6
CONTINUOUS
 62
     5
 10
-106.27000000002769
 20
30.245000000002619
 30
0.0
 11
-74.760000000009313
 21
30.704854060922571
 31
0.0
  0
LINE
  8
DETAIL
  6
CONTINUOUS
 62
     5
 10
-106.27000000002769
 20
32.315000000009597
 30
0.0
 11
-74.760000000009313
 21
32.774854060929563
 31
0.0
  0
ARC
  8
DETAIL
  6
CONTINUOUS
 62
     5
 10
-1.5
 20
-254.5
 30
0.0
 40
1.5
 50
180.0
 51
0.0
  0
LINE
  8
DETAIL
  6
CONTINUOUS
 62
     5
 10
0.0
 20
-254.5
 30
0.0
 11
-0.0000000000027285
 21
-198.99021486527371
 31
0.0
  0
ARC
  8
DETAIL
  6
CONTINUOUS
 62
     5
 10
-162.5
 20
-164.98100955806879
 30
0.0
 40
1.5
 50
180.0
 51
0.0
  0
ARC
  8
DETAIL
  6
CONTINUOUS
 62
     5
 10
-73.260000000009313
 20
-245.79241208287749
 30
0.0
 40
1.5
 50
180.0
 51
0.0
  0
ARC
  8
DETAIL
  6
CONTINUOUS
 62
     5
 10
-1.5
 20
-156.10413017566131
 30
0.0
 40
1.5
 50
180.0
 51
0.0
  0
ARC
  8
DETAIL
  6
CONTINUOUS
 62
     5
 10
-1.5
 20
-201.29303386063239
 30
0.0
 40
1.5
 50
0.0
 51
180.0
  0
LINE
  8
DETAIL
  6
CONTINUOUS
 62
     5
 10
-74.760000000009313
 20
-194.6912992807938
 30
0.0
 11
-74.760000000009313
 21
-245.79241208287749
 31
0.0
  0
LINE
  8
DETAIL
  6
CONTINUOUS
 62
     5
 10
-71.760000000009313
 20
-194.6912992807938
 30
0.0
 11
-71.760000000009313
 21
-245.79241208287749
 31
0.0
  0
ARC
  8
DETAIL
  6
CONTINUOUS
 62
     5
 10
-101.0920142288214
 20
-161.7118744533266
 30
0.0
 40
60.116537029313221
 50
184.77389311397889
 51
265.05885057865351
  0
ARC
  8
DETAIL
  6
CONTINUOUS
 62
     5
 10
-100.04427447876699
 20
-160.55321187969491
 30
0.0
 40
59.51457449172608
 50
188.45969583714631
 51
264.21799551927779
  0
ARC
  8
DETAIL
  6
CONTINUOUS
 62
     5
 10
-100.2512759052233
 20
-170.83350757980051
 30
0.0
 40
59.105645222654267
 50
187.20351838347051
 51
264.37952183462272
  0
ARC
  8
DETAIL
  6
CONTINUOUS
 62
     5
 10
-101.5089110173039
 20
-172.3862032884723
 30
0.0
 40
59.529494903577728
 50
182.0582303348167
 51
265.41266112811059
  0
ARC
  8
DETAIL
  6
CONTINUOUS
 62
     5
 10
-100.4638763110861
 20
-179.51487104494771
 30
0.0
 40
60.539195683217308
 50
179.42279332287731
 51
264.4964830480813
  0
ARC
  8
DETAIL
  6
CONTINUOUS
 62
     5
 10
-98.138723383834076
 20
-175.47819138024349
 30
0.0
 40
62.95461154777626
 50
183.1203235836654
 51
262.78993514973428
  0
ARC
  8
DETAIL
  6
CONTINUOUS
 62
     5
 10
-100.02511491986751
 20
-176.5499048939904
 30
0.0
 40
59.390464775213822
 50
199.28638309731269
 51
264.18729237782838
  0
ARC
  8
DETAIL
  6
CONTINUOUS
 62
     5
 10
-99.822142281286688
 20
-145.73473658744061
 30
0.0
 40
60.321582905193978
 50
191.60172729131779
 51
264.08352855536742
  0
ARC
  8
DETAIL
  6
CONTINUOUS
 62
     5
 10
-100.15062538919391
 20
-146.50261423552831
 30
0.0
 40
61.607055164517149
 50
188.99521574254169
 51
264.2994604226522
  0
ARC
  8
DETAIL
  6
CONTINUOUS
 62
     5
 10
-103.1937382546848
 20
-81.304889257711636
 30
0.0
 40
63.084352765911362
 50
207.96633760990579
 51
267.41403124607751
  0
ARC
  8
DETAIL
  6
CONTINUOUS
 62
     5
 10
-104.6980371093068
 20
-84.776044921749076
 30
0.0
 40
61.639003011621689
 50
204.0184323284617
 51
268.53864273056502
  0
LINE
  8
DETAIL
  6
CONTINUOUS
 62
     5
 10
-106.04000000004631
 20
-144.32500000000439
 30
0.0
 11
-74.760000000009313
 21
-147.08411792906369
 31
0.0
  0
LINE
  8
DETAIL
  6
CONTINUOUS
 62
     5
 10
-106.27000000002769
 20
-146.39500000001141
 30
0.0
 11
-74.760000000009313
 21
-149.15412436548749
 31
0.0
  0
LINE
  8
DETAIL
  6
CONTINUOUS
 62
     5
 10
-71.760000000009313
 20
-244.6050000000032
 30
0.0
 11
-3.0
 21
-252.65378904502131
 31
0.0
  0
LINE
  8
DETAIL
  6
CONTINUOUS
 62
     5
 10
-71.760000000009313
 20
-242.53499999999619
 30
0.0
 11
-3.0
 21
-250.58382943145071
 31
0.0
  0
LINE
  8
DETAIL
  6
CONTINUOUS
 62
     5
 10
-71.760000000009313
 20
-224.13500000000201
 30
0.0
 11
-6.0
 21
-231.2878421052512
 31
0.0
  0
LINE
  8
DETAIL
  6
CONTINUOUS
 62
     5
 10
-71.760000000009313
 20
-225.97499999999849
 30
0.0
 11
-6.0
 21
-233.35857894737791
 31
0.0
  0
LINE
  8
DETAIL
  6
CONTINUOUS
 62
     5
 10
-71.760000000009313
 20
-236.32500000000439
 30
0.0
 11
-3.0
 21
-244.14386287625001
 31
0.0
  0
LINE
  8
DETAIL
  6
CONTINUOUS
 62
     5
 10
-71.760000000009313
 20
-234.2550000000119
 30
0.0
 11
-3.0
 21
-242.07386287625749
 31
0.0
  0
LINE
  8
DETAIL
  6
CONTINUOUS
 62
     5
 10
-6.0
 20
-200.4648947368529
 30
0.0
 11
-71.833324378872931
 21
-194.22805347989041
 31
0.0
  0
LINE
  8
DETAIL
  6
CONTINUOUS
 62
     5
 10
-106.04000000004631
 20
-237.93500000000489
 30
0.0
 11
-74.75
 21
-242.07500000000439
 31
0.0
  0
LINE
  8
DETAIL
  6
CONTINUOUS
 62
     5
 10
-0.000000000001819
 20
-198.99021486527391
 30
0.0
 11
-3.0
 21
-198.69300961635099
 31
0.0
  0
LINE
  8
DETAIL
  6
CONTINUOUS
 62
     5
 10
-6.0000000000009086
 20
-198.39580436742821
 30
0.0
 11
-106.04000000004631
 21
-188.48500000000789
 31
0.0
  0
LINE
  8
DETAIL
  6
CONTINUOUS
 62
     5
 10
-74.75
 20
-225.74500000000259
 30
0.0
 11
-106.27000000002769
 21
-221.6050000000032
 31
0.0
  0
LINE
  8
DETAIL
  6
CONTINUOUS
 62
     5
 10
-106.04000000004631
 20
-229.65500000000611
 30
0.0
 11
-74.75
 21
-234.02500000001601
 31
0.0
  0
LINE
  8
DETAIL
  6
CONTINUOUS
 62
     5
 10
-106.27000000002769
 20
-231.7250000000131
 30
0.0
 11
-74.75
 21
-235.86500000001249
 31
0.0
  0
LINE
  8
DETAIL
  6
CONTINUOUS
 62
     5
 10
-106.27000000002769
 20
-239.77500000000151
 30
0.0
 11
-74.75
 21
-244.3750000000073
 31
0.0
  0
LINE
  8
DETAIL
  6
CONTINUOUS
 62
     5
 10
-106.04000000004631
 20
-235.63500000001659
 30
0.0
 11
-74.75
 21
-240.23500000000789
 31
0.0
  0
LINE
  8
DETAIL
  6
CONTINUOUS
 62
     5
 10
-71.760000000009313
 20
-147.3150000000096
 30
0.0
 11
-6.0
 21
-152.16047368421911
 31
0.0
  0
LINE
  8
DETAIL
  6
CONTINUOUS
 62
     5
 10
-74.58985592190038
 20
-193.9974093565173
 30
0.0
 11
-106.27000000002769
 21
-190.55500000000029
 31
0.0
  0
LINE
  8
DETAIL
  6
CONTINUOUS
 62
     5
 10
-74.75
 20
-209.6449999999968
 30
0.0
 11
-106.04000000004631
 21
-205.73500000000789
 31
0.0
  0
LINE
  8
DETAIL
  6
CONTINUOUS
 62
     5
 10
-71.760000000009313
 20
-149.38500000001659
 30
0.0
 11
-6.0
 21
-153.99973684211051
 31
0.0
  0
LINE
  8
DETAIL
  6
CONTINUOUS
 62
     5
 10
-101.4400000000696
 20
-168.24500000000259
 30
0.0
 11
-106.04000000004631
 21
-167.78500000000989
 31
0.0
  0
LINE
  8
DETAIL
  6
CONTINUOUS
 62
     5
 10
-101.4400000000696
 20
-170.3150000000096
 30
0.0
 11
-106.27000000002769
 21
-169.8550000000034
 31
0.0
  0
ARC
  8
DETAIL
  6
CONTINUOUS
 62
     5
 10
-100.9829598382739
 20
-106.4380582571534
 30
0.0
 40
63.636949123036977
 50
199.418348162862
 51
265.23429911963831
  0
ARC
  8
DETAIL
  6
CONTINUOUS
 62
     5
 10
-99.530457657918305
 20
-103.59393616307651
 30
0.0
 40
64.520282222114702
 50
203.02358945035741
 51
264.20949578741778
  0
LINE
  8
DETAIL
  6
CONTINUOUS
 62
     5
 10
-71.760000000009313
 20
-240.46500000000381
 30
0.0
 11
-3.0
 21
-248.5138294314437
 31
0.0
  0
LINE
  8
DETAIL
  6
CONTINUOUS
 62
     5
 10
-71.760000000009313
 20
-122.70500000000899
 30
0.0
 11
-3.0
 21
-126.8443979933044
 31
0.0
  0
LINE
  8
DETAIL
  6
CONTINUOUS
 62
     5
 10
-71.760000000009313
 20
-120.86499999999801
 30
0.0
 11
-3.0
 21
-125.0043979933079
 31
0.0
  0
LINE
  8
DETAIL
  6
CONTINUOUS
 62
     5
 10
-71.760000000009313
 20
-94.1850000000195
 30
0.0
 11
-3.0
 21
-97.404531772580924
 31
0.0
  0
LINE
  8
DETAIL
  6
CONTINUOUS
 62
     5
 10
-71.760000000009313
 20
-92.344999999993888
 30
0.0
 11
-3.0
 21
-95.334565217404588
 31
0.0
  0
LINE
  8
DETAIL
  6
CONTINUOUS
 62
     5
 10
-74.760000000009313
 20
-211.4838324873019
 30
0.0
 11
-106.27000000002769
 21
-207.80500000000029
 31
0.0
  0
LINE
  8
DETAIL
  6
CONTINUOUS
 62
     5
 10
-74.75
 20
-223.67500000001019
 30
0.0
 11
-106.04000000004631
 21
-219.76500000000669
 31
0.0
  0
ARC
  8
DETAIL
  6
CONTINUOUS
 62
     5
 10
-105.42799106100389
 20
-52.279557095002303
 30
0.0
 40
66.058277999935513
 50
215.93938779106571
 51
269.46916522879559
  0
ARC
  8
DETAIL
  6
CONTINUOUS
 62
     5
 10
-105.2373193507001
 20
-53.70812024133977
 30
0.0
 40
66.704873876392966
 50
213.28395106115471
 51
269.11294927788958
  0
LINE
  8
DETAIL
  6
CONTINUOUS
 62
     5
 10
-106.04000000004631
 20
-118.3349999999991
 30
0.0
 11
-74.760000000009313
 21
-120.6342649408771
 31
0.0
  0
LINE
  8
DETAIL
  6
CONTINUOUS
 62
     5
 10
-106.27000000002769
 20
-120.4050000000061
 30
0.0
 11
-74.760000000009313
 21
-122.70427030457689
 31
0.0
  0
ARC
  8
DETAIL
  6
CONTINUOUS
 62
     5
 10
-103.3510368034476
 20
-8.2124416399019537
 30
0.0
 40
82.336478455922219
 50
227.56174321174171
 51
268.12848879040689
  0
ARC
  8
DETAIL
  6
CONTINUOUS
 62
     5
 10
-107.3344679516358
 20
-19.173509008943139
 30
0.0
 40
73.179233296567588
 50
222.8325517168937
 51
270.83345601310981
  0
LINE
  8
DETAIL
  6
CONTINUOUS
 62
     5
 10
-106.04000000004631
 20
-90.504999999997381
 30
0.0
 11
-74.760000000009313
 21
-92.114485458610488
 31
0.0
  0
LINE
  8
DETAIL
  6
CONTINUOUS
 62
     5
 10
-106.27000000002769
 20
-92.344999999993888
 30
0.0
 11
-74.760000000009313
 21
-94.184416243673809
 31
0.0
  0
ARC
  8
DETAIL
  6
CONTINUOUS
 62
     5
 10
-159.95565311140669
 20
-12.66217911769081
 30
0.0
 40
1.0543152222771821
 50
7.8850862928025274
 51
172.1149137071975
  0
ARC
  8
DETAIL
  6
CONTINUOUS
 62
     5
 10
-73.260000000009313
 20
-194.6912992807938
 30
0.0
 40
1.5
 50
0.0
 51
180.0
  0
ARC
  8
DETAIL
  6
CONTINUOUS
 62
     5
 10
-73.260000000009313
 20
-150.70443270675861
 30
0.0
 40
1.5
 50
180.0
 51
0.0
  0
LINE
  8
DETAIL
  6
CONTINUOUS
 62
     5
 10
-71.760000000009313
 20
-211.94499999999971
 30
0.0
 11
-6.0
 21
-218.63636842106141
 31
0.0
  0
LINE
  8
DETAIL
  6
CONTINUOUS
 62
     5
 10
-71.760000000009313
 20
-209.8750000000073
 30
0.0
 11
-6.0
 21
-216.7971052631701
 31
0.0
  0
ARC
  8
DETAIL
  6
CONTINUOUS
 62
     5
 10
-102.1654786595691
 20
-130.3240183106183
 30
0.0
 40
58.289893692571852
 50
193.21713486031419
 51
266.18874726641002
  0
ARC
  8
DETAIL
  6
CONTINUOUS
 62
     5
 10
-102.65612951425371
 20
-131.06504265245701
 30
0.0
 40
59.599623195960483
 50
191.78239124830091
 51
266.52369245923268
  0
LINE
  8
DETAIL
  6
CONTINUOUS
 62
     5
 10
-71.760000000009313
 20
-64.055000000014843
 30
0.0
 11
-3.0
 21
-66.124698996662516
 31
0.0
  0
LINE
  8
DETAIL
  6
CONTINUOUS
 62
     5
 10
-71.760000000009313
 20
-61.985000000007858
 30
0.0
 11
-3.0
 21
-64.284665551849912
 31
0.0
  0
ARC
  8
DETAIL
  6
CONTINUOUS
 62
     5
 10
-105.4666873973911
 20
41.82193276097604
 30
0.0
 40
102.66007575991711
 50
238.62763467609591
 51
269.55165733967289
  0
ARC
  8
DETAIL
  6
CONTINUOUS
 62
     5
 10
-108.503391056669
 20
30.673119245749259
 30
0.0
 40
93.604767171254153
 50
235.88659988900659
 51
271.36719560288958
  0
LINE
  8
DETAIL
  6
CONTINUOUS
 62
     5
 10
-106.27000000002769
 20
-60.835000000013679
 30
0.0
 11
-74.760000000009313
 21
-61.984635152291787
 31
0.0
  0
LINE
  8
DETAIL
  6
CONTINUOUS
 62
     5
 10
-106.27000000002769
 20
-62.905000000006112
 30
0.0
 11
-74.760000000009313
 21
-64.054635152298772
 31
0.0
  0
LINE
  8
DETAIL
  6
CONTINUOUS
 62
     5
 10
0.0
 20
-156.10413017566131
 30
0.0
 11
0.0
 21
156.10413017566131
 31
0.0
  0
LINE
  8
DETAIL
  6
CONTINUOUS
 62
     5
 10
-3.0
 20
-254.5
 30
0.0
 11
-3.0
 21
254.5
 31
0.0
  0
LINE
  8
DETAIL
  6
CONTINUOUS
 62
     5
 10
-74.760000000009313
 20
-150.70443270675861
 30
0.0
 11
-74.760000000009313
 21
150.70443270675861
 31
0.0
  0
LINE
  8
DETAIL
  6
CONTINUOUS
 62
     5
 10
-71.760000000009313
 20
-150.70443270675861
 30
0.0
 11
-71.760000000009313
 21
150.70443270675861
 31
0.0
  0
LINE
  8
DETAIL
  6
CONTINUOUS
 62
     5
 10
-164.0
 20
-164.98100955806879
 30
0.0
 11
-164.0
 21
164.98100955806879
 31
0.0
  0
LINE
  8
DETAIL
  6
CONTINUOUS
 62
     5
 10
-160.99999999999909
 20
180.12474208992089
 30
0.0
 11
-160.99999999999909
 21
-180.12474208992089
 31
0.0
  0
LINE
  8
DETAIL
  6
CONTINUOUS
 62
     5
 10
-158.91130622281341
 20
-133.52189710270849
 30
0.0
 11
-158.91130622281341
 21
-143.65153724153191
 31
0.0
  0
LINE
  8
DETAIL
  6
CONTINUOUS
 62
     5
 10
-158.91130622281341
 20
-12.517541072173341
 30
0.0
 11
-158.91130622281341
 21
-22.404870442471971
 31
0.0
  0
LINE
  8
DETAIL
  6
CONTINUOUS
 62
     5
 10
-158.91130622281341
 20
-71.087186781012861
 30
0.0
 11
-158.9113062228125
 21
-91.051081331474848
 31
0.0
  0
LINE
  8
DETAIL
  6
CONTINUOUS
 62
     5
 10
-158.9113062228125
 20
-165.9718270781986
 30
0.0
 11
-158.9113062228125
 21
-169.30861881351299
 31
0.0
  0
LINE
  8
DETAIL
  6
CONTINUOUS
 62
     5
 10
-158.9113062228125
 20
-150.74930485832201
 30
0.0
 11
-158.9113062228125
 21
-157.8658564401033
 31
0.0
  0
LINE
  8
DETAIL
  6
CONTINUOUS
 62
     5
 10
-158.91130622281341
 20
-93.314222449430474
 30
0.0
 11
-158.91130622281341
 21
-110.8884688857905
 31
0.0
  0
LINE
  8
DETAIL
  6
CONTINUOUS
 62
     5
 10
-158.91130622281341
 20
-114.1067139269595
 30
0.0
 11
-158.91130622281341
 21
-128.82846888580059
 31
0.0
  0
LINE
  8
DETAIL
  6
CONTINUOUS
 62
     5
 10
-158.91130622281341
 20
-24.222261466422989
 30
0.0
 11
-158.91130622281341
 21
-45.82944414570585
 31
0.0
  0
LINE
  8
DETAIL
  6
CONTINUOUS
 62
     5
 10
-158.91130622281341
 20
-48.199528267742103
 30
0.0
 11
-158.91130622281341
 21
-68.977169456045431
 31
0.0
  0
ARC
  8
DETAIL
  6
CONTINUOUS
 62
     5
 10
-4.5
 20
-238.8750000000237
 30
0.0
 40
1.5
 50
180.0
 51
0.0
  0
LINE
  8
DETAIL
  6
CONTINUOUS
 62
     5
 10
-6.0
 20
-238.8750000000237
 30
0.0
 11
-6.0
 21
-145.66759135714639
 31
0.0
  0
ARC
  8
DETAIL
  6
CONTINUOUS
 62
     5
 10
-4.5
 20
-145.66759135714639
 30
0.0
 40
1.5
 50
0.0
 51
180.0
  0
ARC
  8
DETAIL
  6
CONTINUOUS
 62
     5
 10
-102.9300000000603
 20
-189.87342760618949
 30
0.0
 40
1.5
 50
217.6077246643176
 51
309.98925676317617
  0
LINE
  8
DETAIL
  6
CONTINUOUS
 62
     5
 10
-104.4300000000603
 20
-141.77247781874931
 30
0.0
 11
-104.4300000000603
 21
-144.46701342282219
 31
0.0
  0
LINE
  8
DETAIL
  6
CONTINUOUS
 62
     5
 10
-104.4300000000603
 20
-146.55611675127699
 30
0.0
 11
-104.4300000000603
 21
-167.94600000000679
 31
0.0
  0
LINE
  8
DETAIL
  6
CONTINUOUS
 62
     5
 10
-104.4300000000603
 20
-170.0302380952422
 30
0.0
 11
-104.4300000000603
 21
-188.64450015026179
 31
0.0
  0
LINE
  8
DETAIL
  6
CONTINUOUS
 62
     5
 10
-101.4300000000603
 20
-141.77247781874931
 30
0.0
 11
-101.4300000000603
 21
-144.73163470757819
 31
0.0
  0
LINE
  8
DETAIL
  6
CONTINUOUS
 62
     5
 10
-101.4300000000603
 20
-146.81880710660641
 30
0.0
 11
-101.4300000000603
 21
-188.94170539918471
 31
0.0
  0
ARC
  8
DETAIL
  6
CONTINUOUS
 62
     5
 10
-102.9300000000603
 20
-141.77247781874931
 30
0.0
 40
1.5
 50
0.0
 51
180.0
  0
ARC
  8
DETAIL
  6
CONTINUOUS
 62
     5
 10
-137.65999999992621
 20
-179.2975075987213
 30
0.0
 40
1.5
 50
180.0
 51
0.0
  0
LINE
  8
DETAIL
  6
CONTINUOUS
 62
     5
 10
-139.15999999992621
 20
-132.50828833273749
 30
0.0
 11
-139.15999999992621
 21
-133.13213672433611
 31
0.0
  0
LINE
  8
DETAIL
  6
CONTINUOUS
 62
     5
 10
-139.15999999992621
 20
-135.8812286704871
 30
0.0
 11
-139.15999999992621
 21
-154.5092206244673
 31
0.0
  0
LINE
  8
DETAIL
  6
CONTINUOUS
 62
     5
 10
-139.15999999992621
 20
-157.35146413599429
 30
0.0
 11
-139.15999999992621
 21
-175.36974061017969
 31
0.0
  0
LINE
  8
DETAIL
  6
CONTINUOUS
 62
     5
 10
-139.15999999992621
 20
-178.1774881914624
 30
0.0
 11
-139.15999999992621
 21
-179.2975075987213
 31
0.0
  0
LINE
  8
DETAIL
  6
CONTINUOUS
 62
     5
 10
-136.15999999992621
 20
-132.50828833273749
 30
0.0
 11
-136.15999999992621
 21
-135.09021393311139
 31
0.0
  0
LINE
  8
DETAIL
  6
CONTINUOUS
 62
     5
 10
-136.15999999992621
 20
-137.78087095991259
 30
0.0
 11
-136.15999999992621
 21
-156.70837342674719
 31
0.0
  0
LINE
  8
DETAIL
  6
CONTINUOUS
 62
     5
 10
-136.15999999992621
 20
-159.4685885124085
 30
0.0
 11
-136.15999999992709
 21
-177.6746701068848
 31
0.0
  0
ARC
  8
DETAIL
  6
CONTINUOUS
 62
     5
 10
-137.65999999992621
 20
-132.50828833273749
 30
0.0
 40
1.5
 50
0.0
 51
180.0
  0
LINE
  8
DETAIL
  6
CONTINUOUS
 62
     5
 10
-71.760000000009313
 20
-33.005000000011933
 30
0.0
 11
-3.0
 21
-33.924866220745862
 31
0.0
  0
LINE
  8
DETAIL
  6
CONTINUOUS
 62
     5
 10
-71.75999457008038
 20
-30.934999323120909
 30
0.0
 11
-3.0
 21
-31.85486622073887
 31
0.0
  0
ARC
  8
DETAIL
  6
CONTINUOUS
 62
     5
 10
-106.3742216177689
 20
149.7011352918997
 30
0.0
 40
179.9461654735581
 50
253.0246644306616
 51
270.0331846980315
  0
ARC
  8
DETAIL
  6
CONTINUOUS
 62
     5
 10
-103.44518879818411
 20
161.31556323906429
 30
0.0
 40
193.65116725340661
 50
252.70997208378429
 51
269.16419042307422
  0
LINE
  8
DETAIL
  6
CONTINUOUS
 62
     5
 10
-106.27000000002769
 20
-30.245000000002619
 30
0.0
 11
-74.760000000009313
 21
-30.704854060922571
 31
0.0
  0
LINE
  8
DETAIL
  6
CONTINUOUS
 62
     5
 10
-106.27000000002769
 20
-32.315000000009597
 30
0.0
 11
-74.760000000009313
 21
-32.774854060929563
 31
0.0
  0
LINE
  8
OUTLINE
  6
CONTINUOUS
 62
     3
 10
-160.99999999999909
 20
-178.9049999999468
 30
0.0
 11
-161.0
 21
-164.98100955806879
 31
0.0
  0
ARC
  8
OUTLINE
  6
CONTINUOUS
 62
     3
 10
-162.5
 20
-164.98100955806879
 30
0.0
 40
1.5
 50
180.0
 51
0.0
  0
LINE
  8
OUTLINE
  6
CONTINUOUS
 62
     3
 10
-164.0
 20
-164.98100955806879
 30
0.0
 11
-164.0
 21
164.98100955806879
 31
0.0
  0
ARC
  8
OUTLINE
  6
CONTINUOUS
 62
     3
 10
-162.5
 20
164.98100955806879
 30
0.0
 40
1.5
 50
0.0
 51
180.0
  0
LINE
  8
OUTLINE
  6
CONTINUOUS
 62
     3
 10
-161.0
 20
164.98100955806879
 30
0.0
 11
-160.99999999999909
 21
178.90499999995129
 31
0.0
  0
ARC
  8
OUTLINE
  6
CONTINUOUS
 62
     3
 10
-100.46387631108624
 20
179.51487104494763
 30
0.0
 40
60.539195683217343
 50
95.503516951942856
 51
180.57720667728904
  0
LINE
  8
OUTLINE
  6
CONTINUOUS
 62
     3
 10
-106.2700000000486
 20
239.77499999999841
 30
0.0
 11
-74.760000000009313
 21
244.37354060914299
 31
0.0
  0
LINE
  8
OUTLINE
  6
CONTINUOUS
 62
     3
 10
-74.760000000009313
 20
244.37354060914299
 30
0.0
 11
-74.760000000009313
 21
245.79241208287749
 31
0.0
  0
ARC
  8
OUTLINE
  6
CONTINUOUS
 62
     3
 10
-73.260000000009313
 20
245.79241208287749
 30
0.0
 40
1.5
 50
0.0
 51
180.0
  0
LINE
  8
OUTLINE
  6
CONTINUOUS
 62
     3
 10
-71.760000000009313
 20
245.79241208287749
 30
0.0
 11
-71.760000000009313
 21
244.60500000000329
 31
0.0
  0
LINE
  8
OUTLINE
  6
CONTINUOUS
 62
     3
 10
-71.760000000009313
 20
244.60500000000329
 30
0.0
 11
-3.0
 21
252.6537890450214
 31
0.0
  0
LINE
  8
OUTLINE
  6
CONTINUOUS
 62
     3
 10
-3.0
 20
252.6537890450214
 30
0.0
 11
-3.0
 21
254.5
 31
0.0
  0
ARC
  8
OUTLINE
  6
CONTINUOUS
 62
     3
 10
-1.5
 20
254.49999999999994
 30
0.0
 40
1.5
 50
0.0
 51
180.0
  0
LINE
  8
OUTLINE
  6
CONTINUOUS
 62
     3
 10
0.0
 20
254.49999999999989
 30
0.0
 11
-0.0000000000027285
 21
198.99021486527371
 31
0.0
  0
LINE
  8
OUTLINE
  6
CONTINUOUS
 62
     3
 10
-0.0000000000027285
 20
198.99021486527371
 30
0.0
 11
-3.0
 21
198.69300961635111
 31
0.0
  0
LINE
  8
OUTLINE
  6
CONTINUOUS
 62
     3
 10
-3.0
 20
198.69300961635111
 30
0.0
 11
-3.0
 21
156.10413017566131
 31
0.0
  0
ARC
  8
OUTLINE
  6
CONTINUOUS
 62
     3
 10
-1.5
 20
156.10413017566131
 30
0.0
 40
1.5
 50
0.0
 51
180.0
  0
LINE
  8
OUTLINE
  6
CONTINUOUS
 62
     3
 10
0.0
 20
156.10413017566131
 30
0.0
 11
0.0
 21
-156.10413017566131
 31
0.0
  0
ARC
  8
OUTLINE
  6
CONTINUOUS
 62
     3
 10
-1.5
 20
-156.10413017566131
 30
0.0
 40
1.5
 50
180.0
 51
0.0
  0
LINE
  8
OUTLINE
  6
CONTINUOUS
 62
     3
 10
-3.0
 20
-156.10413017566131
 30
0.0
 11
-3.0
 21
-198.69300961635099
 31
0.0
  0
LINE
  8
OUTLINE
  6
CONTINUOUS
 62
     3
 10
-3.0
 20
-198.69300961635099
 30
0.0
 11
-0.0000000000027285
 21
-198.9902148652738
 31
0.0
  0
LINE
  8
OUTLINE
  6
CONTINUOUS
 62
     3
 10
-0.0000000000027285
 20
-198.9902148652738
 30
0.0
 11
0.0
 21
-254.49999999999989
 31
0.0
  0
ARC
  8
OUTLINE
  6
CONTINUOUS
 62
     3
 10
-1.5
 20
-254.49999999999994
 30
0.0
 40
1.5
 50
180.0
 51
0.0
  0
LINE
  8
OUTLINE
  6
CONTINUOUS
 62
     3
 10
-3.0
 20
-254.5
 30
0.0
 11
-3.0
 21
-252.65378904502131
 31
0.0
  0
LINE
  8
OUTLINE
  6
CONTINUOUS
 62
     3
 10
-3.0
 20
-252.65378904502131
 30
0.0
 11
-71.760000000009313
 21
-244.6050000000032
 31
0.0
  0
LINE
  8
OUTLINE
  6
CONTINUOUS
 62
     3
 10
-71.760000000009313
 20
-244.6050000000032
 30
0.0
 11
-71.760000000009313
 21
-245.79241208287749
 31
0.0
  0
ARC
  8
OUTLINE
  6
CONTINUOUS
 62
     3
 10
-73.260000000009313
 20
-245.79241208287749
 30
0.0
 40
1.5
 50
180.0
 51
0.0
  0
LINE
  8
OUTLINE
  6
CONTINUOUS
 62
     3
 10
-74.760000000009313
 20
-245.79241208287749
 30
0.0
 11
-74.760000000009313
 21
-244.37354060914299
 31
0.0
  0
LINE
  8
OUTLINE
  6
CONTINUOUS
 62
     3
 10
-74.760000000009313
 20
-244.37354060914299
 30
0.0
 11
-106.27000000004951
 21
-239.7749999999983
 31
0.0
  0
ARC
  8
OUTLINE
  6
CONTINUOUS
 62
     3
 10
-100.46387631108598
 20
-179.51487104494731
 30
0.0
 40
60.539195683217635
 50
179.42279332270698
 51
264.49648304805601
  0
TEXT
  8
ETC
  6
CONTINUOUS
 62
    61
 10
268.10311843107962
 20
347.99209361089299
 30
0.0
 40
64.0
  1
G-40XD3_4
 41
0.9
  0
TEXT
  8
ETC
  6
CONTINUOUS
 62
    61
 10
314.61852267963508
 20
121.88801070983641
 30
0.0
 40
40.0
  1
G-40XD3
 50
0.0
 41
0.9
 51
0.0
  7
STANDARD
 71
     0
 11
0.0
 21
0.0
 31
0.0
210
0.0
220
0.0
230
1.0
  0
TEXT
  8
ETC
  6
CONTINUOUS
 62
    61
 10
314.61852267963508
 20
55.888010709836408
 30
0.0
 40
40.0
  1
G-40XD3-F
 50
0.0
 41
0.9
 51
0.0
  7
STANDARD
 71
     0
 11
0.0
 21
0.0
 31
0.0
210
0.0
220
0.0
230
1.0
  0
TEXT
  8
ETC
  6
CONTINUOUS
 62
    61
 10
263.91712443108008
 20
230.03678359606181
 30
0.0
 40
64.0
  1
システム部材
 41
0.9
  0
ENDSEC
  0
EOF
