  0
SECTION
  2
HEADER
  9
$ACADVER
  1
AC1009
  9
$DWGCODEPAGE
  3
dos932
  9
$INSBASE
 10
0.0
 20
0.0
 30
0.0
  9
$EXTMIN
 10
-179.91483887880531
 20
-324.27977331015239
 30
-0.0000000349181948
  9
$EXTMAX
 10
765.43122464258886
 20
487.06055477617878
 30
0.0000000814935746
  9
$LIMMIN
 10
-2970.0
 20
-2100.0
  9
$LIMMAX
 10
2970.0
 20
2100.0
  9
$ORTHOMODE
 70
     1
  9
$REGENMODE
 70
     1
  9
$FILLMODE
 70
     1
  9
$QTEXTMODE
 70
     0
  9
$MIRRTEXT
 70
     0
  9
$LTSCALE
 40
20.0
  9
$ATTMODE
 70
     1
  9
$TEXTSIZE
 40
64.0
  9
$TRACEWID
 40
0.05
  9
$TEXTSTYLE
  7
STANDARD
  9
$CLAYER
  8
SIZE
  9
$CELTYPE
  6
CONTINUOUS
  9
$CECOLOR
 62
     7
  9
$DIMSCALE
 40
1.0
  9
$DIMASZ
 40
12.0
  9
$DIMEXO
 40
20.0
  9
$DIMDLI
 40
200.0
  9
$DIMRND
 40
0.0
  9
$DIMDLE
 40
0.0
  9
$DIMEXE
 40
20.0
  9
$DIMTP
 40
0.0
  9
$DIMTM
 40
0.0
  9
$DIMTXT
 40
64.0
  9
$DIMCEN
 40
0.09
  9
$DIMTSZ
 40
0.0
  9
$DIMTOL
 70
     0
  9
$DIMLIM
 70
     0
  9
$DIMTIH
 70
     0
  9
$DIMTOH
 70
     0
  9
$DIMSE1
 70
     0
  9
$DIMSE2
 70
     0
  9
$DIMTAD
 70
     1
  9
$DIMZIN
 70
     8
  9
$DIMBLK
  1

  9
$DIMASO
 70
     1
  9
$DIMSHO
 70
     0
  9
$DIMPOST
  1

  9
$DIMAPOST
  1

  9
$DIMALT
 70
     0
  9
$DIMALTD
 70
     2
  9
$DIMALTF
 40
25.399999999999999
  9
$DIMLFAC
 40
1.0
  9
$DIMTOFL
 70
     1
  9
$DIMTVP
 40
0.0
  9
$DIMTIX
 70
     1
  9
$DIMSOXD
 70
     0
  9
$DIMSAH
 70
     0
  9
$DIMBLK1
  1

  9
$DIMBLK2
  1

  9
$DIMSTYLE
  2
STANDARD
  9
$DIMCLRD
 70
     7
  9
$DIMCLRE
 70
     7
  9
$DIMCLRT
 70
     7
  9
$DIMTFAC
 40
1.0
  9
$DIMGAP
 40
25.0
  9
$LUNITS
 70
     2
  9
$LUPREC
 70
     4
  9
$SKETCHINC
 40
0.1
  9
$FILLETRAD
 40
3.0
  9
$AUNITS
 70
     1
  9
$AUPREC
 70
     3
  9
$MENU
  1
ACAD
  9
$ELEVATION
 40
0.0
  9
$PELEVATION
 40
0.0
  9
$THICKNESS
 40
0.0
  9
$LIMCHECK
 70
     0
  9
$CHAMFERA
 40
0.0
  9
$CHAMFERB
 40
0.0
  9
$SKPOLY
 70
     0
  9
$TDCREATE
 40
2453019.62301037
  9
$TDUPDATE
 40
2459375.455837489
  9
$TDINDWG
 40
1.7182104282
  9
$TDUSRTIMER
 40
1.7182104282
  9
$USRTIMER
 70
     1
  9
$ANGBASE
 50
0.0
  9
$ANGDIR
 70
     0
  9
$PDMODE
 70
     3
  9
$PDSIZE
 40
-2.0
  9
$PLINEWID
 40
0.0
  9
$SPLFRAME
 70
     0
  9
$SPLINETYPE
 70
     6
  9
$SPLINESEGS
 70
     8
  9
$SURFTAB1
 70
     6
  9
$SURFTAB2
 70
     6
  9
$SURFTYPE
 70
     6
  9
$SURFU
 70
     6
  9
$SURFV
 70
     6
  9
$UCSNAME
  2

  9
$UCSORG
 10
0.0
 20
0.0
 30
0.0
  9
$UCSXDIR
 10
1.0
 20
0.0
 30
0.0
  9
$UCSYDIR
 10
0.0
 20
1.0
 30
0.0
  9
$PUCSNAME
  2

  9
$PUCSORG
 10
0.0
 20
0.0
 30
0.0
  9
$PUCSXDIR
 10
1.0
 20
0.0
 30
0.0
  9
$PUCSYDIR
 10
0.0
 20
1.0
 30
0.0
  9
$USERI1
 70
     0
  9
$USERI2
 70
     0
  9
$USERI3
 70
     0
  9
$USERI4
 70
     0
  9
$USERI5
 70
     0
  9
$USERR1
 40
20.0
  9
$USERR2
 40
0.0
  9
$USERR3
 40
0.0
  9
$USERR4
 40
0.0
  9
$USERR5
 40
0.0
  9
$WORLDVIEW
 70
     1
  9
$SHADEDGE
 70
     3
  9
$SHADEDIF
 70
    70
  9
$TILEMODE
 70
     1
  9
$MAXACTVP
 70
    48
  9
$PINSBASE
 10
0.0
 20
0.0
 30
0.0
  9
$PLIMCHECK
 70
     0
  9
$PEXTMIN
 10
-100000000000000000000.0
 20
-100000000000000000000.0
 30
-100000000000000000000.0
  9
$PEXTMAX
 10
100000000000000000000.0
 20
100000000000000000000.0
 30
100000000000000000000.0
  9
$PLIMMIN
 10
0.0
 20
0.0
  9
$PLIMMAX
 10
12.0
 20
9.0
  9
$UNITMODE
 70
     0
  9
$VISRETAIN
 70
     0
  9
$PLINEGEN
 70
     0
  9
$PSLTSCALE
 70
     0
  9
$TREEDEPTH
 70
  3020
  9
$ATTDIA
 70
     0
  9
$ATTREQ
 70
     1
  9
$BLIPMODE
 70
     1
  9
$COORDS
 70
     1
  9
$DRAGMODE
 70
     2
  9
$OSMODE
 70
     0
  9
$HANDLING
 70
     0
  9
$HANDSEED
  5
F0EA
  0
ENDSEC
  0
SECTION
  2
TABLES
  0
TABLE
  2
LTYPE
 70
     2
  0
LTYPE
  2
CONTINUOUS
 70
     0
  3
実線
 72
    65
 73
     0
 40
0.0
  0
LTYPE
  2
DASHDOT
 70
     0
  3
____ _ ____ _ ____ _ ____ _ ____ _ ____ _ ____
 72
    65
 73
     4
 40
5.5
 49
4.0
 49
-0.6
 49
0.3
 49
-0.6
  0
ENDTAB
  0
TABLE
  2
LAYER
 70
    12
  0
LAYER
  2
0
 70
     0
 62
     7
  6
CONTINUOUS
  0
LAYER
  2
BASIS
 70
     0
 62
     6
  6
DASHDOT
  0
LAYER
  2
OUTLINE
 70
     0
 62
     3
  6
CONTINUOUS
  0
LAYER
  2
DETAIL
 70
     0
 62
     5
  6
CONTINUOUS
  0
LAYER
  2
SIZE
 70
     0
 62
    30
  6
CONTINUOUS
  0
LAYER
  2
ARRANGE
 70
     0
 62
     1
  6
CONTINUOUS
  0
LAYER
  2
DEFPOINTS
 70
     0
 62
     7
  6
CONTINUOUS
  0
LAYER
  2
ETC
 70
     0
 62
    61
  6
CONTINUOUS
  0
LAYER
  2
FIX
 70
    64
 62
    11
  6
CONTINUOUS
  0
LAYER
  2
NOTE
 70
    64
 62
     4
  6
CONTINUOUS
  0
LAYER
  2
SERVICESPACE
 70
    64
 62
     2
  6
DASHDOT
  0
LAYER
  2
SYMBOLLINE
 70
    64
 62
    15
  6
CONTINUOUS
  0
ENDTAB
  0
TABLE
  2
STYLE
 70
     1
  0
STYLE
  2
STANDARD
 70
     0
 40
64.0
 41
0.9
 50
0.0
 71
     0
 42
64.0
  3
SIMPLEX.shx
  4
BIGFONT.shx
  0
ENDTAB
  0
TABLE
  2
APPID
 70
    19
  0
APPID
  2
ACAD
 70
     0
  0
APPID
  2
AUTOCAD_POSTSCRIPT_FIGURE
 70
     0
  0
APPID
  2
ACAD_EXEMPT_FROM_CAD_STANDARDS
 70
     0
  0
APPID
  2
ACAD_PSEXT
 70
     0
  0
APPID
  2
ACAUTHENVIRON
 70
     0
  0
APPID
  2
GENIUS_GENOENT_13
 70
     0
  0
APPID
  2
GENIUS_GENCFG_13
 70
     0
  0
APPID
  2
GENIUS_GENCFG0_13
 70
     0
  0
APPID
  2
GENIUS_GENCFG1_13
 70
     0
  0
APPID
  2
GENIUS_GENCFG2_13
 70
     0
  0
APPID
  2
GENIUS_GENCFG3_13
 70
     0
  0
APPID
  2
GENIUS_GENCFG4_13
 70
     0
  0
APPID
  2
GENIUS_GEVCFG0_13
 70
     0
  0
APPID
  2
CONTENTBLOCKICON
 70
     0
  0
APPID
  2
CONTENTBLOCKDESCRIPTION
 70
     0
  0
APPID
  2
ACAD_NAV_VCDISPLAY
 70
     0
  0
APPID
  2
ACAD_MLEADERVER
 70
     0
  0
APPID
  2
ACDBDYNAMICBLOCKTRUENAME
 70
     0
  0
APPID
  2
ACDBDYNAMICBLOCKGUID
 70
     0
  0
ENDTAB
  0
TABLE
  2
DIMSTYLE
 70
     1
  0
DIMSTYLE
  2
STANDARD
 70
     0
  3

  4

  5
_ORIGIN
  6

  7

 40
1.0
 41
12.0
 42
20.0
 43
200.0
 44
20.0
 45
0.0
 46
0.0
 47
0.0
 48
0.0
140
64.0
141
0.09
142
0.0
143
25.399999999999999
144
1.0
145
0.0
146
1.0
147
25.0
 71
     0
 72
     0
 73
     0
 74
     0
 75
     0
 76
     0
 77
     1
 78
     8
170
     0
171
     2
172
     1
173
     0
174
     1
175
     0
176
     7
177
     7
178
     7
  0
ENDTAB
  0
TABLE
  2
VIEW
 70
     1
  0
VIEW
  2
ALL
 70
     0
 40
4282.6198079999986
 10
0.0
 20
41.309904000000003
 41
5940.0
 11
0.0
 21
0.0
 31
1.0
 12
0.0
 22
0.0
 32
0.0
 42
50.0
 43
0.0
 44
0.0
 50
0.0
 71
     0
  0
ENDTAB
  0
TABLE
  2
UCS
 70
     0
  0
ENDTAB
  0
TABLE
  2
VPORT
 70
     1
  0
VPORT
  2
*ACTIVE
 70
     0
 10
0.0
 20
0.0
 11
1.0
 21
1.0
 12
292.75819288189177
 22
81.390390733013191
 13
0.0
 23
0.0
 14
1.0
 24
1.0
 15
0.0
 25
0.0
 16
0.0
 26
0.0
 36
1.0
 17
0.0
 27
0.0
 37
0.0
 40
816.77948112378158
 41
1.767337807606264
 42
50.0
 43
0.0
 44
0.0
 50
0.0
 51
0.0
 71
     0
 72
  1000
 73
     1
 74
     3
 75
     0
 76
     0
 77
     0
 78
     0
  0
ENDTAB
  0
ENDSEC
  0
SECTION
  2
BLOCKS
  0
BLOCK
  8
0
  2
_ORIGIN
 70
     0
 10
0.0
 20
0.0
 30
0.0
  3
_ORIGIN
  1
_ORIGIN
  0
CIRCLE
  8
SIZE
  6
CONTINUOUS
 62
    30
 10
0.0
 20
0.0
 30
0.0
 40
0.5
  0
LINE
  8
SIZE
  6
CONTINUOUS
 62
    30
 10
0.0
 20
0.0
 30
0.0
 11
-1.0
 21
0.0
 31
0.0
  0
ENDBLK
  8
0
  0
ENDSEC
  0
SECTION
  2
ENTITIES
  0
LINE
  8
BASIS
  6
DASHDOT
 62
     6
 10
207.90897497196599
 20
0.0
 30
0.0
 11
-59.315399726721807
 21
0.0
 31
0.0
  0
CIRCLE
  8
ARRANGE
  6
CONTINUOUS
 62
     1
 10
0.0
 20
0.0
 30
0.0
 40
40.0
  0
POINT
  8
ARRANGE
  6
CONTINUOUS
 62
     1
 10
0.0
 20
0.0
 30
0.0
 50
180.0
  0
ARC
  8
DETAIL
  6
CONTINUOUS
 62
     5
 10
1.5
 20
316.49999999999989
 30
0.0
 40
1.5
 50
0.000000000000007
 51
180.0
  0
LINE
  8
DETAIL
  6
CONTINUOUS
 62
     5
 10
0.0
 20
316.49999999999989
 30
0.0
 11
0.0
 21
245.36439612064839
 31
0.0
  0
ARC
  8
DETAIL
  6
CONTINUOUS
 62
     5
 10
198.5
 20
207.98100955806859
 30
0.0
 40
1.5
 50
0.000000000000007
 51
180.0
  0
ARC
  8
DETAIL
  6
CONTINUOUS
 62
     5
 10
115.8214088001596
 20
302.39905079781232
 30
0.0
 40
1.5
 50
0.000000000000007
 51
180.0
  0
ARC
  8
DETAIL
  6
CONTINUOUS
 62
     5
 10
1.5
 20
200.04721343859629
 30
0.0
 40
1.5
 50
0.000000000000007
 51
180.0
  0
ARC
  8
DETAIL
  6
CONTINUOUS
 62
     5
 10
1.5
 20
245.36439612064839
 30
0.0
 40
1.5
 50
180.0
 51
0.000000000000007
  0
ARC
  8
DETAIL
  6
CONTINUOUS
 62
     5
 10
127.3946489086256
 20
196.0758147442167
 30
0.0
 40
70.544018873134263
 50
9.3572068736337464
 51
84.226519787686996
  0
ARC
  8
DETAIL
  6
CONTINUOUS
 62
     5
 10
128.11806084377349
 20
196.66808519628361
 30
0.0
 40
67.493592674684422
 50
8.2611277791266442
 51
84.807030079614535
  0
ARC
  8
DETAIL
  6
CONTINUOUS
 62
     5
 10
126.8062011493985
 20
208.27420464658749
 30
0.0
 40
68.691594870013859
 50
6.4790405930663342
 51
83.798252456576748
  0
ARC
  8
DETAIL
  6
CONTINUOUS
 62
     5
 10
127.792879522226
 20
209.69001397334671
 30
0.0
 40
69.574300996148125
 50
5.8890359427444956
 51
84.475345074143291
  0
ARC
  8
DETAIL
  6
CONTINUOUS
 62
     5
 10
126.11765041006041
 20
227.70851534789639
 30
0.0
 40
71.010895187069806
 50
3.4480160236226549
 51
83.228066655632432
  0
ARC
  8
DETAIL
  6
CONTINUOUS
 62
     5
 10
128.72404452223691
 20
232.9189670221098
 30
0.0
 40
63.16783842029988
 50
46.592000591511173
 51
85.002323966774469
  0
ARC
  8
DETAIL
  6
CONTINUOUS
 62
     5
 10
124.8595445172332
 20
215.99276773967671
 30
0.0
 40
70.965491998776983
 50
10.64944143862672
 51
82.414866814185856
  0
ARC
  8
DETAIL
  6
CONTINUOUS
 62
     5
 10
129.60802411207081
 20
181.8972497329147
 30
0.0
 40
66.563071999596758
 50
11.164964952359499
 51
86.020965290644185
  0
ARC
  8
DETAIL
  6
CONTINUOUS
 62
     5
 10
129.78828460129441
 20
182.51165915227429
 30
0.0
 40
68.32758431305723
 50
10.369050953993421
 51
86.053371842524896
  0
ARC
  8
DETAIL
  6
CONTINUOUS
 62
     5
 10
129.2442338929886
 20
112.6327341539051
 30
0.0
 40
73.760658504968035
 50
27.092513958927459
 51
86.126591697366777
  0
ARC
  8
DETAIL
  6
CONTINUOUS
 62
     5
 10
129.93786476681629
 20
114.28850912603789
 30
0.0
 40
74.189438975457264
 50
25.320307960421001
 51
86.481384458325024
  0
LINE
  8
DETAIL
  6
CONTINUOUS
 62
     5
 10
134.22693200009959
 20
186.2249040000232
 30
0.0
 11
117.3214088001596
 21
187.54564799999631
 31
0.0
  0
LINE
  8
DETAIL
  6
CONTINUOUS
 62
     5
 10
134.49108080001679
 20
188.33809440001559
 30
0.0
 11
117.3214088001596
 21
189.6588384000182
 31
0.0
  0
LINE
  8
DETAIL
  6
CONTINUOUS
 62
     5
 10
114.3214088001596
 20
300.58032077740569
 30
0.0
 11
3.0000000000009091
 21
314.35808562257409
 31
0.0
  0
LINE
  8
DETAIL
  6
CONTINUOUS
 62
     5
 10
114.3214088001596
 20
298.2029815774066
 30
0.0
 11
3.0000000000009091
 21
311.98074642260502
 31
0.0
  0
LINE
  8
DETAIL
  6
CONTINUOUS
 62
     5
 10
114.3214088001596
 20
281.03452190178228
 30
0.0
 11
3.0000000000009091
 21
294.01741569820013
 31
0.0
  0
LINE
  8
DETAIL
  6
CONTINUOUS
 62
     5
 10
114.3214088001596
 20
288.43028419365839
 30
0.0
 11
3.0000000000009091
 21
301.67813500633639
 31
0.0
  0
LINE
  8
DETAIL
  6
CONTINUOUS
 62
     5
 10
114.3214088001596
 20
295.03360008551527
 30
0.0
 11
3.0000000000009091
 21
308.54640791445343
 31
0.0
  0
LINE
  8
DETAIL
  6
CONTINUOUS
 62
     5
 10
114.3214088001596
 20
290.80762339365748
 30
0.0
 11
3.0000000000009091
 21
304.05547420633542
 31
0.0
  0
LINE
  8
DETAIL
  6
CONTINUOUS
 62
     5
 10
5.9999999999990914
 20
261.51505426818392
 30
0.0
 11
114.3214088001605
 21
250.39563355060969
 31
0.0
  0
LINE
  8
DETAIL
  6
CONTINUOUS
 62
     5
 10
134.22693200009959
 20
295.84665600000909
 30
0.0
 11
117.3214088001596
 21
297.95984640000182
 31
0.0
  0
LINE
  8
DETAIL
  6
CONTINUOUS
 62
     5
 10
5.9999999999990914
 20
263.89239346818277
 30
0.0
 11
114.3214088001605
 21
252.7729727506086
 31
0.0
  0
LINE
  8
DETAIL
  6
CONTINUOUS
 62
     5
 10
117.3214088001596
 20
268.11103200001202
 30
0.0
 11
134.49108080001679
 21
266.26199039999648
 31
0.0
  0
LINE
  8
DETAIL
  6
CONTINUOUS
 62
     5
 10
134.22693200009959
 20
276.56379360001148
 30
0.0
 11
117.3214088001596
 21
278.4128351999974
 31
0.0
  0
LINE
  8
DETAIL
  6
CONTINUOUS
 62
     5
 10
134.49108080001679
 20
278.94113280001051
 30
0.0
 11
117.3214088001596
 21
280.79017439999632
 31
0.0
  0
LINE
  8
DETAIL
  6
CONTINUOUS
 62
     5
 10
134.49108080001679
 20
298.22399520000812
 30
0.0
 11
117.3214088001596
 21
300.33718560000068
 31
0.0
  0
LINE
  8
DETAIL
  6
CONTINUOUS
 62
     5
 10
134.22693200009959
 20
286.33729920001349
 30
0.0
 11
117.3214088001596
 21
288.18634079999958
 31
0.0
  0
ARC
  8
DETAIL
  6
CONTINUOUS
 62
     5
 10
130.49454422996129
 20
141.4479693802565
 30
0.0
 40
70.24899506477081
 50
18.789122946853649
 51
86.738624094714936
  0
LINE
  8
DETAIL
  6
CONTINUOUS
 62
     5
 10
117.26245085444501
 20
234.04127907192
 30
0.0
 11
134.49108080001949
 21
232.45094399999871
 31
0.0
  0
LINE
  8
DETAIL
  6
CONTINUOUS
 62
     5
 10
117.3214088001596
 20
250.14891360001701
 30
0.0
 11
134.22693200009959
 21
248.2998720000013
 31
0.0
  0
LINE
  8
DETAIL
  6
CONTINUOUS
 62
     5
 10
117.3214088001596
 20
210.79074240000219
 30
0.0
 11
134.22693200010241
 21
209.20584959999189
 31
0.0
  0
LINE
  8
DETAIL
  6
CONTINUOUS
 62
     5
 10
117.3214088001596
 20
212.90393279999449
 30
0.0
 11
134.49108080001679
 21
211.58318879999189
 31
0.0
  0
ARC
  8
DETAIL
  6
CONTINUOUS
 62
     5
 10
130.005990378354
 20
140.03693824658211
 30
0.0
 40
69.297580376158891
 50
20.50897070034712
 51
86.507930992190893
  0
LINE
  8
SIZE
  6
CONTINUOUS
 62
    30
 10
200.0
 20
227.98100955806859
 30
0.0
 11
200.0
 21
392.45046510147978
 31
0.0
  0
LINE
  8
SIZE
  6
CONTINUOUS
 62
    30
 10
0.0000000000000012
 20
336.49999999999989
 30
0.0
 11
0.0000000000000047
 21
392.45046510147978
 31
0.0
  0
LINE
  8
SIZE
  6
CONTINUOUS
 62
    30
 10
188.0
 20
372.45046510147978
 30
0.0
 11
12.0
 21
372.45046510147978
 31
0.0
  0
CIRCLE
  8
SIZE
  6
CONTINUOUS
 62
    30
 10
200.0
 20
372.45046510147978
 30
0.0
 40
6.0
  0
LINE
  8
SIZE
  6
CONTINUOUS
 62
    30
 10
200.0
 20
372.45046510147978
 30
0.0
 11
188.0
 21
372.45046510147978
 31
0.0
  0
CIRCLE
  8
SIZE
  6
CONTINUOUS
 62
    30
 10
0.0000000000000034
 20
372.45046510147978
 30
0.0
 40
6.0
  0
LINE
  8
SIZE
  6
CONTINUOUS
 62
    30
 10
0.0000000000000034
 20
372.45046510147978
 30
0.0
 11
12.000000000000004
 21
372.45046510147978
 31
0.0
  0
TEXT
  8
SIZE
  6
CONTINUOUS
 62
    30
 10
18.495999999999995
 20
397.45046510147978
 30
0.0
 40
64.0
  1
200
 50
0.0
 41
0.9
 51
0.0
  7
STANDARD
 71
     0
 72
     1
 11
100.0
 21
397.45046510147978
 31
0.0
210
0.0
220
0.0
230
1.0
  0
POINT
  8
DEFPOINTS
  6
CONTINUOUS
 62
    30
 10
200.0
 20
207.98100955806859
 30
0.0
  0
POINT
  8
DEFPOINTS
  6
CONTINUOUS
 62
    30
 10
0.0
 20
316.49999999999989
 30
0.0
  0
POINT
  8
DEFPOINTS
  6
CONTINUOUS
 62
    30
 10
0.0000000000000034
 20
372.45046510147978
 30
0.0
  0
LINE
  8
SIZE
  6
CONTINUOUS
 62
    30
 10
-18.5
 20
318.0
 30
0.0
 11
-110.58436170770651
 21
318.0
 31
0.0
  0
LINE
  8
SIZE
  6
CONTINUOUS
 62
    30
 10
-18.5
 20
-318.00000000000011
 30
0.0
 11
-110.58436170770629
 21
-318.00000000000011
 31
0.0
  0
LINE
  8
SIZE
  6
CONTINUOUS
 62
    30
 10
-90.584361707706478
 20
306.0
 30
0.0
 11
-90.584361707706336
 21
-306.00000000000011
 31
0.0
  0
CIRCLE
  8
SIZE
  6
CONTINUOUS
 62
    30
 10
-90.584361707706478
 20
318.0
 30
0.0
 40
6.0
  0
LINE
  8
SIZE
  6
CONTINUOUS
 62
    30
 10
-90.584361707706478
 20
318.0
 30
0.0
 11
-90.584361707706478
 21
306.0
 31
0.0
  0
CIRCLE
  8
SIZE
  6
CONTINUOUS
 62
    30
 10
-90.584361707706336
 20
-318.00000000000011
 30
0.0
 40
6.0
  0
LINE
  8
SIZE
  6
CONTINUOUS
 62
    30
 10
-90.584361707706336
 20
-318.00000000000011
 30
0.0
 11
-90.584361707706336
 21
-306.00000000000011
 31
0.0
  0
TEXT
  8
SIZE
  6
CONTINUOUS
 62
    30
 10
-115.58436170770639
 20
-114.91200000000005
 30
0.0
 40
64.0
  1
φ636
 50
90.0
 41
0.9
 51
0.0
  7
STANDARD
 71
     0
 72
     1
 11
-115.58436170770639
 21
-0.0000000000000463
 31
0.0
210
0.0
220
0.0
230
1.0
  0
POINT
  8
DEFPOINTS
  6
CONTINUOUS
 62
    30
 10
1.5000000000000011
 20
318.0
 30
0.0
  0
POINT
  8
DEFPOINTS
  6
CONTINUOUS
 62
    30
 10
1.5000000000000011
 20
-318.00000000000011
 30
0.0
  0
POINT
  8
DEFPOINTS
  6
CONTINUOUS
 62
    30
 10
-90.584361707706336
 20
-318.00000000000011
 30
0.0
  0
LINE
  8
DETAIL
  6
CONTINUOUS
 62
     5
 10
114.3214088001596
 20
297.41093928551419
 30
0.0
 11
3.0000000000009091
 21
310.92374711445228
 31
0.0
  0
LINE
  8
DETAIL
  6
CONTINUOUS
 62
     5
 10
114.3214088001605
 20
189.9101230492594
 30
0.0
 11
5.9999999999990914
 21
198.11731453126771
 31
0.0
  0
LINE
  8
DETAIL
  6
CONTINUOUS
 62
     5
 10
114.3214088001605
 20
187.53236887665611
 30
0.0
 11
5.9999999999990914
 21
196.004308470994
 31
0.0
  0
LINE
  8
DETAIL
  6
CONTINUOUS
 62
     5
 10
114.3214088001596
 20
164.553387372472
 30
0.0
 11
3.0000000000009091
 21
171.9721838275467
 31
0.0
  0
LINE
  8
DETAIL
  6
CONTINUOUS
 62
     5
 10
114.3214088001596
 20
162.1760481724435
 30
0.0
 11
3.0000000000009091
 21
169.59484462754801
 31
0.0
  0
LINE
  8
DETAIL
  6
CONTINUOUS
 62
     5
 10
117.3214088001596
 20
252.26210400000929
 30
0.0
 11
134.49108080001679
 21
250.67721120000019
 31
0.0
  0
LINE
  8
DETAIL
  6
CONTINUOUS
 62
     5
 10
117.3214088001596
 20
265.73369280001299
 30
0.0
 11
134.22693200009959
 21
263.88465119999762
 31
0.0
  0
ARC
  8
DETAIL
  6
CONTINUOUS
 62
     5
 10
132.49336304002551
 20
89.058170636315822
 30
0.0
 40
71.829371057123566
 50
29.660229573053041
 51
88.617058335683041
  0
ARC
  8
DETAIL
  6
CONTINUOUS
 62
     5
 10
129.54245859865659
 20
82.145151451950255
 30
0.0
 40
81.249648307472256
 50
33.875545950073217
 51
86.508160152289278
  0
LINE
  8
DETAIL
  6
CONTINUOUS
 62
     5
 10
134.22693200009959
 20
160.8666191999954
 30
0.0
 11
117.3214088001596
 21
161.92321439999151
 31
0.0
  0
LINE
  8
DETAIL
  6
CONTINUOUS
 62
     5
 10
134.49108080001679
 20
163.24395839999431
 30
0.0
 11
117.3214088001596
 21
164.30055360002001
 31
0.0
  0
ARC
  8
DETAIL
  6
CONTINUOUS
 62
     5
 10
130.61255541282119
 20
47.326005576869989
 30
0.0
 40
86.672831059669221
 50
42.110249619112018
 51
87.609993929599668
  0
ARC
  8
DETAIL
  6
CONTINUOUS
 62
     5
 10
132.59277515745271
 20
52.222170141566608
 30
0.0
 40
84.100037660918119
 50
40.018164779911118
 51
88.706610097349525
  0
LINE
  8
DETAIL
  6
CONTINUOUS
 62
     5
 10
134.22693200009959
 20
133.92344160001761
 30
0.0
 11
117.3214088001596
 21
134.71588800000731
 31
0.0
  0
LINE
  8
DETAIL
  6
CONTINUOUS
 62
     5
 10
134.49108080001679
 20
136.3007808000165
 30
0.0
 11
117.3214088001596
 21
137.09322720000631
 31
0.0
  0
ARC
  8
DETAIL
  6
CONTINUOUS
 62
     5
 10
195.95565311140669
 20
5.7141202662419346
 30
0.0
 40
1.0543152222771821
 50
187.88508629280301
 51
352.11491370719699
  0
ARC
  8
DETAIL
  6
CONTINUOUS
 62
     5
 10
115.8214088001596
 20
234.45768968391519
 30
0.0
 40
1.5
 50
180.0
 51
0.000000000000007
  0
ARC
  8
DETAIL
  6
CONTINUOUS
 62
     5
 10
115.8214088001596
 20
214.5110714216934
 30
0.0
 40
1.5
 50
0.000000000000007
 51
180.0
  0
LINE
  8
DETAIL
  6
CONTINUOUS
 62
     5
 10
114.3214088001605
 20
268.35650703282118
 30
0.0
 11
5.9999999999990914
 21
280.27017208732462
 31
0.0
  0
LINE
  8
DETAIL
  6
CONTINUOUS
 62
     5
 10
114.3214088001605
 20
265.97916783282261
 30
0.0
 11
5.9999999999990914
 21
277.89283288732588
 31
0.0
  0
ARC
  8
DETAIL
  6
CONTINUOUS
 62
     5
 10
127.17401912579589
 20
159.47102846008411
 30
0.0
 40
70.953982018907425
 50
17.31843788442519
 51
84.295316026297741
  0
ARC
  8
DETAIL
  6
CONTINUOUS
 62
     5
 10
128.990768462023
 20
161.95205994782319
 30
0.0
 40
70.713125290978169
 50
15.89556947930585
 51
85.538829107096362
  0
LINE
  8
DETAIL
  6
CONTINUOUS
 62
     5
 10
114.3214088001596
 20
137.34808151309301
 30
0.0
 11
3.0000000000009091
 21
143.4420928868968
 31
0.0
  0
LINE
  8
DETAIL
  6
CONTINUOUS
 62
     5
 10
114.3214088001596
 20
134.97033820496711
 30
0.0
 11
3.0000000000009091
 21
141.329306595031
 31
0.0
  0
ARC
  8
DETAIL
  6
CONTINUOUS
 62
     5
 10
135.81884669555981
 20
15.37819425142936
 30
0.0
 40
90.031252008333837
 50
48.977529177241607
 51
91.013145377551993
  0
ARC
  8
DETAIL
  6
CONTINUOUS
 62
     5
 10
134.1290261960439
 20
12.698002332940749
 30
0.0
 40
95.075397435786712
 50
48.602823565946792
 51
89.781812630203532
  0
LINE
  8
DETAIL
  6
CONTINUOUS
 62
     5
 10
134.22693200009959
 20
105.39537120000099
 30
0.0
 11
117.3214088001596
 21
106.1878176000204
 31
0.0
  0
LINE
  8
DETAIL
  6
CONTINUOUS
 62
     5
 10
134.49108080001679
 20
107.77271039999989
 30
0.0
 11
117.3214088001596
 21
108.5651568000193
 31
0.0
  0
LINE
  8
DETAIL
  6
CONTINUOUS
 62
     5
 10
194.91130622281341
 20
5.569482220724467
 30
0.0
 11
194.9113062228125
 21
11.428248177294901
 31
0.0
  0
LINE
  8
DETAIL
  6
CONTINUOUS
 62
     5
 10
194.91130622281341
 20
203.19137948261451
 30
0.0
 11
194.91130622281341
 21
206.36589030215751
 31
0.0
  0
LINE
  8
DETAIL
  6
CONTINUOUS
 62
     5
 10
194.91130622281429
 20
187.54168264425411
 30
0.0
 11
194.91130622281341
 21
194.78615579930641
 31
0.0
  0
LINE
  8
DETAIL
  6
CONTINUOUS
 62
     5
 10
194.91130622281429
 20
169.4729953742916
 30
0.0
 11
194.91130622281429
 21
180.59275900176991
 31
0.0
  0
LINE
  8
DETAIL
  6
CONTINUOUS
 62
     5
 10
194.91130622281531
 20
150.1008639893661
 30
0.0
 11
194.91130622281429
 21
164.31562480745299
 31
0.0
  0
LINE
  8
DETAIL
  6
CONTINUOUS
 62
     5
 10
194.91130622281531
 20
108.69532323596481
 30
0.0
 11
194.91130622281619
 21
124.60333789280671
 31
0.0
  0
LINE
  8
DETAIL
  6
CONTINUOUS
 62
     5
 10
194.91130622281341
 20
61.752691507244322
 30
0.0
 11
194.91130622281341
 21
83.302472423581889
 31
0.0
  0
LINE
  8
DETAIL
  6
CONTINUOUS
 62
     5
 10
194.91130622281341
 20
37.525443497821811
 30
0.0
 11
194.91130622281341
 21
60.117258256581287
 31
0.0
  0
LINE
  8
DETAIL
  6
CONTINUOUS
 62
     5
 10
194.91130622281531
 20
130.39884675477049
 30
0.0
 11
194.91130622281531
 21
146.22544697552539
 31
0.0
  0
ARC
  8
DETAIL
  6
CONTINUOUS
 62
     5
 10
4.5
 20
189.34648545929431
 30
0.0
 40
1.5
 50
180.0
 51
0.000000000000007
  0
LINE
  8
DETAIL
  6
CONTINUOUS
 62
     5
 10
194.91130622281429
 20
85.806453501872625
 30
0.0
 11
194.91130622281531
 21
105.4452819675158
 31
0.0
  0
LINE
  8
DETAIL
  6
CONTINUOUS
 62
     5
 10
6.0
 20
282.32797501353542
 30
0.0
 11
6.0
 21
189.34648545929431
 31
0.0
  0
LINE
  8
DETAIL
  6
CONTINUOUS
 62
     5
 10
194.9113062228125
 20
12.97055117913067
 30
0.0
 11
194.9113062228125
 21
36.130824546325023
 31
0.0
  0
ARC
  8
DETAIL
  6
CONTINUOUS
 62
     5
 10
4.5
 20
282.32797501353542
 30
0.0
 40
1.5
 50
0.000000000000007
 51
180.0
  0
LINE
  8
DETAIL
  6
CONTINUOUS
 62
     5
 10
114.3214088001596
 20
108.5574787456072
 30
0.0
 11
3.0000000000009091
 21
113.5916620544004
 31
0.0
  0
LINE
  8
DETAIL
  6
CONTINUOUS
 62
     5
 10
114.3214088001596
 20
106.44469245371199
 30
0.0
 11
3.0000000000009091
 21
111.213918746275
 31
0.0
  0
LINE
  8
DETAIL
  6
CONTINUOUS
 62
     5
 10
117.3214088001596
 20
234.45768968391519
 30
0.0
 11
117.3214088001596
 21
302.39905079781232
 31
0.0
  0
LINE
  8
DETAIL
  6
CONTINUOUS
 62
     5
 10
140.56650320013429
 20
14.52818400000012
 30
0.0
 11
117.3214088001596
 21
14.5281839999999
 31
0.0
  0
ARC
  8
DETAIL
  6
CONTINUOUS
 62
     5
 10
138.6712224600706
 20
-496.60570971654658
 30
0.0
 40
511.13740754803081
 50
83.682996245727438
 51
89.787548642230803
  0
ARC
  8
DETAIL
  6
CONTINUOUS
 62
     5
 10
136.9385678181479
 20
-410.18443650448091
 30
0.0
 40
427.10769367883461
 50
81.916065661069752
 51
89.477876219782061
  0
LINE
  8
DETAIL
  6
CONTINUOUS
 62
     5
 10
114.3214088001605
 20
234.45768968391519
 30
0.0
 11
114.3214088001596
 21
302.39905079781232
 31
0.0
  0
LINE
  8
DETAIL
  6
CONTINUOUS
 62
     5
 10
140.8306520000497
 20
16.905523199999489
 30
0.0
 11
117.3214088001596
 21
16.905523199998811
 31
0.0
  0
LINE
  8
DETAIL
  6
CONTINUOUS
 62
     5
 10
114.3214088001605
 20
278.92173634381908
 30
0.0
 11
3.0000000000009091
 21
291.63967238895373
 31
0.0
  0
LINE
  8
DETAIL
  6
CONTINUOUS
 62
     5
 10
134.22692270147039
 20
230.07360713460329
 30
0.0
 11
6.0
 21
242.23160086782551
 31
0.0
  0
LINE
  8
DETAIL
  6
CONTINUOUS
 62
     5
 10
114.33163600661371
 20
234.28282681304171
 30
0.0
 11
5.9999999999990914
 21
244.60897804902891
 31
0.0
  0
LINE
  8
DETAIL
  6
CONTINUOUS
 62
     5
 10
114.3214088001596
 20
78.975237794356303
 30
0.0
 11
3.0000000000009091
 21
82.419679005648391
 31
0.0
  0
LINE
  8
DETAIL
  6
CONTINUOUS
 62
     5
 10
114.3214088001596
 20
76.597898594357389
 30
0.0
 11
3.0000000000009091
 21
80.042339805649249
 31
0.0
  0
LINE
  8
DETAIL
  6
CONTINUOUS
 62
     5
 10
114.3214088001596
 20
48.071848735005119
 30
0.0
 11
3.0000000000009091
 21
50.191504865026559
 31
0.0
  0
LINE
  8
DETAIL
  6
CONTINUOUS
 62
     5
 10
114.3214088001596
 20
45.694509535006198
 30
0.0
 11
3.0000000000009091
 21
47.814165665027637
 31
0.0
  0
LINE
  8
DETAIL
  6
CONTINUOUS
 62
     5
 10
114.3214088001596
 20
16.904310875617849
 30
0.0
 11
3.0000000000009091
 21
17.699181924368649
 31
0.0
  0
LINE
  8
DETAIL
  6
CONTINUOUS
 62
     5
 10
114.3214088001596
 20
14.52697167561905
 30
0.0
 11
3.0000000000009091
 21
15.321842724369731
 31
0.0
  0
ARC
  8
DETAIL
  6
CONTINUOUS
 62
     5
 10
178.19703263458999
 20
212.20816300439211
 30
0.0
 40
1.5
 50
0.000000000000007
 51
121.5718733081254
  0
LINE
  8
DETAIL
  6
CONTINUOUS
 62
     5
 10
179.69703263458999
 20
169.31666617858551
 30
0.0
 11
179.69703263458999
 21
188.33761076238841
 31
0.0
  0
LINE
  8
DETAIL
  6
CONTINUOUS
 62
     5
 10
179.69703263458999
 20
191.58813733373029
 30
0.0
 11
179.69703263458999
 21
207.1763805318848
 31
0.0
  0
LINE
  8
DETAIL
  6
CONTINUOUS
 62
     5
 10
179.69703263458999
 20
211.23918668573981
 30
0.0
 11
179.69703263458999
 21
212.20816300439211
 31
0.0
  0
LINE
  8
DETAIL
  6
CONTINUOUS
 62
     5
 10
176.69703263458999
 20
168.64552208150221
 30
0.0
 11
176.69703263458999
 21
169.10278493018441
 31
0.0
  0
LINE
  8
DETAIL
  6
CONTINUOUS
 62
     5
 10
176.6970326345909
 20
171.88758095715701
 30
0.0
 11
176.69703263458999
 21
191.2433950564081
 31
0.0
  0
LINE
  8
DETAIL
  6
CONTINUOUS
 62
     5
 10
176.69703263458999
 20
194.36537079822401
 30
0.0
 11
176.69703263458999
 21
210.28380930651329
 31
0.0
  0
ARC
  8
DETAIL
  6
CONTINUOUS
 62
     5
 10
178.19703263458999
 20
168.64552208150221
 30
0.0
 40
1.5
 50
180.0
 51
293.53336230791598
  0
ARC
  8
DETAIL
  6
CONTINUOUS
 62
     5
 10
124.8595445172332
 20
218.37010693967559
 30
0.0
 40
70.965491998776983
 50
6.262147302432548
 51
82.414866814185856
  0
LINE
  8
DETAIL
  6
CONTINUOUS
 62
     5
 10
134.22693200009959
 20
288.7146384000124
 30
0.0
 11
117.3214088001596
 21
290.5636799999985
 31
0.0
  0
ARC
  8
DETAIL
  6
CONTINUOUS
 62
     5
 10
124.5639909474221
 20
220.80218075062621
 30
0.0
 40
72.521330944626257
 50
2.7795697364542939
 51
82.342981519195249
  0
LINE
  8
DETAIL
  6
CONTINUOUS
 62
     5
 10
134.22693200009959
 20
292.67687039999089
 30
0.0
 11
117.3214088001596
 21
294.79006080001312
 31
0.0
  0
ARC
  8
DETAIL
  6
CONTINUOUS
 62
     5
 10
126.19616690481421
 20
224.57695731715859
 30
0.0
 40
70.963713867487641
 50
3.8467959767576252
 51
83.287378755011204
  0
LINE
  8
DETAIL
  6
CONTINUOUS
 62
     5
 10
134.49108080001679
 20
295.0542095999898
 30
0.0
 11
117.3214088001596
 21
297.16740000001198
 31
0.0
  0
ARC
  8
DETAIL
  6
CONTINUOUS
 62
     5
 10
134.80727455529899
 20
-47.120924089054483
 30
0.0
 40
122.9329995383068
 50
60.730576936171481
 51
90.270483130787113
  0
ARC
  8
DETAIL
  6
CONTINUOUS
 62
     5
 10
133.98894202881641
 20
-42.935093917564593
 30
0.0
 40
121.1241795684776
 50
58.653080311076437
 51
89.762470921706111
  0
LINE
  8
DETAIL
  6
CONTINUOUS
 62
     5
 10
134.22693200009959
 20
75.81070559998841
 30
0.0
 11
117.3214088001596
 21
76.33900320000123
 31
0.0
  0
LINE
  8
DETAIL
  6
CONTINUOUS
 62
     5
 10
134.49108080001679
 20
78.188044799987324
 30
0.0
 11
117.3214088001596
 21
78.716342400000144
 31
0.0
  0
ARC
  8
DETAIL
  6
CONTINUOUS
 62
     5
 10
130.66671452562511
 20
-180.37196502946941
 30
0.0
 40
225.8336233966038
 50
73.472379333104954
 51
89.09670720121899
  0
ARC
  8
DETAIL
  6
CONTINUOUS
 62
     5
 10
131.86901240325369
 20
-150.1984539129536
 30
0.0
 40
198.02674685285061
 50
70.797979321938342
 51
89.241325500848205
  0
LINE
  8
DETAIL
  6
CONTINUOUS
 62
     5
 10
134.22693200009959
 20
45.433593600015342
 30
0.0
 11
117.3214088001596
 21
45.697742400021873
 31
0.0
  0
LINE
  8
DETAIL
  6
CONTINUOUS
 62
     5
 10
134.49108080001679
 20
47.810932800014257
 30
0.0
 11
117.3214088001596
 21
48.075081600020781
 31
0.0
  0
ARC
  8
DETAIL
  6
CONTINUOUS
 62
     5
 10
1.5
 20
-316.5
 30
0.0
 40
1.5
 50
180.0
 51
0.000000000000007
  0
LINE
  8
DETAIL
  6
CONTINUOUS
 62
     5
 10
0.0
 20
-316.5
 30
0.0
 11
0.0
 21
-245.36439612064839
 31
0.0
  0
ARC
  8
DETAIL
  6
CONTINUOUS
 62
     5
 10
198.5
 20
-207.98100955806879
 30
0.0
 40
1.5
 50
180.0
 51
0.000000000000007
  0
ARC
  8
DETAIL
  6
CONTINUOUS
 62
     5
 10
115.8214088001596
 20
-302.39905079781238
 30
0.0
 40
1.5
 50
180.0
 51
0.000000000000007
  0
ARC
  8
DETAIL
  6
CONTINUOUS
 62
     5
 10
1.5
 20
-200.04721343859629
 30
0.0
 40
1.5
 50
180.0
 51
0.000000000000007
  0
ARC
  8
DETAIL
  6
CONTINUOUS
 62
     5
 10
1.5
 20
-245.36439612064839
 30
0.0
 40
1.5
 50
0.000000000000007
 51
180.0
  0
ARC
  8
DETAIL
  6
CONTINUOUS
 62
     5
 10
127.3946489086256
 20
-196.0758147442167
 30
0.0
 40
70.544018873134263
 50
275.77348021231302
 51
350.64279312636631
  0
ARC
  8
DETAIL
  6
CONTINUOUS
 62
     5
 10
128.11806084377349
 20
-196.66808519628361
 30
0.0
 40
67.493592674684422
 50
275.19296992038551
 51
351.73887222087342
  0
ARC
  8
DETAIL
  6
CONTINUOUS
 62
     5
 10
126.8062011493985
 20
-208.27420464658761
 30
0.0
 40
68.691594870013859
 50
276.20174754342332
 51
353.52095940694659
  0
ARC
  8
DETAIL
  6
CONTINUOUS
 62
     5
 10
127.792879522226
 20
-209.69001397334671
 30
0.0
 40
69.574300996148125
 50
275.52465492585668
 51
354.1109640572555
  0
ARC
  8
DETAIL
  6
CONTINUOUS
 62
     5
 10
126.11765041006041
 20
-227.70851534789639
 30
0.0
 40
71.010895187069806
 50
276.7719333443676
 51
356.55198397637741
  0
ARC
  8
DETAIL
  6
CONTINUOUS
 62
     5
 10
128.72404452223691
 20
-232.9189670221098
 30
0.0
 40
63.16783842029988
 50
274.9976760332255
 51
313.40799940848882
  0
ARC
  8
DETAIL
  6
CONTINUOUS
 62
     5
 10
124.8595445172332
 20
-215.99276773967671
 30
0.0
 40
70.965491998776983
 50
277.58513318581407
 51
349.3505585613733
  0
ARC
  8
DETAIL
  6
CONTINUOUS
 62
     5
 10
129.60802411207081
 20
-181.8972497329147
 30
0.0
 40
66.563071999596758
 50
273.97903470935591
 51
348.83503504764047
  0
ARC
  8
DETAIL
  6
CONTINUOUS
 62
     5
 10
129.78828460129441
 20
-182.51165915227429
 30
0.0
 40
68.32758431305723
 50
273.94662815747512
 51
349.63094904600661
  0
ARC
  8
DETAIL
  6
CONTINUOUS
 62
     5
 10
129.2442338929886
 20
-112.6327341539051
 30
0.0
 40
73.760658504968035
 50
273.87340830263332
 51
332.90748604107262
  0
ARC
  8
DETAIL
  6
CONTINUOUS
 62
     5
 10
129.93786476681629
 20
-114.28850912603779
 30
0.0
 40
74.189438975457264
 50
273.51861554167499
 51
334.67969203957898
  0
LINE
  8
DETAIL
  6
CONTINUOUS
 62
     5
 10
134.22693200009959
 20
-186.2249040000232
 30
0.0
 11
117.3214088001596
 21
-187.54564799999631
 31
0.0
  0
LINE
  8
DETAIL
  6
CONTINUOUS
 62
     5
 10
134.49108080001679
 20
-188.33809440001559
 30
0.0
 11
117.3214088001596
 21
-189.65883840001831
 31
0.0
  0
LINE
  8
DETAIL
  6
CONTINUOUS
 62
     5
 10
114.3214088001596
 20
-300.58032077740569
 30
0.0
 11
3.0000000000009091
 21
-314.35808562257398
 31
0.0
  0
LINE
  8
DETAIL
  6
CONTINUOUS
 62
     5
 10
114.3214088001596
 20
-298.20298157740672
 30
0.0
 11
3.0000000000009091
 21
-311.98074642260502
 31
0.0
  0
LINE
  8
DETAIL
  6
CONTINUOUS
 62
     5
 10
114.3214088001596
 20
-281.03452190178251
 30
0.0
 11
3.0000000000009091
 21
-294.01741569820013
 31
0.0
  0
LINE
  8
DETAIL
  6
CONTINUOUS
 62
     5
 10
114.3214088001596
 20
-288.43028419365851
 30
0.0
 11
3.0000000000009091
 21
-301.67813500633639
 31
0.0
  0
LINE
  8
DETAIL
  6
CONTINUOUS
 62
     5
 10
114.3214088001596
 20
-295.03360008551527
 30
0.0
 11
3.0000000000009091
 21
-308.54640791445331
 31
0.0
  0
LINE
  8
DETAIL
  6
CONTINUOUS
 62
     5
 10
114.3214088001596
 20
-290.80762339365771
 30
0.0
 11
3.0000000000009091
 21
-304.05547420633542
 31
0.0
  0
LINE
  8
DETAIL
  6
CONTINUOUS
 62
     5
 10
5.9999999999990914
 20
-261.51505426818392
 30
0.0
 11
114.3214088001605
 21
-250.39563355060969
 31
0.0
  0
LINE
  8
DETAIL
  6
CONTINUOUS
 62
     5
 10
134.22693200009959
 20
-295.84665600000909
 30
0.0
 11
117.3214088001596
 21
-297.95984640000171
 31
0.0
  0
LINE
  8
DETAIL
  6
CONTINUOUS
 62
     5
 10
5.9999999999990914
 20
-263.89239346818277
 30
0.0
 11
114.3214088001605
 21
-252.77297275060869
 31
0.0
  0
LINE
  8
DETAIL
  6
CONTINUOUS
 62
     5
 10
117.3214088001596
 20
-268.11103200001207
 30
0.0
 11
134.49108080001679
 21
-266.26199039999642
 31
0.0
  0
LINE
  8
DETAIL
  6
CONTINUOUS
 62
     5
 10
134.22693200009959
 20
-276.56379360001142
 30
0.0
 11
117.3214088001596
 21
-278.4128351999974
 31
0.0
  0
LINE
  8
DETAIL
  6
CONTINUOUS
 62
     5
 10
134.49108080001679
 20
-278.94113280001028
 30
0.0
 11
117.3214088001596
 21
-280.79017439999632
 31
0.0
  0
LINE
  8
DETAIL
  6
CONTINUOUS
 62
     5
 10
134.49108080001679
 20
-298.22399520000812
 30
0.0
 11
117.3214088001596
 21
-300.33718560000062
 31
0.0
  0
LINE
  8
DETAIL
  6
CONTINUOUS
 62
     5
 10
134.22693200009959
 20
-286.33729920001349
 30
0.0
 11
117.3214088001596
 21
-288.18634079999958
 31
0.0
  0
ARC
  8
DETAIL
  6
CONTINUOUS
 62
     5
 10
130.49454422996129
 20
-141.44796938025641
 30
0.0
 40
70.24899506477081
 50
273.26137590528509
 51
341.21087705314642
  0
LINE
  8
DETAIL
  6
CONTINUOUS
 62
     5
 10
117.26245085444501
 20
-234.04127907192
 30
0.0
 11
134.49108080001949
 21
-232.45094399999871
 31
0.0
  0
LINE
  8
DETAIL
  6
CONTINUOUS
 62
     5
 10
117.3214088001596
 20
-250.14891360001701
 30
0.0
 11
134.22693200009959
 21
-248.29987200000139
 31
0.0
  0
LINE
  8
DETAIL
  6
CONTINUOUS
 62
     5
 10
114.3214088001605
 20
-211.07199240000469
 30
0.0
 11
134.22693200010241
 21
-209.20584959999181
 31
0.0
  0
LINE
  8
DETAIL
  6
CONTINUOUS
 62
     5
 10
117.3144251603189
 20
-212.9044700030594
 30
0.0
 11
134.49108080001679
 21
-211.5831887999918
 31
0.0
  0
ARC
  8
DETAIL
  6
CONTINUOUS
 62
     5
 10
130.005990378354
 20
-140.03693824658211
 30
0.0
 40
69.297580376158891
 50
273.49206900780922
 51
339.49102929965289
  0
LINE
  8
DETAIL
  6
CONTINUOUS
 62
     5
 10
114.3214088001596
 20
-297.41093928551442
 30
0.0
 11
3.0000000000009091
 21
-310.92374711445228
 31
0.0
  0
LINE
  8
DETAIL
  6
CONTINUOUS
 62
     5
 10
114.3214088001605
 20
-189.9101230492594
 30
0.0
 11
5.9999999999990914
 21
-198.11731453126771
 31
0.0
  0
LINE
  8
DETAIL
  6
CONTINUOUS
 62
     5
 10
114.3214088001605
 20
-187.53236887665611
 30
0.0
 11
5.9999999999990914
 21
-196.004308470994
 31
0.0
  0
LINE
  8
DETAIL
  6
CONTINUOUS
 62
     5
 10
114.3214088001596
 20
-164.553387372472
 30
0.0
 11
3.0000000000009091
 21
-171.97218382754679
 31
0.0
  0
LINE
  8
DETAIL
  6
CONTINUOUS
 62
     5
 10
114.3214088001596
 20
-162.17604817244339
 30
0.0
 11
3.0000000000009091
 21
-169.5948446275479
 31
0.0
  0
LINE
  8
DETAIL
  6
CONTINUOUS
 62
     5
 10
117.3214088001596
 20
-252.26210400000949
 30
0.0
 11
134.49108080001679
 21
-250.67721120000019
 31
0.0
  0
LINE
  8
DETAIL
  6
CONTINUOUS
 62
     5
 10
117.3214088001596
 20
-265.73369280001322
 30
0.0
 11
134.22693200009959
 21
-263.88465119999751
 31
0.0
  0
ARC
  8
DETAIL
  6
CONTINUOUS
 62
     5
 10
132.49336304002551
 20
-89.058170636315936
 30
0.0
 40
71.829371057123566
 50
271.382941664317
 51
330.33977042694698
  0
ARC
  8
DETAIL
  6
CONTINUOUS
 62
     5
 10
129.54245859865659
 20
-82.145151451950142
 30
0.0
 40
81.249648307472256
 50
273.49183984771082
 51
326.12445404992678
  0
LINE
  8
DETAIL
  6
CONTINUOUS
 62
     5
 10
134.22693200009959
 20
-160.8666191999954
 30
0.0
 11
117.3214088001596
 21
-161.92321439999159
 31
0.0
  0
LINE
  8
DETAIL
  6
CONTINUOUS
 62
     5
 10
134.49108080001679
 20
-163.24395839999431
 30
0.0
 11
117.3214088001596
 21
-164.30055360002009
 31
0.0
  0
ARC
  8
DETAIL
  6
CONTINUOUS
 62
     5
 10
130.61255541282119
 20
-47.326005576870102
 30
0.0
 40
86.672831059669221
 50
272.39000607040037
 51
317.88975038088802
  0
ARC
  8
DETAIL
  6
CONTINUOUS
 62
     5
 10
132.59277515745271
 20
-52.222170141566608
 30
0.0
 40
84.100037660918119
 50
271.29338990265052
 51
319.9818352200889
  0
LINE
  8
DETAIL
  6
CONTINUOUS
 62
     5
 10
134.22693200009959
 20
-133.92344160001761
 30
0.0
 11
117.3214088001596
 21
-134.71588800000731
 31
0.0
  0
LINE
  8
DETAIL
  6
CONTINUOUS
 62
     5
 10
134.49108080001679
 20
-136.3007808000165
 30
0.0
 11
117.3214088001596
 21
-137.09322720000631
 31
0.0
  0
ARC
  8
DETAIL
  6
CONTINUOUS
 62
     5
 10
195.95565311140669
 20
-5.7141202662419346
 30
0.0
 40
1.0543152222771821
 50
7.885086292802967
 51
172.11491370719699
  0
ARC
  8
DETAIL
  6
CONTINUOUS
 62
     5
 10
115.8214088001596
 20
-213.049045755859
 30
0.0
 40
1.5
 50
0.000000000000007
 51
180.0
  0
ARC
  8
DETAIL
  6
CONTINUOUS
 62
     5
 10
115.8214088001596
 20
-190.88145527214581
 30
0.0
 40
1.5
 50
180.0
 51
0.000000000000007
  0
LINE
  8
DETAIL
  6
CONTINUOUS
 62
     5
 10
114.3214088001605
 20
-268.35650703282141
 30
0.0
 11
5.9999999999990914
 21
-280.27017208732468
 31
0.0
  0
LINE
  8
DETAIL
  6
CONTINUOUS
 62
     5
 10
114.3214088001605
 20
-265.97916783282238
 30
0.0
 11
5.9999999999990914
 21
-277.89283288732588
 31
0.0
  0
ARC
  8
DETAIL
  6
CONTINUOUS
 62
     5
 10
127.17401912579589
 20
-159.47102846008411
 30
0.0
 40
70.953982018907425
 50
275.70468397370229
 51
342.68156211557482
  0
ARC
  8
DETAIL
  6
CONTINUOUS
 62
     5
 10
128.990768462023
 20
-161.9520599478233
 30
0.0
 40
70.713125290978169
 50
274.46117089290362
 51
344.10443052069422
  0
LINE
  8
DETAIL
  6
CONTINUOUS
 62
     5
 10
114.3214088001596
 20
-137.34808151309289
 30
0.0
 11
3.0000000000009091
 21
-143.4420928868968
 31
0.0
  0
LINE
  8
DETAIL
  6
CONTINUOUS
 62
     5
 10
114.3214088001596
 20
-134.97033820496699
 30
0.0
 11
3.0000000000009091
 21
-141.32930659503111
 31
0.0
  0
ARC
  8
DETAIL
  6
CONTINUOUS
 62
     5
 10
135.81884669555981
 20
-15.37819425142936
 30
0.0
 40
90.031252008333837
 50
268.98685462244799
 51
311.02247082275841
  0
ARC
  8
DETAIL
  6
CONTINUOUS
 62
     5
 10
134.1290261960439
 20
-12.698002332940749
 30
0.0
 40
95.075397435786712
 50
270.21818736979651
 51
311.39717643405322
  0
LINE
  8
DETAIL
  6
CONTINUOUS
 62
     5
 10
134.22693200009959
 20
-105.39537120000099
 30
0.0
 11
117.3214088001596
 21
-106.1878176000204
 31
0.0
  0
LINE
  8
DETAIL
  6
CONTINUOUS
 62
     5
 10
134.49108080001679
 20
-107.77271039999989
 30
0.0
 11
117.3214088001596
 21
-108.5651568000193
 31
0.0
  0
LINE
  8
DETAIL
  6
CONTINUOUS
 62
     5
 10
194.91130622281341
 20
-5.569482220724467
 30
0.0
 11
194.9113062228125
 21
-11.428248177294901
 31
0.0
  0
LINE
  8
DETAIL
  6
CONTINUOUS
 62
     5
 10
194.91130622281429
 20
-187.54168264425431
 30
0.0
 11
194.91130622281341
 21
-194.78615579930641
 31
0.0
  0
LINE
  8
DETAIL
  6
CONTINUOUS
 62
     5
 10
194.91130622281341
 20
-203.19137948261459
 30
0.0
 11
194.91130622281341
 21
-206.36589030215751
 31
0.0
  0
LINE
  8
DETAIL
  6
CONTINUOUS
 62
     5
 10
194.91130622281429
 20
-169.4729953742916
 30
0.0
 11
194.91130622281429
 21
-180.59275900176991
 31
0.0
  0
LINE
  8
DETAIL
  6
CONTINUOUS
 62
     5
 10
194.91130622281531
 20
-108.69532323596469
 30
0.0
 11
194.91130622281619
 21
-124.60333789280661
 31
0.0
  0
LINE
  8
DETAIL
  6
CONTINUOUS
 62
     5
 10
194.91130622281531
 20
-150.10086398936599
 30
0.0
 11
194.91130622281429
 21
-164.31562480745299
 31
0.0
  0
LINE
  8
DETAIL
  6
CONTINUOUS
 62
     5
 10
194.91130622281341
 20
-61.752691507244322
 30
0.0
 11
194.91130622281341
 21
-83.302472423581889
 31
0.0
  0
LINE
  8
DETAIL
  6
CONTINUOUS
 62
     5
 10
194.91130622281341
 20
-37.525443497821811
 30
0.0
 11
194.91130622281341
 21
-60.117258256581287
 31
0.0
  0
LINE
  8
DETAIL
  6
CONTINUOUS
 62
     5
 10
194.91130622281531
 20
-130.3988467547704
 30
0.0
 11
194.91130622281531
 21
-146.2254469755253
 31
0.0
  0
LINE
  8
DETAIL
  6
CONTINUOUS
 62
     5
 10
194.91130622281429
 20
-85.806453501872738
 30
0.0
 11
194.91130622281531
 21
-105.4452819675158
 31
0.0
  0
ARC
  8
DETAIL
  6
CONTINUOUS
 62
     5
 10
4.5
 20
-189.3464854592942
 30
0.0
 40
1.5
 50
0.000000000000007
 51
180.0
  0
LINE
  8
DETAIL
  6
CONTINUOUS
 62
     5
 10
194.9113062228125
 20
-12.97055117913067
 30
0.0
 11
194.9113062228125
 21
-36.130824546325023
 31
0.0
  0
LINE
  8
DETAIL
  6
CONTINUOUS
 62
     5
 10
6.0
 20
-282.32797501353542
 30
0.0
 11
6.0
 21
-189.3464854592942
 31
0.0
  0
ARC
  8
DETAIL
  6
CONTINUOUS
 62
     5
 10
4.5
 20
-282.32797501353542
 30
0.0
 40
1.5
 50
180.0
 51
0.000000000000007
  0
LINE
  8
DETAIL
  6
CONTINUOUS
 62
     5
 10
114.3214088001596
 20
-108.5574787456072
 30
0.0
 11
3.0000000000009091
 21
-113.5916620544006
 31
0.0
  0
LINE
  8
DETAIL
  6
CONTINUOUS
 62
     5
 10
114.3214088001596
 20
-106.44469245371219
 30
0.0
 11
3.0000000000009091
 21
-111.213918746275
 31
0.0
  0
LINE
  8
DETAIL
  6
CONTINUOUS
 62
     5
 10
117.3214088001596
 20
-213.049045755859
 30
0.0
 11
117.3214088001596
 21
-302.39905079781238
 31
0.0
  0
LINE
  8
DETAIL
  6
CONTINUOUS
 62
     5
 10
140.56650320013429
 20
-14.52818400000012
 30
0.0
 11
117.3214088001596
 21
-14.5281839999999
 31
0.0
  0
ARC
  8
DETAIL
  6
CONTINUOUS
 62
     5
 10
136.9385678181479
 20
410.18443650448091
 30
0.0
 40
427.10769367883461
 50
270.52212378021801
 51
278.08393433893019
  0
ARC
  8
DETAIL
  6
CONTINUOUS
 62
     5
 10
138.6712224600706
 20
496.60570971654658
 30
0.0
 40
511.13740754803081
 50
270.21245135776923
 51
276.31700375427249
  0
LINE
  8
DETAIL
  6
CONTINUOUS
 62
     5
 10
0.0
 20
200.04721343859629
 30
0.0
 11
0.0
 21
-200.04721343859629
 31
0.0
  0
LINE
  8
DETAIL
  6
CONTINUOUS
 62
     5
 10
117.3214088001596
 20
231.6765230122495
 30
0.0
 11
117.3214088001596
 21
-210.79074240000199
 31
0.0
  0
LINE
  8
DETAIL
  6
CONTINUOUS
 62
     5
 10
114.3214088001596
 20
231.96097174417429
 30
0.0
 11
114.3214088001596
 21
-302.39905079781238
 31
0.0
  0
LINE
  8
DETAIL
  6
CONTINUOUS
 62
     5
 10
140.8306520000497
 20
-16.905523199999379
 30
0.0
 11
117.3214088001596
 21
-16.905523199998811
 31
0.0
  0
LINE
  8
DETAIL
  6
CONTINUOUS
 62
     5
 10
200.0
 20
207.98100955806859
 30
0.0
 11
200.0
 21
-207.98100955806879
 31
0.0
  0
LINE
  8
DETAIL
  6
CONTINUOUS
 62
     5
 10
3.0
 20
316.49999999999989
 30
0.0
 11
3.0
 21
-316.5
 31
0.0
  0
LINE
  8
DETAIL
  6
CONTINUOUS
 62
     5
 10
197.0
 20
-231.97931760024429
 30
0.0
 11
197.0
 21
231.9793176002444
 31
0.0
  0
LINE
  8
DETAIL
  6
CONTINUOUS
 62
     5
 10
114.3214088001605
 20
-278.92173634381902
 30
0.0
 11
3.0000000000009091
 21
-291.63967238895361
 31
0.0
  0
LINE
  8
DETAIL
  6
CONTINUOUS
 62
     5
 10
134.22692270147039
 20
-230.07360713460329
 30
0.0
 11
6.0
 21
-242.23160086782551
 31
0.0
  0
LINE
  8
DETAIL
  6
CONTINUOUS
 62
     5
 10
114.33163600661371
 20
-234.28282681304171
 30
0.0
 11
5.9999999999990914
 21
-244.60897804902899
 31
0.0
  0
LINE
  8
DETAIL
  6
CONTINUOUS
 62
     5
 10
114.3214088001596
 20
-78.975237794356303
 30
0.0
 11
3.0000000000009091
 21
-82.419679005648277
 31
0.0
  0
LINE
  8
DETAIL
  6
CONTINUOUS
 62
     5
 10
114.3214088001596
 20
-76.597898594357389
 30
0.0
 11
3.0000000000009091
 21
-80.042339805649362
 31
0.0
  0
LINE
  8
DETAIL
  6
CONTINUOUS
 62
     5
 10
114.3214088001596
 20
-48.071848735005013
 30
0.0
 11
3.0000000000009091
 21
-50.191504865026452
 31
0.0
  0
LINE
  8
DETAIL
  6
CONTINUOUS
 62
     5
 10
114.3214088001596
 20
-45.694509535006198
 30
0.0
 11
3.0000000000009091
 21
-47.814165665027637
 31
0.0
  0
LINE
  8
DETAIL
  6
CONTINUOUS
 62
     5
 10
114.3214088001596
 20
-16.90431087561797
 30
0.0
 11
3.0000000000009091
 21
-17.699181924368649
 31
0.0
  0
LINE
  8
DETAIL
  6
CONTINUOUS
 62
     5
 10
114.3214088001596
 20
-14.52697167561905
 30
0.0
 11
3.0000000000009091
 21
-15.321842724369731
 31
0.0
  0
ARC
  8
DETAIL
  6
CONTINUOUS
 62
     5
 10
178.19703263458999
 20
-212.20816300439199
 30
0.0
 40
1.5
 50
238.42812669187461
 51
0.000000000000007
  0
LINE
  8
DETAIL
  6
CONTINUOUS
 62
     5
 10
179.69703263458999
 20
-169.31666617858551
 30
0.0
 11
179.69703263458999
 21
-188.33761076238841
 31
0.0
  0
LINE
  8
DETAIL
  6
CONTINUOUS
 62
     5
 10
179.69703263458999
 20
-191.58813733373029
 30
0.0
 11
179.69703263458999
 21
-207.1763805318848
 31
0.0
  0
LINE
  8
DETAIL
  6
CONTINUOUS
 62
     5
 10
179.69703263458999
 20
-211.2391866857397
 30
0.0
 11
179.69703263458999
 21
-212.20816300439199
 31
0.0
  0
LINE
  8
DETAIL
  6
CONTINUOUS
 62
     5
 10
176.69703263458999
 20
-168.64552208150209
 30
0.0
 11
176.69703263458999
 21
-169.1027849301845
 31
0.0
  0
LINE
  8
DETAIL
  6
CONTINUOUS
 62
     5
 10
176.6970326345909
 20
-171.88758095715701
 30
0.0
 11
176.69703263458999
 21
-191.2433950564081
 31
0.0
  0
LINE
  8
DETAIL
  6
CONTINUOUS
 62
     5
 10
176.69703263458999
 20
-194.36537079822409
 30
0.0
 11
176.69703263458999
 21
-210.28380930651329
 31
0.0
  0
ARC
  8
DETAIL
  6
CONTINUOUS
 62
     5
 10
178.19703263458999
 20
-168.64552208150209
 30
0.0
 40
1.5
 50
66.466637692084035
 51
180.0
  0
ARC
  8
DETAIL
  6
CONTINUOUS
 62
     5
 10
124.8595445172332
 20
-218.37010693967559
 30
0.0
 40
70.965491998776983
 50
277.58513318581407
 51
353.73785269756752
  0
LINE
  8
DETAIL
  6
CONTINUOUS
 62
     5
 10
134.22693200009959
 20
-288.7146384000124
 30
0.0
 11
117.3214088001596
 21
-290.5636799999985
 31
0.0
  0
ARC
  8
DETAIL
  6
CONTINUOUS
 62
     5
 10
124.5639909474221
 20
-220.80218075062621
 30
0.0
 40
72.521330944626257
 50
277.65701848080482
 51
357.22043026354572
  0
LINE
  8
DETAIL
  6
CONTINUOUS
 62
     5
 10
134.22693200009959
 20
-292.67687039999089
 30
0.0
 11
117.3214088001596
 21
-294.79006080001301
 31
0.0
  0
ARC
  8
DETAIL
  6
CONTINUOUS
 62
     5
 10
126.19616690481421
 20
-224.57695731715859
 30
0.0
 40
70.963713867487641
 50
276.71262124498878
 51
356.15320402324238
  0
LINE
  8
DETAIL
  6
CONTINUOUS
 62
     5
 10
134.49108080001679
 20
-295.0542095999898
 30
0.0
 11
117.3214088001596
 21
-297.16740000001192
 31
0.0
  0
ARC
  8
DETAIL
  6
CONTINUOUS
 62
     5
 10
134.80727455529899
 20
47.120924089054483
 30
0.0
 40
122.9329995383068
 50
269.72951686921289
 51
299.26942306382853
  0
ARC
  8
DETAIL
  6
CONTINUOUS
 62
     5
 10
133.98894202881641
 20
42.935093917564593
 30
0.0
 40
121.1241795684776
 50
270.2375290782939
 51
301.34691968892361
  0
LINE
  8
DETAIL
  6
CONTINUOUS
 62
     5
 10
134.22693200009959
 20
-75.810705599988296
 30
0.0
 11
117.3214088001596
 21
-76.33900320000123
 31
0.0
  0
LINE
  8
DETAIL
  6
CONTINUOUS
 62
     5
 10
134.49108080001679
 20
-78.18804479998721
 30
0.0
 11
117.3214088001596
 21
-78.716342400000144
 31
0.0
  0
ARC
  8
DETAIL
  6
CONTINUOUS
 62
     5
 10
130.66671452562511
 20
180.37196502946941
 30
0.0
 40
225.8336233966038
 50
270.90329279878102
 51
286.52762066689502
  0
ARC
  8
DETAIL
  6
CONTINUOUS
 62
     5
 10
131.86901240325369
 20
150.1984539129536
 30
0.0
 40
198.02674685285061
 50
270.75867449915182
 51
289.20202067806167
  0
LINE
  8
DETAIL
  6
CONTINUOUS
 62
     5
 10
134.22693200009959
 20
-45.433593600015342
 30
0.0
 11
117.3214088001596
 21
-45.697742400021873
 31
0.0
  0
LINE
  8
DETAIL
  6
CONTINUOUS
 62
     5
 10
134.49108080001679
 20
-47.810932800014257
 30
0.0
 11
117.3214088001596
 21
-48.075081600020781
 31
0.0
  0
LINE
  8
OUTLINE
  6
CONTINUOUS
 62
     3
 10
135.0927623694943
 20
298.14994208376442
 30
0.0
 11
117.3214088001596
 21
300.33718560000068
 31
0.0
  0
LINE
  8
OUTLINE
  6
CONTINUOUS
 62
     3
 10
117.3214088001596
 20
300.33718560000068
 30
0.0
 11
117.3214088001596
 21
302.39905079781232
 31
0.0
  0
ARC
  8
OUTLINE
  6
CONTINUOUS
 62
     3
 10
115.8214088001596
 20
302.39905079781232
 30
0.0
 40
1.5
 50
0.0
 51
180.0
  0
LINE
  8
OUTLINE
  6
CONTINUOUS
 62
     3
 10
114.3214088001596
 20
302.39905079781232
 30
0.0
 11
114.3214088001596
 21
300.58032077740569
 31
0.0
  0
LINE
  8
OUTLINE
  6
CONTINUOUS
 62
     3
 10
114.3214088001596
 20
300.58032077740569
 30
0.0
 11
3.0
 21
314.35808562257409
 31
0.0
  0
LINE
  8
OUTLINE
  6
CONTINUOUS
 62
     3
 10
3.0
 20
314.35808562257409
 30
0.0
 11
3.0
 21
316.49999999999989
 31
0.0
  0
ARC
  8
OUTLINE
  6
CONTINUOUS
 62
     3
 10
1.5
 20
316.49999999999989
 30
0.0
 40
1.5
 50
0.0
 51
180.0
  0
LINE
  8
OUTLINE
  6
CONTINUOUS
 62
     3
 10
0.0
 20
316.49999999999989
 30
0.0
 11
0.0
 21
245.36439612064839
 31
0.0
  0
ARC
  8
OUTLINE
  6
CONTINUOUS
 62
     3
 10
1.5
 20
245.36439612064839
 30
0.0
 40
1.5
 50
180.0
 51
0.0
  0
LINE
  8
OUTLINE
  6
CONTINUOUS
 62
     3
 10
3.0
 20
245.36439612064839
 30
0.0
 11
3.0
 21
200.04721343859629
 31
0.0
  0
ARC
  8
OUTLINE
  6
CONTINUOUS
 62
     3
 10
1.5
 20
200.04721343859629
 30
0.0
 40
1.5
 50
0.0
 51
180.0
  0
LINE
  8
OUTLINE
  6
CONTINUOUS
 62
     3
 10
0.0
 20
200.04721343859629
 30
0.0
 11
0.0
 21
-200.04721343859629
 31
0.0
  0
ARC
  8
OUTLINE
  6
CONTINUOUS
 62
     3
 10
1.5
 20
-200.04721343859629
 30
0.0
 40
1.5
 50
180.0
 51
0.0
  0
LINE
  8
OUTLINE
  6
CONTINUOUS
 62
     3
 10
3.0
 20
-200.04721343859629
 30
0.0
 11
3.0
 21
-245.36439612064839
 31
0.0
  0
ARC
  8
OUTLINE
  6
CONTINUOUS
 62
     3
 10
1.5
 20
-245.36439612064839
 30
0.0
 40
1.5
 50
0.0
 51
180.0
  0
LINE
  8
OUTLINE
  6
CONTINUOUS
 62
     3
 10
0.0
 20
-245.36439612064839
 30
0.0
 11
0.0
 21
-316.5
 31
0.0
  0
ARC
  8
OUTLINE
  6
CONTINUOUS
 62
     3
 10
1.5
 20
-316.5
 30
0.0
 40
1.5
 50
180.0
 51
0.0
  0
LINE
  8
OUTLINE
  6
CONTINUOUS
 62
     3
 10
3.0
 20
-316.5
 30
0.0
 11
3.0
 21
-314.35808562257409
 31
0.0
  0
LINE
  8
OUTLINE
  6
CONTINUOUS
 62
     3
 10
3.0
 20
-314.35808562257409
 30
0.0
 11
114.3214088001596
 21
-300.58032077740557
 31
0.0
  0
LINE
  8
OUTLINE
  6
CONTINUOUS
 62
     3
 10
114.3214088001596
 20
-300.58032077740557
 30
0.0
 11
114.3214088001596
 21
-302.39905079781238
 31
0.0
  0
ARC
  8
OUTLINE
  6
CONTINUOUS
 62
     3
 10
115.8214088001596
 20
-302.39905079781238
 30
0.0
 40
1.5
 50
180.0
 51
0.0
  0
LINE
  8
OUTLINE
  6
CONTINUOUS
 62
     3
 10
117.3214088001596
 20
-302.39905079781238
 30
0.0
 11
117.3214088001596
 21
-300.33718560000062
 31
0.0
  0
LINE
  8
OUTLINE
  6
CONTINUOUS
 62
     3
 10
117.3214088001596
 20
-300.33718560000062
 30
0.0
 11
134.49108080001321
 21
-298.22399520000852
 31
0.0
  0
ARC
  8
OUTLINE
  6
CONTINUOUS
 62
     3
 10
126.11765041006097
 20
-227.70851534789659
 30
0.0
 40
71.010895187069565
 50
276.77193334437607
 51
356.55198397635877
  0
LINE
  8
OUTLINE
  6
CONTINUOUS
 62
     3
 10
197.0
 20
-231.97931760024309
 30
0.0
 11
197.0
 21
-207.98100955806879
 31
0.0
  0
ARC
  8
OUTLINE
  6
CONTINUOUS
 62
     3
 10
198.5
 20
-207.98100955806879
 30
0.0
 40
1.5
 50
180.0
 51
0.0
  0
LINE
  8
OUTLINE
  6
CONTINUOUS
 62
     3
 10
200.0
 20
-207.98100955806879
 30
0.0
 11
200.0
 21
207.98100955806859
 31
0.0
  0
ARC
  8
OUTLINE
  6
CONTINUOUS
 62
     3
 10
198.5
 20
207.98100955806859
 30
0.0
 40
1.5
 50
0.0
 51
180.0
  0
LINE
  8
OUTLINE
  6
CONTINUOUS
 62
     3
 10
197.0
 20
207.98100955806859
 30
0.0
 11
197.0
 21
231.97931760024261
 31
0.0
  0
ARC
  8
OUTLINE
  6
CONTINUOUS
 62
     3
 10
126.11765041006058
 20
227.70851534789639
 30
0.0
 40
71.010895187069934
 50
3.4480160236409461
 51
82.738929854853382
  0
TEXT
  8
ETC
  6
CONTINUOUS
 62
    61
 10
310.02804406843819
 20
422.78138904718361
 30
0.0
 40
64.0
  1
G-50XD3_5
 41
0.9
  0
TEXT
  8
ETC
  6
CONTINUOUS
 62
    61
 10
305.84205006843882
 20
304.82607903235242
 30
0.0
 40
64.0
  1
システム部材
 41
0.9
  0
TEXT
  8
ETC
  6
CONTINUOUS
 62
    61
 10
356.54344831699382
 20
196.67730614612711
 30
0.0
 40
40.0
  1
G-50XD3
 50
0.0
 41
0.9
 51
0.0
  7
STANDARD
 71
     0
 11
0.0
 21
0.0
 31
0.0
210
0.0
220
0.0
230
1.0
  0
TEXT
  8
ETC
  6
CONTINUOUS
 62
    61
 10
356.54344831699382
 20
130.67730614612711
 30
0.0
 40
40.0
  1
G-50XD3-F
 50
0.0
 41
0.9
 51
0.0
  7
STANDARD
 71
     0
 11
0.0
 21
0.0
 31
0.0
210
0.0
220
0.0
230
1.0
  0
ENDSEC
  0
EOF
