  0
SECTION
  2
HEADER
  9
$ACADVER
  1
AC1009
  9
$DWGCODEPAGE
  3
dos932
  9
$INSBASE
 10
0.0
 20
0.0
 30
0.0
  9
$EXTMIN
 10
-639.4454790622076
 20
-418.80797166238523
 30
-0.0015258207003583
  9
$EXTMAX
 10
982.05414969945923
 20
660.09522294636736
 30
0.0000000349246037
  9
$LIMMIN
 10
-2970.0
 20
-2100.0
  9
$LIMMAX
 10
2970.0
 20
2100.0
  9
$ORTHOMODE
 70
     1
  9
$REGENMODE
 70
     1
  9
$FILLMODE
 70
     1
  9
$QTEXTMODE
 70
     0
  9
$MIRRTEXT
 70
     0
  9
$LTSCALE
 40
20.0
  9
$ATTMODE
 70
     1
  9
$TEXTSIZE
 40
64.0
  9
$TRACEWID
 40
0.05
  9
$TEXTSTYLE
  7
STANDARD
  9
$CLAYER
  8
SIZE
  9
$CELTYPE
  6
CONTINUOUS
  9
$CECOLOR
 62
     7
  9
$DIMSCALE
 40
1.0
  9
$DIMASZ
 40
12.0
  9
$DIMEXO
 40
20.0
  9
$DIMDLI
 40
200.0
  9
$DIMRND
 40
0.0
  9
$DIMDLE
 40
0.0
  9
$DIMEXE
 40
20.0
  9
$DIMTP
 40
0.0
  9
$DIMTM
 40
0.0
  9
$DIMTXT
 40
64.0
  9
$DIMCEN
 40
0.09
  9
$DIMTSZ
 40
0.0
  9
$DIMTOL
 70
     0
  9
$DIMLIM
 70
     0
  9
$DIMTIH
 70
     0
  9
$DIMTOH
 70
     0
  9
$DIMSE1
 70
     0
  9
$DIMSE2
 70
     0
  9
$DIMTAD
 70
     1
  9
$DIMZIN
 70
     8
  9
$DIMBLK
  1

  9
$DIMASO
 70
     1
  9
$DIMSHO
 70
     0
  9
$DIMPOST
  1

  9
$DIMAPOST
  1

  9
$DIMALT
 70
     0
  9
$DIMALTD
 70
     2
  9
$DIMALTF
 40
25.399999999999999
  9
$DIMLFAC
 40
1.0
  9
$DIMTOFL
 70
     1
  9
$DIMTVP
 40
0.0
  9
$DIMTIX
 70
     1
  9
$DIMSOXD
 70
     0
  9
$DIMSAH
 70
     0
  9
$DIMBLK1
  1

  9
$DIMBLK2
  1

  9
$DIMSTYLE
  2
STANDARD
  9
$DIMCLRD
 70
     7
  9
$DIMCLRE
 70
     7
  9
$DIMCLRT
 70
     7
  9
$DIMTFAC
 40
1.0
  9
$DIMGAP
 40
25.0
  9
$LUNITS
 70
     2
  9
$LUPREC
 70
     4
  9
$SKETCHINC
 40
0.1
  9
$FILLETRAD
 40
3.0
  9
$AUNITS
 70
     1
  9
$AUPREC
 70
     3
  9
$MENU
  1
ACAD
  9
$ELEVATION
 40
0.0
  9
$PELEVATION
 40
0.0
  9
$THICKNESS
 40
0.0
  9
$LIMCHECK
 70
     0
  9
$CHAMFERA
 40
0.0
  9
$CHAMFERB
 40
0.0
  9
$SKPOLY
 70
     0
  9
$TDCREATE
 40
2453019.62301037
  9
$TDUPDATE
 40
2459375.45620853
  9
$TDINDWG
 40
1.7179095023
  9
$TDUSRTIMER
 40
1.7179095023
  9
$USRTIMER
 70
     1
  9
$ANGBASE
 50
0.0
  9
$ANGDIR
 70
     0
  9
$PDMODE
 70
     3
  9
$PDSIZE
 40
-2.0
  9
$PLINEWID
 40
0.0
  9
$SPLFRAME
 70
     0
  9
$SPLINETYPE
 70
     6
  9
$SPLINESEGS
 70
     8
  9
$SURFTAB1
 70
     6
  9
$SURFTAB2
 70
     6
  9
$SURFTYPE
 70
     6
  9
$SURFU
 70
     6
  9
$SURFV
 70
     6
  9
$UCSNAME
  2

  9
$UCSORG
 10
0.0
 20
0.0
 30
0.0
  9
$UCSXDIR
 10
1.0
 20
0.0
 30
0.0
  9
$UCSYDIR
 10
0.0
 20
1.0
 30
0.0
  9
$PUCSNAME
  2

  9
$PUCSORG
 10
0.0
 20
0.0
 30
0.0
  9
$PUCSXDIR
 10
1.0
 20
0.0
 30
0.0
  9
$PUCSYDIR
 10
0.0
 20
1.0
 30
0.0
  9
$USERI1
 70
     0
  9
$USERI2
 70
     0
  9
$USERI3
 70
     0
  9
$USERI4
 70
     0
  9
$USERI5
 70
     0
  9
$USERR1
 40
20.0
  9
$USERR2
 40
0.0
  9
$USERR3
 40
0.0
  9
$USERR4
 40
0.0
  9
$USERR5
 40
0.0
  9
$WORLDVIEW
 70
     1
  9
$SHADEDGE
 70
     3
  9
$SHADEDIF
 70
    70
  9
$TILEMODE
 70
     1
  9
$MAXACTVP
 70
    48
  9
$PINSBASE
 10
0.0
 20
0.0
 30
0.0
  9
$PLIMCHECK
 70
     0
  9
$PEXTMIN
 10
-100000000000000000000.0
 20
-100000000000000000000.0
 30
-100000000000000000000.0
  9
$PEXTMAX
 10
100000000000000000000.0
 20
100000000000000000000.0
 30
100000000000000000000.0
  9
$PLIMMIN
 10
0.0
 20
0.0
  9
$PLIMMAX
 10
12.0
 20
9.0
  9
$UNITMODE
 70
     0
  9
$VISRETAIN
 70
     0
  9
$PLINEGEN
 70
     0
  9
$PSLTSCALE
 70
     0
  9
$TREEDEPTH
 70
  3020
  9
$ATTDIA
 70
     0
  9
$ATTREQ
 70
     1
  9
$BLIPMODE
 70
     1
  9
$COORDS
 70
     1
  9
$DRAGMODE
 70
     2
  9
$OSMODE
 70
     0
  9
$HANDLING
 70
     0
  9
$HANDSEED
  5
FC36
  0
ENDSEC
  0
SECTION
  2
TABLES
  0
TABLE
  2
LTYPE
 70
     2
  0
LTYPE
  2
CONTINUOUS
 70
     0
  3
実線
 72
    65
 73
     0
 40
0.0
  0
LTYPE
  2
DASHDOT
 70
     0
  3
____ _ ____ _ ____ _ ____ _ ____ _ ____ _ ____
 72
    65
 73
     4
 40
5.5
 49
4.0
 49
-0.6
 49
0.3
 49
-0.6
  0
ENDTAB
  0
TABLE
  2
LAYER
 70
    12
  0
LAYER
  2
0
 70
     0
 62
     7
  6
CONTINUOUS
  0
LAYER
  2
BASIS
 70
     0
 62
     6
  6
DASHDOT
  0
LAYER
  2
OUTLINE
 70
     0
 62
     3
  6
CONTINUOUS
  0
LAYER
  2
DETAIL
 70
     0
 62
     5
  6
CONTINUOUS
  0
LAYER
  2
SIZE
 70
     0
 62
    30
  6
CONTINUOUS
  0
LAYER
  2
ARRANGE
 70
     0
 62
     1
  6
CONTINUOUS
  0
LAYER
  2
DEFPOINTS
 70
     0
 62
     7
  6
CONTINUOUS
  0
LAYER
  2
ETC
 70
     0
 62
    61
  6
CONTINUOUS
  0
LAYER
  2
FIX
 70
    64
 62
    11
  6
CONTINUOUS
  0
LAYER
  2
NOTE
 70
    64
 62
     4
  6
CONTINUOUS
  0
LAYER
  2
SERVICESPACE
 70
    64
 62
     2
  6
DASHDOT
  0
LAYER
  2
SYMBOLLINE
 70
    64
 62
    15
  6
CONTINUOUS
  0
ENDTAB
  0
TABLE
  2
STYLE
 70
     1
  0
STYLE
  2
STANDARD
 70
     0
 40
64.0
 41
0.9
 50
0.0
 71
     0
 42
64.0
  3
SIMPLEX.shx
  4
BIGFONT.shx
  0
ENDTAB
  0
TABLE
  2
APPID
 70
    20
  0
APPID
  2
ACAD
 70
     0
  0
APPID
  2
AUTOCAD_POSTSCRIPT_FIGURE
 70
     0
  0
APPID
  2
ACAD_EXEMPT_FROM_CAD_STANDARDS
 70
     0
  0
APPID
  2
ACAD_PSEXT
 70
     0
  0
APPID
  2
ACAUTHENVIRON
 70
     0
  0
APPID
  2
GENIUS_GENOENT_13
 70
     0
  0
APPID
  2
GENIUS_GENCFG_13
 70
     0
  0
APPID
  2
GENIUS_GENCFG0_13
 70
     0
  0
APPID
  2
GENIUS_GENCFG1_13
 70
     0
  0
APPID
  2
GENIUS_GENCFG2_13
 70
     0
  0
APPID
  2
GENIUS_GENCFG3_13
 70
     0
  0
APPID
  2
GENIUS_GENCFG4_13
 70
     0
  0
APPID
  2
GENIUS_GEVCFG0_13
 70
     0
  0
APPID
  2
CONTENTBLOCKICON
 70
     0
  0
APPID
  2
CONTENTBLOCKDESCRIPTION
 70
     0
  0
APPID
  2
ACAD_NAV_VCDISPLAY
 70
     0
  0
APPID
  2
ACAD_MLEADERVER
 70
     0
  0
APPID
  2
ACDBDYNAMICBLOCKTRUENAME
 70
     0
  0
APPID
  2
ACDBDYNAMICBLOCKGUID
 70
     0
  0
APPID
  2
ACAD_DSTYLE_DIMRADIAL_EXTENSION
 70
     0
  0
ENDTAB
  0
TABLE
  2
DIMSTYLE
 70
     1
  0
DIMSTYLE
  2
STANDARD
 70
     0
  3

  4

  5
_ORIGIN
  6

  7

 40
1.0
 41
12.0
 42
20.0
 43
200.0
 44
20.0
 45
0.0
 46
0.0
 47
0.0
 48
0.0
140
64.0
141
0.09
142
0.0
143
25.399999999999999
144
1.0
145
0.0
146
1.0
147
25.0
 71
     0
 72
     0
 73
     0
 74
     0
 75
     0
 76
     0
 77
     1
 78
     8
170
     0
171
     2
172
     1
173
     0
174
     1
175
     0
176
     7
177
     7
178
     7
  0
ENDTAB
  0
TABLE
  2
VIEW
 70
     1
  0
VIEW
  2
ALL
 70
     0
 40
4282.6198079999986
 10
0.0
 20
41.309904000000003
 41
5940.0
 11
0.0
 21
0.0
 31
1.0
 12
0.0
 22
0.0
 32
0.0
 42
50.0
 43
0.0
 44
0.0
 50
0.0
 71
     0
  0
ENDTAB
  0
TABLE
  2
UCS
 70
     0
  0
ENDTAB
  0
TABLE
  2
VPORT
 70
     1
  0
VPORT
  2
*ACTIVE
 70
     0
 10
0.0
 20
0.0
 11
1.0
 21
1.0
 12
171.30433531862579
 22
120.64362564199109
 13
0.0
 23
0.0
 14
1.0
 24
1.0
 15
0.0
 25
0.0
 16
0.0
 26
0.0
 36
1.0
 17
0.0
 27
0.0
 37
0.0
 40
1086.136065187135
 41
1.767337807606264
 42
50.0
 43
0.0
 44
0.0
 50
0.0
 51
0.0
 71
     0
 72
  1000
 73
     1
 74
     3
 75
     0
 76
     0
 77
     0
 78
     0
  0
ENDTAB
  0
ENDSEC
  0
SECTION
  2
BLOCKS
  0
BLOCK
  8
0
  2
_ORIGIN
 70
     0
 10
0.0
 20
0.0
 30
0.0
  3
_ORIGIN
  1
_ORIGIN
  0
CIRCLE
  8
SIZE
  6
CONTINUOUS
 62
    30
 10
0.0
 20
0.0
 30
0.0
 40
0.5
  0
LINE
  8
SIZE
  6
CONTINUOUS
 62
    30
 10
0.0
 20
0.0
 30
0.0
 11
-1.0
 21
0.0
 31
0.0
  0
ENDBLK
  8
0
  0
ENDSEC
  0
SECTION
  2
ENTITIES
  0
TEXT
  8
ETC
  6
CONTINUOUS
 62
    61
 10
526.55094735883404
 20
596.02025054617684
 30
0.0
 40
64.0
  1
G-60XD3_3
 41
0.9
  0
TEXT
  8
ETC
  6
CONTINUOUS
 62
    61
 10
573.06635160738961
 20
369.91616764512042
 30
0.0
 40
40.0
  1
G-60XD3
 50
0.0
 41
0.9
 51
0.0
  7
STANDARD
 71
     0
 11
0.0
 21
0.0
 31
0.0
210
0.0
220
0.0
230
1.0
  0
TEXT
  8
ETC
  6
CONTINUOUS
 62
    61
 10
573.06635160738961
 20
303.91616764512042
 30
0.0
 40
40.0
  1
G-60XD3-F
 50
0.0
 41
0.9
 51
0.0
  7
STANDARD
 71
     0
 11
0.0
 21
0.0
 31
0.0
210
0.0
220
0.0
230
1.0
  0
TEXT
  8
ETC
  6
CONTINUOUS
 62
    61
 10
522.36495335883455
 20
478.06494053134571
 30
0.0
 40
64.0
  1
システム部材
 41
0.9
  0
LINE
  8
DETAIL
  6
CONTINUOUS
 62
     5
 10
263.39727599189882
 20
315.72317779979949
 30
0.0
 11
315.72317779979949
 21
263.39727599189968
 31
0.0
  0
LINE
  8
DETAIL
  6
CONTINUOUS
 62
     5
 10
315.72317779979949
 20
-263.39727599190059
 30
0.0
 11
263.39727599189882
 21
-315.7231777998004
 31
0.0
  0
LINE
  8
DETAIL
  6
CONTINUOUS
 62
     5
 10
261.27595564830062
 20
313.60185745619953
 30
0.0
 11
313.60185745619953
 21
261.27595564829971
 31
0.0
  0
LINE
  8
DETAIL
  6
CONTINUOUS
 62
     5
 10
313.60185745619953
 20
-261.27595564830062
 30
0.0
 11
261.27595564830062
 21
-313.60185745620038
 31
0.0
  0
LINE
  8
DETAIL
  6
CONTINUOUS
 62
     5
 10
280.36783874040071
 20
223.79929624560009
 30
0.0
 11
282.48915908399891
 21
221.6779759020001
 31
0.0
  0
LINE
  8
DETAIL
  6
CONTINUOUS
 62
     5
 10
223.79929624560191
 20
280.36783874039969
 30
0.0
 11
221.6779759020001
 21
282.48915908399982
 31
0.0
  0
LINE
  8
DETAIL
  6
CONTINUOUS
 62
     5
 10
280.36783874040071
 20
-223.79929624560009
 30
0.0
 11
282.48915908399891
 21
-221.6779759020001
 31
0.0
  0
LINE
  8
DETAIL
  6
CONTINUOUS
 62
     5
 10
223.79929624560191
 20
-280.36783874040071
 30
0.0
 11
221.6779759020001
 21
-282.48915908400068
 31
0.0
  0
LINE
  8
DETAIL
  6
CONTINUOUS
 62
     5
 10
-254.91199461779891
 20
315.72317779979949
 30
0.0
 11
-226.24714071466681
 21
287.05832389666739
 31
0.0
  0
LINE
  8
DETAIL
  6
CONTINUOUS
 62
     5
 10
-224.11086170812359
 20
284.92204489012369
 30
0.0
 11
-221.67797590199831
 21
282.48915908399982
 31
0.0
  0
LINE
  8
DETAIL
  6
CONTINUOUS
 62
     5
 10
282.48915908399891
 20
-221.6779759020001
 30
0.0
 11
284.92204489012329
 21
-224.11086170812541
 31
0.0
  0
LINE
  8
DETAIL
  6
CONTINUOUS
 62
     5
 10
287.05832389666739
 20
-226.24714071466951
 30
0.0
 11
315.72317779979949
 21
-254.9119946178007
 31
0.0
  0
LINE
  8
DETAIL
  6
CONTINUOUS
 62
     5
 10
-257.03331496140072
 20
313.60185745619953
 30
0.0
 11
-228.61089219474621
 21
285.17943468954542
 31
0.0
  0
LINE
  8
DETAIL
  6
CONTINUOUS
 62
     5
 10
-226.47664608484499
 20
283.04518857964467
 30
0.0
 11
-223.79929624560009
 21
280.36783874039969
 31
0.0
  0
LINE
  8
DETAIL
  6
CONTINUOUS
 62
     5
 10
280.36783874040071
 20
-223.79929624560009
 30
0.0
 11
283.04518857964649
 21
-226.4766460848459
 31
0.0
  0
LINE
  8
DETAIL
  6
CONTINUOUS
 62
     5
 10
285.17943468954672
 20
-228.61089219474661
 30
0.0
 11
313.60185745619953
 21
-257.03331496140072
 31
0.0
  0
LINE
  8
DETAIL
  6
CONTINUOUS
 62
     5
 10
315.72317779979949
 20
254.91199461779979
 30
0.0
 11
287.05832389666739
 21
226.24714071466909
 31
0.0
  0
LINE
  8
DETAIL
  6
CONTINUOUS
 62
     5
 10
284.92204489012329
 20
224.11086170812541
 30
0.0
 11
282.48915908399891
 21
221.6779759020001
 31
0.0
  0
LINE
  8
DETAIL
  6
CONTINUOUS
 62
     5
 10
-221.67797590199831
 20
-282.48915908400068
 30
0.0
 11
-224.1108617081218
 21
-284.9220448901242
 31
0.0
  0
LINE
  8
DETAIL
  6
CONTINUOUS
 62
     5
 10
-226.2471407146659
 20
-287.0583238966683
 30
0.0
 11
-254.91199461779891
 21
-315.7231777998004
 31
0.0
  0
LINE
  8
DETAIL
  6
CONTINUOUS
 62
     5
 10
313.60185745619953
 20
257.03331496139981
 30
0.0
 11
285.17943468954672
 21
228.61089219474661
 31
0.0
  0
LINE
  8
DETAIL
  6
CONTINUOUS
 62
     5
 10
283.04518857964649
 20
226.4766460848459
 30
0.0
 11
280.36783874040071
 21
223.79929624560009
 31
0.0
  0
LINE
  8
DETAIL
  6
CONTINUOUS
 62
     5
 10
-223.79929624560009
 20
-280.36783874040071
 30
0.0
 11
-226.47664608484499
 21
-283.04518857964558
 31
0.0
  0
LINE
  8
DETAIL
  6
CONTINUOUS
 62
     5
 10
-228.61089219474519
 20
-285.17943468954581
 30
0.0
 11
-257.03331496140072
 21
-313.60185745620038
 31
0.0
  0
LINE
  8
BASIS
  6
DASHDOT
 62
     6
 10
0.0000000000009095
 20
-418.54999999989008
 30
0.0
 11
0.0000000000009095
 21
418.54999999988922
 31
0.0
  0
LINE
  8
DETAIL
  6
CONTINUOUS
 62
     5
 10
233.89028708460049
 20
-276.95050750530032
 30
0.0
 11
235.81865953800019
 21
-279.24865230420068
 31
0.0
  0
LINE
  8
DETAIL
  6
CONTINUOUS
 62
     5
 10
-233.89028708490059
 20
276.95050750529941
 30
0.0
 11
-235.8186595379984
 21
279.24865230419982
 31
0.0
  0
LINE
  8
DETAIL
  6
CONTINUOUS
 62
     5
 10
-249.1477516478981
 20
250.77409724459989
 30
0.0
 11
-247.02641998289889
 21
248.65276557959899
 31
0.0
  0
LINE
  8
DETAIL
  6
CONTINUOUS
 62
     5
 10
249.1477516478999
 20
-250.77409724459989
 30
0.0
 11
247.02641998290071
 21
-248.6527655795999
 31
0.0
  0
LINE
  8
DETAIL
  6
CONTINUOUS
 62
     5
 10
-166.1876895974992
 20
137.9468106648001
 30
0.0
 11
-168.49917733379971
 21
139.8863791715994
 31
0.0
  0
LINE
  8
BASIS
  6
DASHDOT
 62
     6
 10
418.54999999988922
 20
0.0
 30
0.0
 11
-418.54999999988831
 21
0.0
 31
0.0
  0
LINE
  8
DETAIL
  6
CONTINUOUS
 62
     5
 10
-276.95050750529748
 20
-233.89028708460049
 30
0.0
 11
-279.248652304198
 21
-235.81865953800019
 31
0.0
  0
LINE
  8
DETAIL
  6
CONTINUOUS
 62
     5
 10
276.95050750530118
 20
233.89028708459949
 30
0.0
 11
279.24865230419982
 21
235.81865953800019
 31
0.0
  0
LINE
  8
DETAIL
  6
CONTINUOUS
 62
     5
 10
250.77409724460179
 20
249.1477516478999
 30
0.0
 11
248.65276557960081
 21
247.0264199828998
 31
0.0
  0
LINE
  8
DETAIL
  6
CONTINUOUS
 62
     5
 10
-250.77409724459989
 20
-249.1477516478999
 30
0.0
 11
-248.65276557960081
 21
-247.02641998290071
 31
0.0
  0
LINE
  8
DETAIL
  6
CONTINUOUS
 62
     5
 10
257.0333149613989
 20
-313.60185745620038
 30
0.0
 11
228.61089219474709
 21
-285.17943468954633
 31
0.0
  0
LINE
  8
DETAIL
  6
CONTINUOUS
 62
     5
 10
226.47664608484681
 20
-283.04518857964558
 30
0.0
 11
223.79929624560191
 21
-280.36783874040071
 31
0.0
  0
LINE
  8
DETAIL
  6
CONTINUOUS
 62
     5
 10
-280.36783874039878
 20
223.79929624560009
 30
0.0
 11
-283.04518857964467
 21
226.4766460848455
 31
0.0
  0
LINE
  8
DETAIL
  6
CONTINUOUS
 62
     5
 10
-285.17943468954491
 20
228.61089219474621
 30
0.0
 11
-313.60185745619953
 21
257.03331496139981
 31
0.0
  0
LINE
  8
DETAIL
  6
CONTINUOUS
 62
     5
 10
254.9119946178007
 20
-315.7231777998004
 30
0.0
 11
226.24714071466769
 21
-287.0583238966683
 31
0.0
  0
LINE
  8
DETAIL
  6
CONTINUOUS
 62
     5
 10
224.11086170812359
 20
-284.9220448901242
 30
0.0
 11
221.6779759020001
 21
-282.48915908400068
 31
0.0
  0
LINE
  8
DETAIL
  6
CONTINUOUS
 62
     5
 10
-282.48915908400068
 20
221.6779759020001
 30
0.0
 11
-284.92204489012329
 21
224.11086170812311
 31
0.0
  0
LINE
  8
DETAIL
  6
CONTINUOUS
 62
     5
 10
-287.05832389666739
 20
226.24714071466721
 30
0.0
 11
-315.72317779980131
 21
254.91199461779979
 31
0.0
  0
LINE
  8
DETAIL
  6
CONTINUOUS
 62
     5
 10
-313.60185745619953
 20
-257.03331496140072
 30
0.0
 11
-285.17943468954491
 21
-228.61089219474621
 31
0.0
  0
LINE
  8
DETAIL
  6
CONTINUOUS
 62
     5
 10
-283.04518857964467
 20
-226.4766460848459
 30
0.0
 11
-280.36783874039878
 21
-223.79929624560009
 31
0.0
  0
LINE
  8
DETAIL
  6
CONTINUOUS
 62
     5
 10
223.79929624560191
 20
280.36783874039969
 30
0.0
 11
226.47664608484681
 21
283.04518857964513
 31
0.0
  0
LINE
  8
DETAIL
  6
CONTINUOUS
 62
     5
 10
228.61089219474709
 20
285.17943468954581
 30
0.0
 11
257.0333149613989
 21
313.60185745619953
 31
0.0
  0
LINE
  8
DETAIL
  6
CONTINUOUS
 62
     5
 10
-315.72317779980131
 20
-254.9119946178007
 30
0.0
 11
-287.05832389666739
 21
-226.24714071466681
 31
0.0
  0
LINE
  8
DETAIL
  6
CONTINUOUS
 62
     5
 10
-284.92204489012329
 20
-224.11086170812271
 30
0.0
 11
-282.48915908400068
 21
-221.6779759020001
 31
0.0
  0
LINE
  8
DETAIL
  6
CONTINUOUS
 62
     5
 10
221.6779759020001
 20
282.48915908399982
 30
0.0
 11
224.1108617081245
 21
284.9220448901242
 31
0.0
  0
LINE
  8
DETAIL
  6
CONTINUOUS
 62
     5
 10
226.2471407146686
 20
287.0583238966683
 30
0.0
 11
254.9119946178007
 21
315.72317779979949
 31
0.0
  0
LINE
  8
DETAIL
  6
CONTINUOUS
 62
     5
 10
-223.79929624560009
 20
-280.36783874040071
 30
0.0
 11
-221.67797590199831
 21
-282.48915908400068
 31
0.0
  0
LINE
  8
DETAIL
  6
CONTINUOUS
 62
     5
 10
-280.36783874039878
 20
-223.79929624560009
 30
0.0
 11
-282.48915908400068
 21
-221.6779759020001
 31
0.0
  0
LINE
  8
DETAIL
  6
CONTINUOUS
 62
     5
 10
-223.79929624560009
 20
280.36783874039969
 30
0.0
 11
-221.67797590199831
 21
282.48915908399982
 31
0.0
  0
LINE
  8
DETAIL
  6
CONTINUOUS
 62
     5
 10
-280.36783874039878
 20
223.79929624560009
 30
0.0
 11
-282.48915908400068
 21
221.6779759020001
 31
0.0
  0
LINE
  8
DETAIL
  6
CONTINUOUS
 62
     5
 10
-261.27595564860081
 20
-313.60185745620038
 30
0.0
 11
-313.60185745619953
 21
-261.27595564830062
 31
0.0
  0
LINE
  8
DETAIL
  6
CONTINUOUS
 62
     5
 10
-263.39727599190059
 20
-315.7231777998004
 30
0.0
 11
-315.72317779980131
 21
-263.39727599190059
 31
0.0
  0
LINE
  8
DETAIL
  6
CONTINUOUS
 62
     5
 10
-313.60185745619953
 20
261.27595564829971
 30
0.0
 11
-261.27595564860081
 21
313.60185745619953
 31
0.0
  0
LINE
  8
DETAIL
  6
CONTINUOUS
 62
     5
 10
-315.72317779980131
 20
263.39727599189968
 30
0.0
 11
-263.39727599190059
 21
315.72317779979949
 31
0.0
  0
ARC
  8
DETAIL
  6
CONTINUOUS
 62
     5
 10
311.48053711260133
 20
-259.15463530499977
 30
0.0
 40
6.0
 50
315.00000000001882
 51
44.999999999981291
  0
ARC
  8
DETAIL
  6
CONTINUOUS
 62
     5
 10
259.15463530470061
 20
-311.48053711260042
 30
0.0
 40
6.0
 50
224.99999999998121
 51
315.00000000001882
  0
ARC
  8
DETAIL
  6
CONTINUOUS
 62
     5
 10
311.48053711260133
 20
-259.15463530499977
 30
0.0
 40
3.0
 50
315.00000000001882
 51
44.999999999981291
  0
ARC
  8
DETAIL
  6
CONTINUOUS
 62
     5
 10
259.15463530470061
 20
-311.48053711260042
 30
0.0
 40
3.0
 50
224.99999999998121
 51
315.00000000001882
  0
ARC
  8
DETAIL
  6
CONTINUOUS
 62
     5
 10
259.15463530470061
 20
311.48053711259939
 30
0.0
 40
6.0
 50
44.999999999981291
 51
135.0000000000187
  0
ARC
  8
DETAIL
  6
CONTINUOUS
 62
     5
 10
311.48053711260133
 20
259.15463530499892
 30
0.0
 40
6.0
 50
315.00000000001882
 51
44.999999999981291
  0
ARC
  8
DETAIL
  6
CONTINUOUS
 62
     5
 10
259.15463530470061
 20
311.48053711259939
 30
0.0
 40
3.0
 50
44.999999999981291
 51
135.0000000000187
  0
ARC
  8
DETAIL
  6
CONTINUOUS
 62
     5
 10
311.48053711260133
 20
259.15463530499892
 30
0.0
 40
3.0
 50
315.00000000001882
 51
44.999999999981291
  0
ARC
  8
DETAIL
  6
CONTINUOUS
 62
     5
 10
-259.15463530500261
 20
-311.48053711260042
 30
0.0
 40
6.0
 50
224.99999999998121
 51
315.00000000001882
  0
ARC
  8
DETAIL
  6
CONTINUOUS
 62
     5
 10
-311.48053711259757
 20
-259.15463530499977
 30
0.0
 40
6.0
 50
135.0000000000187
 51
224.99999999998121
  0
ARC
  8
DETAIL
  6
CONTINUOUS
 62
     5
 10
-259.15463530500261
 20
-311.48053711260042
 30
0.0
 40
3.0
 50
224.99999999998121
 51
315.00000000001882
  0
ARC
  8
DETAIL
  6
CONTINUOUS
 62
     5
 10
-311.48053711259757
 20
-259.15463530499977
 30
0.0
 40
3.0
 50
135.0000000000187
 51
224.99999999998121
  0
ARC
  8
DETAIL
  6
CONTINUOUS
 62
     5
 10
0.0000000000009095
 20
0.0
 30
0.0
 40
365.49999999990001
 50
139.8197257045228
 51
220.18027429588599
  0
ARC
  8
DETAIL
  6
CONTINUOUS
 62
     5
 10
0.0000000000009095
 20
0.0
 30
0.0
 40
365.49999999990001
 50
229.81972570449989
 51
310.18027429590188
  0
ARC
  8
DETAIL
  6
CONTINUOUS
 62
     5
 10
0.0000000000009095
 20
0.0
 30
0.0
 40
365.49999999990001
 50
49.81972570449998
 51
130.18027429590191
  0
ARC
  8
DETAIL
  6
CONTINUOUS
 62
     5
 10
0.0000000000009095
 20
0.0
 30
0.0
 40
365.49999999990001
 50
319.8197257045228
 51
40.180274295885972
  0
ARC
  8
DETAIL
  6
CONTINUOUS
 62
     5
 10
0.0000000000009095
 20
0.0
 30
0.0
 40
362.49999999990001
 50
139.81823377441731
 51
220.18176622604719
  0
ARC
  8
DETAIL
  6
CONTINUOUS
 62
     5
 10
0.0000000000009095
 20
0.0
 30
0.0
 40
362.49999999990001
 50
229.81823377441671
 51
310.18176622611952
  0
ARC
  8
DETAIL
  6
CONTINUOUS
 62
     5
 10
0.0000000000009095
 20
0.0
 30
0.0
 40
362.49999999990001
 50
49.818233774416711
 51
130.18176622611949
  0
ARC
  8
DETAIL
  6
CONTINUOUS
 62
     5
 10
0.0000000000009095
 20
0.0
 30
0.0
 40
362.49999999990001
 50
319.81823377441731
 51
40.181766226047259
  0
CIRCLE
  8
DETAIL
  6
CONTINUOUS
 62
     5
 10
0.0000000000009095
 20
0.0
 30
0.0
 40
126.9999999999
  0
ARC
  8
DETAIL
  6
CONTINUOUS
 62
     5
 10
-311.48053711259757
 20
259.15463530499892
 30
0.0
 40
6.0
 50
135.0000000000187
 51
224.99999999998121
  0
ARC
  8
DETAIL
  6
CONTINUOUS
 62
     5
 10
-259.15463530500261
 20
311.48053711259939
 30
0.0
 40
6.0
 50
44.999999999981291
 51
135.0000000000187
  0
ARC
  8
DETAIL
  6
CONTINUOUS
 62
     5
 10
-311.48053711259757
 20
259.15463530499892
 30
0.0
 40
3.0
 50
135.0000000000187
 51
224.99999999998121
  0
ARC
  8
DETAIL
  6
CONTINUOUS
 62
     5
 10
-259.15463530500261
 20
311.48053711259939
 30
0.0
 40
3.0
 50
44.999999999981291
 51
135.0000000000187
  0
ARC
  8
DETAIL
  6
CONTINUOUS
 62
     5
 10
-247.1551669744259
 20
247.13288235707816
 30
0.0
 40
1.1657576143313335
 50
44.992345648506785
 51
71.381637193276049
  0
ARC
  8
DETAIL
  6
CONTINUOUS
 62
     5
 10
-247.15278215269527
 20
247.13981933444279
 30
0.0
 40
1.1584222912245461
 50
71.38387745693035
 51
89.774982267078826
  0
ARC
  8
DETAIL
  6
CONTINUOUS
 62
     5
 10
-247.19036572733501
 20
247.49112354687915
 30
0.0
 40
0.808208119832581
 50
87.011735208734933
 51
105.48969266445903
  0
ARC
  8
DETAIL
  6
CONTINUOUS
 62
     5
 10
-247.14661200435222
 20
247.15263735702271
 30
0.0
 40
1.1516291111000485
 50
167.98558074616642
 51
180.21914114492529
  0
ARC
  8
DETAIL
  6
CONTINUOUS
 62
     5
 10
-247.13981933444063
 20
247.15278215269714
 30
0.0
 40
1.1584222912249031
 50
180.22501773292538
 51
198.61612254306783
  0
ARC
  8
DETAIL
  6
CONTINUOUS
 62
     5
 10
-247.13288235707637
 20
247.15516697442769
 30
0.0
 40
1.165757614331334
 50
198.61836280672401
 51
225.00765435149322
  0
ARC
  8
DETAIL
  6
CONTINUOUS
 62
     5
 10
-247.13288235707637
 20
-247.15516697442769
 30
0.0
 40
1.1657576143313335
 50
134.99234564850678
 51
161.38163719327599
  0
ARC
  8
DETAIL
  6
CONTINUOUS
 62
     5
 10
-247.13981933444063
 20
-247.15278215269714
 30
0.0
 40
1.1584222912249036
 50
161.38387745693217
 51
179.77498226707462
  0
ARC
  8
DETAIL
  6
CONTINUOUS
 62
     5
 10
-247.49112354723422
 20
-247.19036572735843
 30
0.0
 40
0.8082081194773388
 50
177.01173520588486
 51
195.48969266157599
  0
ARC
  8
DETAIL
  6
CONTINUOUS
 62
     5
 10
-247.15263735702095
 20
-247.14661200435324
 30
0.0
 40
1.1516291111008179
 50
257.9855807576447
 51
270.21914114492654
  0
ARC
  8
DETAIL
  6
CONTINUOUS
 62
     5
 10
-247.15278215269527
 20
-247.13981933444279
 30
0.0
 40
1.1584222912245461
 50
270.22501773292117
 51
288.61612254306965
  0
ARC
  8
DETAIL
  6
CONTINUOUS
 62
     5
 10
-247.1551669744259
 20
-247.13288235707816
 30
0.0
 40
1.165757614331334
 50
288.61836280672401
 51
315.00765435149333
  0
ARC
  8
DETAIL
  6
CONTINUOUS
 62
     5
 10
247.13288235707816
 20
247.15516697442769
 30
0.0
 40
1.1657576143313335
 50
314.99234564850667
 51
341.38163719327599
  0
ARC
  8
DETAIL
  6
CONTINUOUS
 62
     5
 10
247.13981933444242
 20
247.15278215269714
 30
0.0
 40
1.1584222912249036
 50
341.38387745693217
 51
359.77498226707473
  0
ARC
  8
DETAIL
  6
CONTINUOUS
 62
     5
 10
247.4911235471977
 20
247.19036572735604
 30
0.0
 40
0.8082081195154521
 50
357.01173520619545
 51
15.48969266184713
  0
ARC
  8
DETAIL
  6
CONTINUOUS
 62
     5
 10
247.1526373570224
 20
247.14661200434972
 30
0.0
 40
1.151629111104334
 50
77.985580757079163
 51
90.219141144908917
  0
ARC
  8
DETAIL
  6
CONTINUOUS
 62
     5
 10
247.15278215269714
 20
247.13981933444242
 30
0.0
 40
1.1584222912249031
 50
90.225017732925323
 51
108.61612254306783
  0
ARC
  8
DETAIL
  6
CONTINUOUS
 62
     5
 10
247.15516697442769
 20
247.13288235707816
 30
0.0
 40
1.165757614331334
 50
108.61836280672395
 51
135.00765435149322
  0
ARC
  8
DETAIL
  6
CONTINUOUS
 62
     5
 10
247.15516697442769
 20
-247.13288235707816
 30
0.0
 40
1.1657576143313335
 50
224.99234564850678
 51
251.38163719327599
  0
ARC
  8
DETAIL
  6
CONTINUOUS
 62
     5
 10
247.15278215269714
 20
-247.13981933444242
 30
0.0
 40
1.1584222912249036
 50
251.38387745693217
 51
269.77498226707473
  0
ARC
  8
DETAIL
  6
CONTINUOUS
 62
     5
 10
247.19036572735604
 20
-247.4911235471977
 30
0.0
 40
0.8082081195154521
 50
267.01173520619545
 51
285.48969266184713
  0
ARC
  8
DETAIL
  6
CONTINUOUS
 62
     5
 10
247.14661200434972
 20
-247.1526373570224
 30
0.0
 40
1.151629111104334
 50
347.98558075707911
 51
0.2191411449089173
  0
ARC
  8
DETAIL
  6
CONTINUOUS
 62
     5
 10
247.13981933444242
 20
-247.15278215269714
 30
0.0
 40
1.1584222912249031
 50
0.2250177329253233
 51
18.616122543067831
  0
ARC
  8
DETAIL
  6
CONTINUOUS
 62
     5
 10
247.13288235707816
 20
-247.15516697442769
 30
0.0
 40
1.165757614331334
 50
18.618362806723951
 51
45.007654351493215
  0
LINE
  8
SIZE
  6
CONTINUOUS
 62
    30
 10
646.37492966551372
 20
169.28757694341081
 30
0.0
 11
134.4647948854458
 21
35.216742273914363
 31
0.0
  0
LINE
  8
SIZE
  6
CONTINUOUS
 62
    30
 10
-134.46479488544659
 20
-35.216742273914292
 30
0.0
 11
-146.07326638635669
 21
-38.257036570945033
 31
0.0
  0
TEXT
  8
SIZE
  6
CONTINUOUS
 62
    30
 10
405.96223602544291
 20
132.16595060578982
 30
0.0
 40
64.0
  1
φ254
 50
14.676302296009794
 41
0.9
 51
0.0
  7
STANDARD
 71
     0
 72
     1
 11
517.68216575020188
 21
161.42574292041374
 31
0.0
210
0.0
220
0.0
230
1.0
  0
LINE
  8
SIZE
  6
CONTINUOUS
 62
    30
 10
-122.85632338453649
 20
-32.176447976883537
 30
0.0
 11
122.8563233845357
 21
32.176447976883608
 31
0.0
  0
CIRCLE
  8
SIZE
  6
CONTINUOUS
 62
    30
 10
-122.85632338453649
 20
-32.176447976883537
 30
0.0
 40
6.0
  0
LINE
  8
SIZE
  6
CONTINUOUS
 62
    30
 10
-122.85632338453649
 20
-32.176447976883537
 30
0.0
 11
-134.46479488544662
 21
-35.216742273914285
 31
0.0
  0
CIRCLE
  8
SIZE
  6
CONTINUOUS
 62
    30
 10
122.8563233845357
 20
32.176447976883608
 30
0.0
 40
6.0
  0
LINE
  8
SIZE
  6
CONTINUOUS
 62
    30
 10
122.8563233845357
 20
32.176447976883608
 30
0.0
 11
134.46479488544583
 21
35.216742273914356
 31
0.0
  0
POINT
  8
DEFPOINTS
  6
CONTINUOUS
 62
    30
 10
122.8563233845357
 20
32.176447976883608
 30
0.0
  0
POINT
  8
DEFPOINTS
  6
CONTINUOUS
 62
    30
 10
-122.85632338453649
 20
-32.176447976883537
 30
0.0
  0
LINE
  8
SIZE
  6
CONTINUOUS
 62
    30
 10
581.31442636526197
 20
-200.8762151723129
 30
0.0
 11
356.79821886280831
 21
-123.293475156849
 31
0.0
  0
LINE
  8
SIZE
  6
CONTINUOUS
 62
    30
 10
-356.79821886280678
 20
123.29347515684989
 30
0.0
 11
-368.14014899884609
 21
127.2127379432939
 31
0.0
  0
TEXT
  8
SIZE
  6
CONTINUOUS
 62
    30
 10
379.72622196973305
 20
-104.76584113556044
 30
0.0
 40
64.0
  1
φ731
 50
340.93714410671078
 41
0.9
 51
0.0
  7
STANDARD
 71
     0
 72
     1
 11
482.89241848714624
 21
-140.41545544105446
 31
0.0
210
0.0
220
0.0
230
1.0
  0
LINE
  8
SIZE
  6
CONTINUOUS
 62
    30
 10
-345.45628872676753
 20
119.374212370406
 30
0.0
 11
345.45628872676912
 21
-119.374212370405
 31
0.0
  0
CIRCLE
  8
SIZE
  6
CONTINUOUS
 62
    30
 10
-345.45628872676753
 20
119.374212370406
 30
0.0
 40
6.0
  0
LINE
  8
SIZE
  6
CONTINUOUS
 62
    30
 10
-345.45628872676753
 20
119.374212370406
 30
0.0
 11
-356.79821886280678
 21
123.29347515684994
 31
0.0
  0
CIRCLE
  8
SIZE
  6
CONTINUOUS
 62
    30
 10
345.45628872676912
 20
-119.374212370405
 30
0.0
 40
6.0
  0
LINE
  8
SIZE
  6
CONTINUOUS
 62
    30
 10
345.45628872676912
 20
-119.374212370405
 30
0.0
 11
356.79821886280837
 21
-123.29347515684893
 31
0.0
  0
POINT
  8
DEFPOINTS
  6
CONTINUOUS
 62
    30
 10
345.45628872676912
 20
-119.374212370405
 30
0.0
  0
POINT
  8
DEFPOINTS
  6
CONTINUOUS
 62
    30
 10
-345.45628872676753
 20
119.374212370406
 30
0.0
  0
LINE
  8
SIZE
  6
CONTINUOUS
 62
    30
 10
249.25514036817151
 20
329.86531342353038
 30
0.0
 11
-60.294214109783468
 21
639.41466790148536
 31
0.0
  0
LINE
  8
SIZE
  6
CONTINUOUS
 62
    30
 10
-329.86531342352862
 20
-249.25514036816969
 30
0.0
 11
-639.41466790148365
 21
60.294214109785173
 31
0.0
  0
LINE
  8
SIZE
  6
CONTINUOUS
 62
    30
 10
-54.637359860291099
 20
616.78725090351588
 30
0.0
 11
-616.78725090351406
 21
54.637359860292797
 31
0.0
  0
CIRCLE
  8
SIZE
  6
CONTINUOUS
 62
    30
 10
-46.152078486052517
 20
625.27253227775441
 30
0.0
 40
6.0
  0
LINE
  8
SIZE
  6
CONTINUOUS
 62
    30
 10
-46.152078486052517
 20
625.27253227775441
 30
0.0
 11
-54.637359860291085
 21
616.78725090351588
 31
0.0
  0
CIRCLE
  8
SIZE
  6
CONTINUOUS
 62
    30
 10
-625.27253227775259
 20
46.152078486054222
 30
0.0
 40
6.0
  0
LINE
  8
SIZE
  6
CONTINUOUS
 62
    30
 10
-625.27253227775259
 20
46.152078486054222
 30
0.0
 11
-616.78725090351406
 21
54.63735986029279
 31
0.0
  0
TEXT
  8
SIZE
  6
CONTINUOUS
 62
    30
 10
-406.13448393383322
 20
300.64546588930108
 30
0.0
 40
64.0
  1
819
 50
45.0
 41
0.9
 51
0.0
  7
STANDARD
 71
     0
 72
     1
 11
-353.3899749115663
 21
353.38997491156806
 31
0.0
210
0.0
220
0.0
230
1.0
  0
POINT
  8
DEFPOINTS
  6
CONTINUOUS
 62
    30
 10
263.39727599190252
 20
315.72317779979937
 30
0.0
  0
POINT
  8
DEFPOINTS
  6
CONTINUOUS
 62
    30
 10
-315.72317779979772
 20
-263.39727599190059
 30
0.0
  0
POINT
  8
DEFPOINTS
  6
CONTINUOUS
 62
    30
 10
-625.27253227775259
 20
46.152078486054222
 30
0.0
  0
POINT
  8
ARRANGE
  6
CONTINUOUS
 62
     1
 10
0.0
 20
0.0
 30
0.0
  0
CIRCLE
  8
ARRANGE
  6
CONTINUOUS
 62
     1
 10
0.0
 20
0.0
 30
0.0
 40
40.0
  0
LINE
  8
DETAIL
  6
CONTINUOUS
 62
     5
 10
-276.95050750921558
 20
233.89028708401199
 30
0.0
 11
-279.24865230798059
 21
235.81865953727171
 31
0.0
  0
LINE
  8
DETAIL
  6
CONTINUOUS
 62
     5
 10
233.89028708401381
 20
276.95050750921752
 30
0.0
 11
235.81865953727359
 21
279.24865230798241
 31
0.0
  0
LINE
  8
DETAIL
  6
CONTINUOUS
 62
     5
 10
276.95050750921928
 20
-233.89028708401199
 30
0.0
 11
279.24865230798417
 21
-235.81865953727171
 31
0.0
  0
LINE
  8
DETAIL
  6
CONTINUOUS
 62
     5
 10
-233.8902870840102
 20
-276.95050750921752
 30
0.0
 11
-235.81865953726989
 21
-279.24865230798241
 31
0.0
  0
LINE
  8
DETAIL
  6
CONTINUOUS
 62
     5
 10
64.49332581433282
 20
-109.40571705985531
 30
0.0
 11
181.81444322220071
 21
-312.61185321090028
 31
0.0
  0
LINE
  8
DETAIL
  6
CONTINUOUS
 62
     5
 10
62.501467385824981
 20
-110.5557170597403
 30
0.0
 11
179.82258479370009
 21
-313.76185321079993
 31
0.0
  0
ARC
  8
DETAIL
  6
CONTINUOUS
 62
     5
 10
180.82874541149889
 20
-313.17994370790069
 30
0.0
 40
1.1376849243
 50
340.65836970090618
 51
29.95628081147909
  0
ARC
  8
DETAIL
  6
CONTINUOUS
 62
     5
 10
180.8073780879013
 20
-313.19229566070038
 30
0.0
 40
1.1376351065999999
 50
210.04304405676211
 51
259.34351425902997
  0
LINE
  8
DETAIL
  6
CONTINUOUS
 62
     5
 10
54.712572707349857
 20
-114.6103589895683
 30
0.0
 11
153.87666611614171
 21
-327.26844357061691
 31
0.0
  0
LINE
  8
DETAIL
  6
CONTINUOUS
 62
     5
 10
52.628064797370833
 20
-115.58238099147459
 30
0.0
 11
151.79215820616901
 21
-328.24046557253808
 31
0.0
  0
ARC
  8
DETAIL
  6
CONTINUOUS
 62
     5
 10
152.84520683398571
 20
-327.7484630869485
 30
0.0
 40
1.1376849243
 50
335.65836970091289
 51
24.95628081152185
  0
ARC
  8
DETAIL
  6
CONTINUOUS
 62
     5
 10
152.82284427588459
 20
-327.75890575187992
 30
0.0
 40
1.1376351065999999
 50
205.04304405679579
 51
254.3435142589974
  0
LINE
  8
DETAIL
  6
CONTINUOUS
 62
     5
 10
44.515423885709417
 20
-118.94274688374389
 30
0.0
 11
124.76779466766671
 21
-339.43432346467131
 31
0.0
  0
LINE
  8
DETAIL
  6
CONTINUOUS
 62
     5
 10
42.354130858115241
 20
-119.7293932133139
 30
0.0
 11
122.60650164007799
 21
-340.22096979425709
 31
0.0
  0
ARC
  8
DETAIL
  6
CONTINUOUS
 62
     5
 10
123.6984239420071
 20
-339.82261876197123
 30
0.0
 40
1.1376849243000009
 50
330.65836970094171
 51
19.956280811522181
  0
ARC
  8
DETAIL
  6
CONTINUOUS
 62
     5
 10
123.67523634197281
 20
-339.83107266404892
 30
0.0
 40
1.137635106600001
 50
200.04304405679261
 51
249.3435142589984
  0
LINE
  8
DETAIL
  6
CONTINUOUS
 62
     5
 10
33.979485809150901
 20
-122.3699086545398
 30
0.0
 11
94.709364964917768
 21
-349.01690320111169
 31
0.0
  0
LINE
  8
DETAIL
  6
CONTINUOUS
 62
     5
 10
31.757856408905351
 20
-122.9651924582154
 30
0.0
 11
92.487735564674949
 21
-349.61218700480322
 31
0.0
  0
ARC
  8
DETAIL
  6
CONTINUOUS
 62
     5
 10
93.610221352678309
 20
-349.31051911770828
 30
0.0
 40
1.1376849243000029
 50
325.65836970087872
 51
14.95628081151991
  0
ARC
  8
DETAIL
  6
CONTINUOUS
 62
     5
 10
93.58638518234784
 20
-349.31691991763267
 30
0.0
 40
1.137635106600003
 50
195.0430440567888
 51
244.3435142589756
  0
LINE
  8
DETAIL
  6
CONTINUOUS
 62
     5
 10
23.18494332820956
 20
-124.86576153150369
 30
0.0
 11
63.930139807705928
 21
-355.94325356202398
 31
0.0
  0
LINE
  8
DETAIL
  6
CONTINUOUS
 62
     5
 10
20.919885496505231
 20
-125.2651523400968
 30
0.0
 11
61.66508197600433
 21
-356.34264437063302
 31
0.0
  0
ARC
  8
DETAIL
  6
CONTINUOUS
 62
     5
 10
62.809588455458652
 20
-356.13995550350182
 30
0.0
 40
1.137684924300004
 50
320.65836970088498
 51
9.9562808115011823
  0
ARC
  8
DETAIL
  6
CONTINUOUS
 62
     5
 10
62.785285122481582
 20
-356.14425448732032
 30
0.0
 40
1.1376351066000041
 50
190.04304405679559
 51
239.34351425894809
  0
LINE
  8
DETAIL
  6
CONTINUOUS
 62
     5
 10
12.213949429089549
 20
-126.41131056720501
 30
0.0
 11
32.664367684485107
 21
-360.1606608389161
 31
0.0
  0
LINE
  8
DETAIL
  6
CONTINUOUS
 62
     5
 10
9.9227016237045973
 20
-126.61176877550319
 30
0.0
 11
30.373119879101068
 21
-360.36111904723072
 31
0.0
  0
ARC
  8
DETAIL
  6
CONTINUOUS
 62
     5
 10
31.530936664627919
 20
-360.25895178472871
 30
0.0
 40
1.137684924300006
 50
315.65836970094938
 51
4.9562808115013954
  0
ARC
  8
DETAIL
  6
CONTINUOUS
 62
     5
 10
31.506351132041349
 20
-360.26111623457928
 30
0.0
 40
1.137635106600005
 50
185.04304405679329
 51
234.34351425894749
  0
LINE
  8
DETAIL
  6
CONTINUOUS
 62
     5
 10
1.1499999998295609
 20
-126.9947932002533
 30
0.0
 11
1.1499999999005011
 21
-361.63702801587169
 31
0.0
  0
LINE
  8
DETAIL
  6
CONTINUOUS
 62
     5
 10
-1.149999999942338
 20
-126.99479320025191
 30
0.0
 11
-1.1499999998723069
 21
-361.63702801588619
 31
0.0
  0
ARC
  8
DETAIL
  6
CONTINUOUS
 62
     5
 10
0.0123154068778604
 20
-361.63615991257171
 30
0.0
 40
1.137684924300006
 50
310.65836970089748
 51
359.95628081151989
  0
ARC
  8
DETAIL
  6
CONTINUOUS
 62
     5
 10
-0.01236521456849
 20
-361.6361733556837
 30
0.0
 40
1.1376351066000061
 50
180.04304405679659
 51
229.34351425895281
  0
LINE
  8
DETAIL
  6
CONTINUOUS
 62
     5
 10
-9.9227016238173746
 20
-126.6117687754945
 30
0.0
 11
-30.373119879071961
 21
-360.36111904721838
 31
0.0
  0
LINE
  8
DETAIL
  6
CONTINUOUS
 62
     5
 10
-12.213949429201421
 20
-126.4113105671936
 30
0.0
 11
-32.664367684458739
 21
-360.16066083893338
 31
0.0
  0
ARC
  8
DETAIL
  6
CONTINUOUS
 62
     5
 10
-31.50639957855401
 20
-360.26109850159582
 30
0.0
 40
1.137684924300008
 50
305.65836970096228
 51
354.95628081150551
  0
ARC
  8
DETAIL
  6
CONTINUOUS
 62
     5
 10
-31.53098745442821
 20
-360.25896083565931
 30
0.0
 40
1.137635106600007
 50
175.04304405679309
 51
224.3435142589212
  0
LINE
  8
DETAIL
  6
CONTINUOUS
 62
     5
 10
-20.919885496617098
 20
-125.2651523400787
 30
0.0
 11
-61.665081975974317
 21
-356.34264437062347
 31
0.0
  0
LINE
  8
DETAIL
  6
CONTINUOUS
 62
     5
 10
-23.184943328320511
 20
-124.8657615314828
 30
0.0
 11
-63.930139807681371
 21
-355.94325356204348
 31
0.0
  0
ARC
  8
DETAIL
  6
CONTINUOUS
 62
     5
 10
-62.785331839108949
 20
-356.14423259942492
 30
0.0
 40
1.1376849243000089
 50
300.65836970095728
 51
349.95628081150909
  0
ARC
  8
DETAIL
  6
CONTINUOUS
 62
     5
 10
-62.809639840830641
 20
-356.13996009336819
 30
0.0
 40
1.137635106600009
 50
170.04304405679079
 51
219.34351425900039
  0
LINE
  8
DETAIL
  6
CONTINUOUS
 62
     5
 10
-31.75785640901449
 20
-122.9651924581872
 30
0.0
 11
-92.487735564644026
 21
-349.61218700479589
 31
0.0
  0
LINE
  8
DETAIL
  6
CONTINUOUS
 62
     5
 10
-33.979485809260041
 20
-122.3699086545089
 30
0.0
 11
-94.709364964894121
 21
-349.01690320113312
 31
0.0
  0
ARC
  8
DETAIL
  6
CONTINUOUS
 62
     5
 10
-93.58642981354842
 20
-349.31689404140428
 30
0.0
 40
1.1376849243000109
 50
295.65836970091499
 51
344.95628081150102
  0
ARC
  8
DETAIL
  6
CONTINUOUS
 62
     5
 10
-93.610272942545635
 20
-349.31051921157808
 30
0.0
 40
1.137635106600011
 50
165.04304405679309
 51
214.3435142589662
  0
LINE
  8
DETAIL
  6
CONTINUOUS
 62
     5
 10
-42.354130858221652
 20
-119.7293932132761
 30
0.0
 11
-122.60650164004529
 21
-340.22096979425208
 31
0.0
  0
LINE
  8
DETAIL
  6
CONTINUOUS
 62
     5
 10
-44.515423885814933
 20
-118.94274688370341
 30
0.0
 11
-124.76779466764491
 21
-339.43432346469439
 31
0.0
  0
ARC
  8
DETAIL
  6
CONTINUOUS
 62
     5
 10
-123.6752785480749
 20
-339.83104299642218
 30
0.0
 40
1.1376849243000129
 50
290.6583697009454
 51
339.95628081150488
  0
ARC
  8
DETAIL
  6
CONTINUOUS
 62
     5
 10
-123.69847534374
 20
-339.82261435913102
 30
0.0
 40
1.137635106600013
 50
160.0430440568135
 51
209.34351425901099
  0
LINE
  8
DETAIL
  6
CONTINUOUS
 62
     5
 10
-52.628064797474508
 20
-115.5823809914273
 30
0.0
 11
-151.79215820613629
 21
-328.24046557253592
 31
0.0
  0
LINE
  8
DETAIL
  6
CONTINUOUS
 62
     5
 10
-54.712572707451727
 20
-114.6103589895188
 30
0.0
 11
-153.8766661161217
 21
-327.26844357064152
 31
0.0
  0
ARC
  8
DETAIL
  6
CONTINUOUS
 62
     5
 10
-152.82288373567641
 20
-327.75887251864287
 30
0.0
 40
1.137684924300014
 50
285.6583697009313
 51
334.95628081153018
  0
ARC
  8
DETAIL
  6
CONTINUOUS
 62
     5
 10
-152.84525765638679
 20
-327.74845422090578
 30
0.0
 40
1.1376351066000141
 50
155.04304405678869
 51
204.3435142589897
  0
LINE
  8
DETAIL
  6
CONTINUOUS
 62
     5
 10
-62.501467385923213
 20
-110.555717059684
 30
0.0
 11
-179.8225847936674
 21
-313.76185321080038
 31
0.0
  0
LINE
  8
DETAIL
  6
CONTINUOUS
 62
     5
 10
-64.493325814430136
 20
-109.4057170597966
 30
0.0
 11
-181.8144432221834
 21
-312.61185321092671
 31
0.0
  0
ARC
  8
DETAIL
  6
CONTINUOUS
 62
     5
 10
-180.80741450106959
 20
-313.19225911477821
 30
0.0
 40
1.1376849243000151
 50
280.65836970092909
 51
329.9562808115142
  0
ARC
  8
DETAIL
  6
CONTINUOUS
 62
     5
 10
-180.82879526777921
 20
-313.17993044613149
 30
0.0
 40
1.137635106600015
 50
150.04304405679659
 51
199.34351425899399
  0
LINE
  8
DETAIL
  6
CONTINUOUS
 62
     5
 10
-71.89919606814783
 20
-104.6876573657496
 30
0.0
 11
-206.48445293107309
 21
-296.89532369154398
 31
0.0
  0
LINE
  8
DETAIL
  6
CONTINUOUS
 62
     5
 10
-73.783245769825044
 20
-103.3684315622713
 30
0.0
 11
-208.36850263276119
 21
-295.57609788807889
 31
0.0
  0
ARC
  8
DETAIL
  6
CONTINUOUS
 62
     5
 10
-207.41589166760701
 20
-296.24206350839398
 30
0.0
 40
1.137684924300016
 50
275.65836970088873
 51
324.95628081149778
  0
ARC
  8
DETAIL
  6
CONTINUOUS
 62
     5
 10
-207.43611655977111
 20
-296.22791829745069
 30
0.0
 40
1.1376351066000161
 50
145.04304405679039
 51
194.3435142589797
  0
LINE
  8
DETAIL
  6
CONTINUOUS
 62
     5
 10
-80.749728454372416
 20
-98.022861387125431
 30
0.0
 11
-231.5748497029526
 21
-277.76924148869739
 31
0.0
  0
LINE
  8
DETAIL
  6
CONTINUOUS
 62
     5
 10
-82.511630673370746
 20
-96.544449884991536
 30
0.0
 11
-233.33675192196279
 21
-276.29082998657532
 31
0.0
  0
ARC
  8
DETAIL
  6
CONTINUOUS
 62
     5
 10
-232.445808657415
 20
-277.03728692286182
 30
0.0
 40
1.1376849243000171
 50
270.65836970087503
 51
319.95628081150647
  0
ARC
  8
DETAIL
  6
CONTINUOUS
 62
     5
 10
-232.46472375139271
 20
-277.02143282321822
 30
0.0
 40
1.137635106600017
 50
140.04304405679619
 51
189.34351425898311
  0
LINE
  8
DETAIL
  6
CONTINUOUS
 62
     5
 10
-88.985706649040367
 20
-90.612052245523955
 30
0.0
 11
-246.3307417442056
 21
-247.95708734079199
 31
0.0
  0
LINE
  8
DETAIL
  6
CONTINUOUS
 62
     5
 10
-90.612052245607629
 20
-88.985706648954874
 30
0.0
 11
-247.95708734077471
 21
-246.33074174422379
 31
0.0
  0
LINE
  8
DETAIL
  6
CONTINUOUS
 62
     5
 10
-96.544449885069298
 20
-82.511630673281161
 30
0.0
 11
-276.29082998654297
 21
-233.33675192197819
 31
0.0
  0
LINE
  8
DETAIL
  6
CONTINUOUS
 62
     5
 10
-98.022861387201374
 20
-80.749728454281012
 30
0.0
 11
-277.76924148868778
 21
-231.57484970298759
 31
0.0
  0
ARC
  8
DETAIL
  6
CONTINUOUS
 62
     5
 10
-277.0214545409608
 20
-232.46467695542611
 30
0.0
 40
1.1376849243000171
 50
260.65836970091618
 51
309.95628081151511
  0
ARC
  8
DETAIL
  6
CONTINUOUS
 62
     5
 10
-277.03732923664671
 20
-232.44577914358021
 30
0.0
 40
1.137635106600017
 50
130.04304405683109
 51
179.34351425898319
  0
LINE
  8
DETAIL
  6
CONTINUOUS
 62
     5
 10
-103.3684315623404
 20
-73.783245769729092
 30
0.0
 11
-295.57609788804803
 21
-208.36850263277941
 31
0.0
  0
LINE
  8
DETAIL
  6
CONTINUOUS
 62
     5
 10
-104.6876573658155
 20
-71.89919606805006
 30
0.0
 11
-296.89532369153773
 21
-206.48445293110899
 31
0.0
  0
ARC
  8
DETAIL
  6
CONTINUOUS
 62
     5
 10
-296.22793585401269
 20
-207.43606804905181
 30
0.0
 40
1.137684924300018
 50
255.65836970088989
 51
304.95628081149039
  0
ARC
  8
DETAIL
  6
CONTINUOUS
 62
     5
 10
-296.24210308886092
 20
-207.415858578192
 30
0.0
 40
1.137635106600017
 50
125.04304405675229
 51
174.34351425898609
  0
LINE
  8
DETAIL
  6
CONTINUOUS
 62
     5
 10
-109.4057170598562
 20
-64.493325814327818
 30
0.0
 11
-312.6118532108967
 21
-181.81444322220389
 31
0.0
  0
LINE
  8
DETAIL
  6
CONTINUOUS
 62
     5
 10
-110.5557170597413
 20
-62.501467385819979
 30
0.0
 11
-313.76185321079629
 21
-179.8225847937033
 31
0.0
  0
ARC
  8
DETAIL
  6
CONTINUOUS
 62
     5
 10
-313.17994370789711
 20
-180.82874541150201
 30
0.0
 40
1.1376849243000191
 50
250.65836970085709
 51
299.95628081151278
  0
ARC
  8
DETAIL
  6
CONTINUOUS
 62
     5
 10
-313.1922956606968
 20
-180.80737808790451
 30
0.0
 40
1.137635106600019
 50
120.04304405685529
 51
169.34351425897989
  0
LINE
  8
DETAIL
  6
CONTINUOUS
 62
     5
 10
-114.61035898956921
 20
-54.712572707344862
 30
0.0
 11
-327.26844357061327
 21
-153.87666611614441
 31
0.0
  0
LINE
  8
DETAIL
  6
CONTINUOUS
 62
     5
 10
-115.5823809914755
 20
-52.628064797366278
 30
0.0
 11
-328.24046557253502
 21
-151.79215820617171
 31
0.0
  0
ARC
  8
DETAIL
  6
CONTINUOUS
 62
     5
 10
-327.74846308694492
 20
-152.8452068339889
 30
0.0
 40
1.1376849243000191
 50
245.65836970085459
 51
294.95628081154211
  0
ARC
  8
DETAIL
  6
CONTINUOUS
 62
     5
 10
-327.75890575187623
 20
-152.82284427588769
 30
0.0
 40
1.137635106600019
 50
115.04304405685581
 51
164.34351425897191
  0
LINE
  8
DETAIL
  6
CONTINUOUS
 62
     5
 10
-118.9427468837448
 20
-44.515423885703967
 30
0.0
 11
-339.43432346466938
 21
-124.7677946676699
 31
0.0
  0
LINE
  8
DETAIL
  6
CONTINUOUS
 62
     5
 10
-119.7293932133143
 20
-42.354130858109777
 30
0.0
 11
-340.22096979425442
 21
-122.6065016400803
 31
0.0
  0
ARC
  8
DETAIL
  6
CONTINUOUS
 62
     5
 10
-339.82261876196941
 20
-123.6984239420099
 30
0.0
 40
1.13768492430002
 50
240.65836970094179
 51
289.95628081149778
  0
ARC
  8
DETAIL
  6
CONTINUOUS
 62
     5
 10
-339.83107266404659
 20
-123.67523634197551
 30
0.0
 40
1.1376351066000201
 50
110.0430440568239
 51
159.34351425897489
  0
LINE
  8
DETAIL
  6
CONTINUOUS
 62
     5
 10
-122.3699086545403
 20
-33.979485809145437
 30
0.0
 11
-349.01690320110993
 21
-94.709364964920951
 31
0.0
  0
LINE
  8
DETAIL
  6
CONTINUOUS
 62
     5
 10
-122.9651924582158
 20
-31.757856408899901
 30
0.0
 11
-349.61218700480191
 21
-92.487735564678587
 31
0.0
  0
ARC
  8
DETAIL
  6
CONTINUOUS
 62
     5
 10
-349.31051911770652
 20
-93.610221352681947
 30
0.0
 40
1.1376849243000211
 50
235.65836970095191
 51
284.95628081157378
  0
ARC
  8
DETAIL
  6
CONTINUOUS
 62
     5
 10
-349.31691991763091
 20
-93.586385182351478
 30
0.0
 40
1.137635106600021
 50
105.0430440567623
 51
154.34351425899899
  0
LINE
  8
DETAIL
  6
CONTINUOUS
 62
     5
 10
-124.86576153150421
 20
-23.18494332820455
 30
0.0
 11
-355.94325356202262
 21
-63.93013980771002
 31
0.0
  0
LINE
  8
DETAIL
  6
CONTINUOUS
 62
     5
 10
-125.2651523400973
 20
-20.919885496500228
 30
0.0
 11
-356.34264437063212
 21
-61.665081976007507
 31
0.0
  0
ARC
  8
DETAIL
  6
CONTINUOUS
 62
     5
 10
-356.13995550350052
 20
-62.809588455462737
 30
0.0
 40
1.137684924300022
 50
230.6583697008644
 51
279.95628081145202
  0
ARC
  8
DETAIL
  6
CONTINUOUS
 62
     5
 10
-356.1442544873189
 20
-62.78528512248522
 30
0.0
 40
1.1376351066000221
 50
100.0430440568222
 51
149.34351425894721
  0
LINE
  8
DETAIL
  6
CONTINUOUS
 62
     5
 10
-126.41131056720501
 20
-12.213949429084551
 30
0.0
 11
-360.16066083891559
 21
-32.664367684488298
 31
0.0
  0
LINE
  8
DETAIL
  6
CONTINUOUS
 62
     5
 10
-126.61176877550319
 20
-9.9227016237000498
 30
0.0
 11
-360.3611190472302
 21
-30.373119879104252
 31
0.0
  0
ARC
  8
DETAIL
  6
CONTINUOUS
 62
     5
 10
-360.2589517847282
 20
-31.530936664630641
 30
0.0
 40
1.137684924300022
 50
225.65836970091291
 51
274.95628081157992
  0
ARC
  8
DETAIL
  6
CONTINUOUS
 62
     5
 10
-360.26111623457842
 20
-31.506351132044529
 30
0.0
 40
1.1376351066000221
 50
95.043044056819539
 51
144.34351425900539
  0
LINE
  8
DETAIL
  6
CONTINUOUS
 62
     5
 10
-126.9947932002524
 20
-1.149999999825013
 30
0.0
 11
-361.63702801587078
 21
-1.149999999903685
 31
0.0
  0
LINE
  8
DETAIL
  6
CONTINUOUS
 62
     5
 10
-126.9947932002506
 20
1.14999999994734
 30
0.0
 11
-361.63702801588528
 21
1.149999999869578
 31
0.0
  0
ARC
  8
DETAIL
  6
CONTINUOUS
 62
     5
 10
-361.63615991257029
 20
-0.0123154068810436
 30
0.0
 40
1.1376849243000231
 50
220.65836970091601
 51
269.95628081146782
  0
ARC
  8
DETAIL
  6
CONTINUOUS
 62
     5
 10
-361.63617335568227
 20
0.0123652145648521
 30
0.0
 40
1.137635106600023
 50
90.043044056822666
 51
139.3435142589872
  0
LINE
  8
DETAIL
  6
CONTINUOUS
 62
     5
 10
-126.6117687754941
 20
9.9227016238228316
 30
0.0
 11
-360.36111904721838
 21
30.37311987906924
 31
0.0
  0
LINE
  8
DETAIL
  6
CONTINUOUS
 62
     5
 10
-126.4113105671931
 20
12.213949429206879
 30
0.0
 11
-360.16066083893293
 21
32.664367684455563
 31
0.0
  0
ARC
  8
DETAIL
  6
CONTINUOUS
 62
     5
 10
-360.26109850159628
 20
31.50639957855083
 30
0.0
 40
1.1376849243000251
 50
215.65836970088969
 51
264.95628081147942
  0
ARC
  8
DETAIL
  6
CONTINUOUS
 62
     5
 10
-360.25896083565931
 20
31.53098745442594
 30
0.0
 40
1.137635106600025
 50
85.043044056819241
 51
134.34351425903179
  0
LINE
  8
DETAIL
  6
CONTINUOUS
 62
     5
 10
-125.26515234007729
 20
20.919885496621649
 30
0.0
 11
-356.34264437062302
 21
61.665081975971127
 31
0.0
  0
LINE
  8
DETAIL
  6
CONTINUOUS
 62
     5
 10
-124.8657615314814
 20
23.18494332832552
 30
0.0
 11
-355.94325356204348
 21
63.930139807678643
 31
0.0
  0
ARC
  8
DETAIL
  6
CONTINUOUS
 62
     5
 10
-356.14423259942492
 20
62.78533183910622
 30
0.0
 40
1.137684924300026
 50
210.65836970092371
 51
259.95628081148271
  0
ARC
  8
DETAIL
  6
CONTINUOUS
 62
     5
 10
-356.13996009336819
 20
62.809639840827458
 30
0.0
 40
1.1376351066000261
 50
80.043044056790279
 51
129.34351425896389
  0
LINE
  8
DETAIL
  6
CONTINUOUS
 62
     5
 10
-122.9651924581858
 20
31.757856409019041
 30
0.0
 11
-349.6121870047964
 21
92.487735564640843
 31
0.0
  0
LINE
  8
DETAIL
  6
CONTINUOUS
 62
     5
 10
-122.3699086545075
 20
33.979485809263679
 30
0.0
 11
-349.01690320113357
 21
94.709364964890483
 31
0.0
  0
ARC
  8
DETAIL
  6
CONTINUOUS
 62
     5
 10
-349.31689404140519
 20
93.586429813545692
 30
0.0
 40
1.1376849243000271
 50
205.65836970091789
 51
254.95628081150471
  0
ARC
  8
DETAIL
  6
CONTINUOUS
 62
     5
 10
-349.31051921157899
 20
93.610272942542906
 30
0.0
 40
1.137635106600027
 50
75.043044056789753
 51
124.34351425899121
  0
LINE
  8
DETAIL
  6
CONTINUOUS
 62
     5
 10
-119.7293932132734
 20
42.354130858226199
 30
0.0
 11
-340.2209697942526
 21
122.60650164004301
 31
0.0
  0
LINE
  8
DETAIL
  6
CONTINUOUS
 62
     5
 10
-118.9427468837011
 20
44.515423885819473
 30
0.0
 11
-339.4343234646949
 21
124.7677946676431
 31
0.0
  0
ARC
  8
DETAIL
  6
CONTINUOUS
 62
     5
 10
-339.83104299642218
 20
123.675278548073
 30
0.0
 40
1.1376849243000271
 50
200.65836970092371
 51
249.9562808114768
  0
ARC
  8
DETAIL
  6
CONTINUOUS
 62
     5
 10
-339.82261435913102
 20
123.6984753437378
 30
0.0
 40
1.137635106600027
 50
70.043044056810558
 51
119.3435142589162
  0
LINE
  8
DETAIL
  6
CONTINUOUS
 62
     5
 10
-115.5823809914245
 20
52.628064797477691
 30
0.0
 11
-328.24046557253592
 21
151.79215820613439
 31
0.0
  0
LINE
  8
DETAIL
  6
CONTINUOUS
 62
     5
 10
-114.6103589895165
 20
54.712572707455372
 30
0.0
 11
-327.26844357064152
 21
153.8766661161194
 31
0.0
  0
ARC
  8
DETAIL
  6
CONTINUOUS
 62
     5
 10
-327.75887251864242
 20
152.82288373567459
 30
0.0
 40
1.1376849243000271
 50
195.65836970090481
 51
244.95628081149681
  0
ARC
  8
DETAIL
  6
CONTINUOUS
 62
     5
 10
-327.74845422090578
 20
152.845257656385
 30
0.0
 40
1.137635106600027
 50
65.043044056763733
 51
114.3435142589762
  0
LINE
  8
DETAIL
  6
CONTINUOUS
 62
     5
 10
-110.5557170596821
 20
62.501467385927299
 30
0.0
 11
-313.76185321080169
 21
179.82258479366601
 31
0.0
  0
LINE
  8
DETAIL
  6
CONTINUOUS
 62
     5
 10
-109.4057170597944
 20
64.493325814433774
 30
0.0
 11
-312.61185321092762
 21
181.8144432221811
 31
0.0
  0
ARC
  8
DETAIL
  6
CONTINUOUS
 62
     5
 10
-313.19225911477952
 20
180.8074145010678
 30
0.0
 40
1.137684924300028
 50
190.65836970090589
 51
239.95628081153501
  0
ARC
  8
DETAIL
  6
CONTINUOUS
 62
     5
 10
-313.17993044613291
 20
180.82879526777739
 30
0.0
 40
1.1376351066000281
 50
60.043044056738587
 51
109.34351425894189
  0
LINE
  8
DETAIL
  6
CONTINUOUS
 62
     5
 10
-104.6876573657464
 20
71.899196068151468
 30
0.0
 11
-296.89532369154489
 21
206.48445293107221
 31
0.0
  0
LINE
  8
DETAIL
  6
CONTINUOUS
 62
     5
 10
-103.3684315622686
 20
73.783245769829136
 30
0.0
 11
-295.57609788807991
 21
208.3685026327598
 31
0.0
  0
ARC
  8
DETAIL
  6
CONTINUOUS
 62
     5
 10
-296.24206350839449
 20
207.41589166760559
 30
0.0
 40
1.13768492430003
 50
185.65836970091479
 51
234.9562808115561
  0
ARC
  8
DETAIL
  6
CONTINUOUS
 62
     5
 10
-296.22791829745171
 20
207.43611655976969
 30
0.0
 40
1.1376351066000301
 50
55.043044056774377
 51
104.3435142589796
  0
LINE
  8
DETAIL
  6
CONTINUOUS
 62
     5
 10
-98.022861387122248
 20
80.7497284543756
 30
0.0
 11
-277.76924148869881
 21
231.5748497029513
 31
0.0
  0
LINE
  8
DETAIL
  6
CONTINUOUS
 62
     5
 10
-96.544449884988353
 20
82.511630673374384
 30
0.0
 11
-276.29082998657668
 21
233.336751921961
 31
0.0
  0
ARC
  8
DETAIL
  6
CONTINUOUS
 62
     5
 10
-277.03728692286307
 20
232.44580865741321
 30
0.0
 40
1.1376849243000311
 50
180.6583697009271
 51
229.9562808115638
  0
ARC
  8
DETAIL
  6
CONTINUOUS
 62
     5
 10
-277.02143282321958
 20
232.46472375139089
 30
0.0
 40
1.137635106600031
 50
50.043044056812931
 51
99.343514258982694
  0
LINE
  8
DETAIL
  6
CONTINUOUS
 62
     5
 10
-90.612052245520317
 20
88.985706649043095
 30
0.0
 11
-247.95708734079381
 21
246.33074174420429
 31
0.0
  0
LINE
  8
DETAIL
  6
CONTINUOUS
 62
     5
 10
-88.985706648951236
 20
90.612052245609902
 30
0.0
 11
-246.33074174422561
 21
247.95708734077331
 31
0.0
  0
LINE
  8
DETAIL
  6
CONTINUOUS
 62
     5
 10
-82.511630673277068
 20
96.544449885072027
 30
0.0
 11
-233.3367519219801
 21
276.29082998654121
 31
0.0
  0
LINE
  8
DETAIL
  6
CONTINUOUS
 62
     5
 10
-80.749728454276919
 20
98.022861387203648
 30
0.0
 11
-231.57484970298901
 21
277.76924148868602
 31
0.0
  0
ARC
  8
DETAIL
  6
CONTINUOUS
 62
     5
 10
-232.46467695542739
 20
277.02145454095847
 30
0.0
 40
1.137684924300032
 50
170.65836970091661
 51
219.95628081155209
  0
ARC
  8
DETAIL
  6
CONTINUOUS
 62
     5
 10
-232.4457791435816
 20
277.03732923664478
 30
0.0
 40
1.1376351066000321
 50
40.043044056772992
 51
89.343514258957086
  0
LINE
  8
DETAIL
  6
CONTINUOUS
 62
     5
 10
-73.783245769725909
 20
103.3684315623432
 30
0.0
 11
-208.36850263278211
 21
295.57609788804672
 31
0.0
  0
LINE
  8
DETAIL
  6
CONTINUOUS
 62
     5
 10
-71.899196068046876
 20
104.68765736581869
 30
0.0
 11
-206.48445293111129
 21
296.8953236915363
 31
0.0
  0
ARC
  8
DETAIL
  6
CONTINUOUS
 62
     5
 10
-207.43606804905451
 20
296.22793585401132
 30
0.0
 40
1.137684924300032
 50
165.65836970091721
 51
214.95628081153509
  0
ARC
  8
DETAIL
  6
CONTINUOUS
 62
     5
 10
-207.4158585781943
 20
296.24210308885989
 30
0.0
 40
1.137635106600031
 50
35.043044056808277
 51
84.343514259038088
  0
LINE
  8
DETAIL
  6
CONTINUOUS
 62
     5
 10
-64.493325814324635
 20
109.4057170598589
 30
0.0
 11
-181.8144432222052
 21
312.6118532108967
 31
0.0
  0
LINE
  8
DETAIL
  6
CONTINUOUS
 62
     5
 10
-62.501467385816802
 20
110.555717059744
 30
0.0
 11
-179.82258479370469
 21
313.76185321079629
 31
0.0
  0
ARC
  8
DETAIL
  6
CONTINUOUS
 62
     5
 10
-180.82874541150341
 20
313.17994370789711
 30
0.0
 40
1.137684924300032
 50
160.65836970090621
 51
209.9562808114791
  0
ARC
  8
DETAIL
  6
CONTINUOUS
 62
     5
 10
-180.80737808790579
 20
313.1922956606968
 30
0.0
 40
1.1376351066000321
 50
30.04304405676211
 51
79.343514259029959
  0
LINE
  8
DETAIL
  6
CONTINUOUS
 62
     5
 10
-54.712572707340769
 20
114.61035898957149
 30
0.0
 11
-153.8766661161462
 21
327.26844357061282
 31
0.0
  0
LINE
  8
DETAIL
  6
CONTINUOUS
 62
     5
 10
-52.628064797361731
 20
115.58238099147771
 30
0.0
 11
-151.79215820617361
 21
328.2404655725345
 31
0.0
  0
ARC
  8
DETAIL
  6
CONTINUOUS
 62
     5
 10
-152.84520683399111
 20
327.74846308694492
 30
0.0
 40
1.1376849243000331
 50
155.65836970091291
 51
204.95628081152191
  0
ARC
  8
DETAIL
  6
CONTINUOUS
 62
     5
 10
-152.82284427588999
 20
327.75890575187623
 30
0.0
 40
1.137635106600033
 50
25.04304405679585
 51
74.343514258997388
  0
LINE
  8
DETAIL
  6
CONTINUOUS
 62
     5
 10
-44.515423885700329
 20
118.94274688374659
 30
0.0
 11
-124.76779466767221
 21
339.43432346466898
 31
0.0
  0
LINE
  8
DETAIL
  6
CONTINUOUS
 62
     5
 10
-42.354130858106153
 20
119.7293932133166
 30
0.0
 11
-122.60650164008349
 21
340.22096979425442
 31
0.0
  0
ARC
  8
DETAIL
  6
CONTINUOUS
 62
     5
 10
-123.6984239420126
 20
339.8226187619689
 30
0.0
 40
1.137684924300034
 50
150.65836970094171
 51
199.95628081152219
  0
ARC
  8
DETAIL
  6
CONTINUOUS
 62
     5
 10
-123.67523634197821
 20
339.83107266404608
 30
0.0
 40
1.1376351066000341
 50
20.043044056792588
 51
69.343514258998454
  0
LINE
  8
DETAIL
  6
CONTINUOUS
 62
     5
 10
-33.979485809140897
 20
122.3699086545421
 30
0.0
 11
-94.709364964923225
 21
349.01690320110993
 31
0.0
  0
LINE
  8
DETAIL
  6
CONTINUOUS
 62
     5
 10
-31.757856408896259
 20
122.9651924582176
 30
0.0
 11
-92.487735564681316
 21
349.6121870048014
 31
0.0
  0
ARC
  8
DETAIL
  6
CONTINUOUS
 62
     5
 10
-93.610221352683766
 20
349.31051911770652
 30
0.0
 40
1.1376849243000351
 50
145.65836970091439
 51
194.95628081151989
  0
ARC
  8
DETAIL
  6
CONTINUOUS
 62
     5
 10
-93.586385182353297
 20
349.31691991763091
 30
0.0
 40
1.137635106600035
 50
15.04304405678883
 51
64.343514258975659
  0
LINE
  8
DETAIL
  6
CONTINUOUS
 62
     5
 10
-23.184943328199552
 20
124.8657615315051
 30
0.0
 11
-63.930139807712287
 21
355.94325356202262
 31
0.0
  0
LINE
  8
DETAIL
  6
CONTINUOUS
 62
     5
 10
-20.91988549649523
 20
125.2651523400982
 30
0.0
 11
-61.665081976009787
 21
356.34264437063172
 31
0.0
  0
ARC
  8
DETAIL
  6
CONTINUOUS
 62
     5
 10
-62.809588455465018
 20
356.13995550350052
 30
0.0
 40
1.137684924300036
 50
140.6583697009012
 51
189.95628081150119
  0
ARC
  8
DETAIL
  6
CONTINUOUS
 62
     5
 10
-62.785285122487039
 20
356.1442544873189
 30
0.0
 40
1.1376351066000361
 50
10.04304405679564
 51
59.343514258948062
  0
LINE
  8
DETAIL
  6
CONTINUOUS
 62
     5
 10
-12.21394942907955
 20
126.4113105672054
 30
0.0
 11
-32.664367684491481
 21
360.16066083891519
 31
0.0
  0
LINE
  8
DETAIL
  6
CONTINUOUS
 62
     5
 10
-9.9227016236955023
 20
126.6117687755041
 30
0.0
 11
-30.373119879107431
 21
360.3611190472302
 31
0.0
  0
ARC
  8
DETAIL
  6
CONTINUOUS
 62
     5
 10
-31.530936664633369
 20
360.2589517847282
 30
0.0
 40
1.137684924300038
 50
135.65836970095
 51
184.95628081150139
  0
ARC
  8
DETAIL
  6
CONTINUOUS
 62
     5
 10
-31.506351132047708
 20
360.26111623457842
 30
0.0
 40
1.1376351066000381
 50
5.0430440567933914
 51
54.343514258947543
  0
LINE
  8
DETAIL
  6
CONTINUOUS
 62
     5
 10
-1.149999999820466
 20
126.9947932002533
 30
0.0
 11
-1.149999999906868
 21
361.63702801587169
 31
0.0
  0
LINE
  8
DETAIL
  6
CONTINUOUS
 62
     5
 10
1.149999999952342
 20
126.99479320025191
 30
0.0
 11
1.14999999986685
 21
361.63702801588619
 31
0.0
  0
ARC
  8
DETAIL
  6
CONTINUOUS
 62
     5
 10
-0.0123154068842268
 20
361.63615991257171
 30
0.0
 40
1.137684924300038
 50
130.65836970089759
 51
179.95628081152
  0
ARC
  8
DETAIL
  6
CONTINUOUS
 62
     5
 10
0.0123652145621236
 20
361.6361733556837
 30
0.0
 40
1.1376351066000381
 50
0.0430440567966218
 51
49.343514258952808
  0
LINE
  8
DETAIL
  6
CONTINUOUS
 62
     5
 10
9.9227016238264696
 20
126.6117687754941
 30
0.0
 11
30.373119879065602
 21
360.36111904721878
 31
0.0
  0
LINE
  8
DETAIL
  6
CONTINUOUS
 62
     5
 10
12.213949429210521
 20
126.4113105671927
 30
0.0
 11
32.664367684452372
 21
360.16066083893378
 31
0.0
  0
ARC
  8
DETAIL
  6
CONTINUOUS
 62
     5
 10
31.50639957854764
 20
360.26109850159668
 30
0.0
 40
1.13768492430004
 50
125.6583697009624
 51
174.95628081150551
  0
ARC
  8
DETAIL
  6
CONTINUOUS
 62
     5
 10
31.53098745442276
 20
360.25896083565982
 30
0.0
 40
1.1376351066000401
 50
355.04304405679312
 51
44.343514258921218
  0
LINE
  8
DETAIL
  6
CONTINUOUS
 62
     5
 10
20.91988549662619
 20
125.26515234007729
 30
0.0
 11
61.665081975967951
 21
356.34264437062438
 31
0.0
  0
LINE
  8
DETAIL
  6
CONTINUOUS
 62
     5
 10
23.184943328329609
 20
124.8657615314814
 30
0.0
 11
63.930139807675907
 21
355.94325356204439
 31
0.0
  0
ARC
  8
DETAIL
  6
CONTINUOUS
 62
     5
 10
62.785331839103492
 20
356.14423259942618
 30
0.0
 40
1.1376849243000411
 50
120.65836970095729
 51
169.95628081150909
  0
ARC
  8
DETAIL
  6
CONTINUOUS
 62
     5
 10
62.809639840825177
 20
356.13996009336921
 30
0.0
 40
1.137635106600041
 50
350.04304405679068
 51
39.343514259000401
  0
LINE
  8
DETAIL
  6
CONTINUOUS
 62
     5
 10
31.757856409023589
 20
122.9651924581854
 30
0.0
 11
92.487735564638569
 21
349.61218700479782
 31
0.0
  0
LINE
  8
DETAIL
  6
CONTINUOUS
 62
     5
 10
33.979485809268233
 20
122.3699086545071
 30
0.0
 11
94.709364964888664
 21
349.01690320113488
 31
0.0
  0
ARC
  8
DETAIL
  6
CONTINUOUS
 62
     5
 10
93.586429813543873
 20
349.31689404140621
 30
0.0
 40
1.137684924300042
 50
115.6583697009151
 51
164.9562808115009
  0
ARC
  8
DETAIL
  6
CONTINUOUS
 62
     5
 10
93.610272942541087
 20
349.31051921158041
 30
0.0
 40
1.137635106600041
 50
345.04304405679312
 51
34.343514258966252
  0
LINE
  8
DETAIL
  6
CONTINUOUS
 62
     5
 10
42.354130858229837
 20
119.7293932132734
 30
0.0
 11
122.6065016400398
 21
340.22096979425442
 31
0.0
  0
LINE
  8
DETAIL
  6
CONTINUOUS
 62
     5
 10
44.515423885823111
 20
118.9427468837011
 30
0.0
 11
124.7677946676404
 21
339.43432346469717
 31
0.0
  0
ARC
  8
DETAIL
  6
CONTINUOUS
 62
     5
 10
123.6752785480703
 20
339.83104299642451
 30
0.0
 40
1.137684924300042
 50
110.6583697009454
 51
159.95628081150491
  0
ARC
  8
DETAIL
  6
CONTINUOUS
 62
     5
 10
123.6984753437346
 20
339.82261435913318
 30
0.0
 40
1.1376351066000421
 50
340.04304405681353
 51
29.343514259010959
  0
LINE
  8
DETAIL
  6
CONTINUOUS
 62
     5
 10
52.628064797482693
 20
115.5823809914245
 30
0.0
 11
151.79215820613169
 21
328.24046557253911
 31
0.0
  0
LINE
  8
DETAIL
  6
CONTINUOUS
 62
     5
 10
54.712572707459913
 20
114.6103589895156
 30
0.0
 11
153.87666611611709
 21
327.26844357064459
 31
0.0
  0
ARC
  8
DETAIL
  6
CONTINUOUS
 62
     5
 10
152.82288373567189
 20
327.7588725186456
 30
0.0
 40
1.137684924300044
 50
105.6583697009314
 51
154.95628081153009
  0
ARC
  8
DETAIL
  6
CONTINUOUS
 62
     5
 10
152.8452576563823
 20
327.74845422090863
 30
0.0
 40
1.137635106600043
 50
335.04304405678869
 51
24.343514258989721
  0
LINE
  8
DETAIL
  6
CONTINUOUS
 62
     5
 10
62.501467385931392
 20
110.5557170596803
 30
0.0
 11
179.82258479366371
 21
313.76185321080402
 31
0.0
  0
LINE
  8
DETAIL
  6
CONTINUOUS
 62
     5
 10
64.493325814438322
 20
109.40571705979301
 30
0.0
 11
181.81444322217891
 21
312.61185321093029
 31
0.0
  0
ARC
  8
DETAIL
  6
CONTINUOUS
 62
     5
 10
180.8074145010651
 20
313.19225911478179
 30
0.0
 40
1.1376849243000451
 50
100.6583697009291
 51
149.9562808115142
  0
ARC
  8
DETAIL
  6
CONTINUOUS
 62
     5
 10
180.82879526777469
 20
313.17993044613507
 30
0.0
 40
1.137635106600045
 50
330.04304405679659
 51
19.34351425899407
  0
LINE
  8
DETAIL
  6
CONTINUOUS
 62
     5
 10
71.899196068155106
 20
104.68765736574549
 30
0.0
 11
206.4844529310694
 21
296.89532369154813
 31
0.0
  0
LINE
  8
DETAIL
  6
CONTINUOUS
 62
     5
 10
73.783245769833229
 20
103.3684315622672
 30
0.0
 11
208.36850263275659
 21
295.57609788808298
 31
0.0
  0
ARC
  8
DETAIL
  6
CONTINUOUS
 62
     5
 10
207.41589166760241
 20
296.24206350839808
 30
0.0
 40
1.137684924300046
 50
95.658369700888684
 51
144.95628081149741
  0
ARC
  8
DETAIL
  6
CONTINUOUS
 62
     5
 10
207.4361165597675
 20
296.22791829745478
 30
0.0
 40
1.1376351066000461
 50
325.04304405679039
 51
14.34351425897972
  0
LINE
  8
DETAIL
  6
CONTINUOUS
 62
     5
 10
80.749728454379692
 20
98.022861387120884
 30
0.0
 11
231.574849702949
 21
277.76924148870188
 31
0.0
  0
LINE
  8
DETAIL
  6
CONTINUOUS
 62
     5
 10
82.511630673378022
 20
96.544449884986989
 30
0.0
 11
233.33675192195909
 21
276.29082998657992
 31
0.0
  0
ARC
  8
DETAIL
  6
CONTINUOUS
 62
     5
 10
232.44580865741139
 20
277.03728692286631
 30
0.0
 40
1.137684924300046
 50
90.658369700875014
 51
139.9562808115065
  0
ARC
  8
DETAIL
  6
CONTINUOUS
 62
     5
 10
232.4647237513891
 20
277.02143282322282
 30
0.0
 40
1.1376351066000461
 50
320.04304405679619
 51
9.3435142589830971
  0
LINE
  8
DETAIL
  6
CONTINUOUS
 62
     5
 10
88.985706649046733
 20
90.612052245519408
 30
0.0
 11
246.33074174420381
 21
247.95708734079651
 31
0.0
  0
LINE
  8
DETAIL
  6
CONTINUOUS
 62
     5
 10
90.612052245613995
 20
88.985706648949872
 30
0.0
 11
247.95708734077289
 21
246.33074174422791
 31
0.0
  0
LINE
  8
DETAIL
  6
CONTINUOUS
 62
     5
 10
96.544449885075664
 20
82.511630673275249
 30
0.0
 11
276.2908299865403
 21
233.33675192198419
 31
0.0
  0
LINE
  8
DETAIL
  6
CONTINUOUS
 62
     5
 10
98.02286138720774
 20
80.7497284542751
 30
0.0
 11
277.76924148868511
 21
231.57484970299359
 31
0.0
  0
ARC
  8
DETAIL
  6
CONTINUOUS
 62
     5
 10
277.02145454095722
 20
232.464676955432
 30
0.0
 40
1.137684924300048
 50
80.658369700916182
 51
129.95628081151509
  0
ARC
  8
DETAIL
  6
CONTINUOUS
 62
     5
 10
277.03732923664393
 20
232.44577914358621
 30
0.0
 40
1.1376351066000481
 50
310.04304405683098
 51
359.34351425898308
  0
LINE
  8
DETAIL
  6
CONTINUOUS
 62
     5
 10
103.3684315623459
 20
73.78324576972318
 30
0.0
 11
295.5760978880453
 21
208.36850263278529
 31
0.0
  0
LINE
  8
DETAIL
  6
CONTINUOUS
 62
     5
 10
104.68765736582191
 20
71.899196068044148
 30
0.0
 11
296.89532369153488
 21
206.4844529311149
 31
0.0
  0
ARC
  8
DETAIL
  6
CONTINUOUS
 62
     5
 10
296.22793585401001
 20
207.4360680490577
 30
0.0
 40
1.1376849243000491
 50
75.658369700889963
 51
124.9562808114904
  0
ARC
  8
DETAIL
  6
CONTINUOUS
 62
     5
 10
296.24210308885898
 20
207.41585857819791
 30
0.0
 40
1.137635106600049
 50
305.04304405675231
 51
354.34351425898609
  0
LINE
  8
DETAIL
  6
CONTINUOUS
 62
     5
 10
109.4057170598617
 20
64.493325814321452
 30
0.0
 11
312.61185321089488
 21
181.8144432222102
 31
0.0
  0
LINE
  8
DETAIL
  6
CONTINUOUS
 62
     5
 10
110.5557170597467
 20
62.501467385813612
 30
0.0
 11
313.76185321079453
 21
179.82258479370969
 31
0.0
  0
ARC
  8
DETAIL
  6
CONTINUOUS
 62
     5
 10
313.17994370789529
 20
180.82874541150841
 30
0.0
 40
1.1376849243000511
 50
70.658369700857122
 51
119.956280811513
  0
ARC
  8
DETAIL
  6
CONTINUOUS
 62
     5
 10
313.19229566069498
 20
180.80737808791079
 30
0.0
 40
1.137635106600051
 50
300.04304405685542
 51
349.34351425897989
  0
LINE
  8
DETAIL
  6
CONTINUOUS
 62
     5
 10
114.6103589895738
 20
54.712572707337593
 30
0.0
 11
327.26844357061242
 21
153.8766661161512
 31
0.0
  0
LINE
  8
DETAIL
  6
CONTINUOUS
 62
     5
 10
115.58238099147999
 20
52.628064797359002
 30
0.0
 11
328.24046557253308
 21
151.79215820617861
 31
0.0
  0
ARC
  8
DETAIL
  6
CONTINUOUS
 62
     5
 10
327.74846308694401
 20
152.84520683399569
 30
0.0
 40
1.137684924300052
 50
65.658369700854649
 51
114.9562808115421
  0
ARC
  8
DETAIL
  6
CONTINUOUS
 62
     5
 10
327.75890575187532
 20
152.8228442758946
 30
0.0
 40
1.1376351066000521
 50
295.04304405685582
 51
344.34351425897148
  0
LINE
  8
DETAIL
  6
CONTINUOUS
 62
     5
 10
118.94274688374939
 20
44.515423885697153
 30
0.0
 11
339.43432346466852
 21
124.7677946676781
 31
0.0
  0
LINE
  8
DETAIL
  6
CONTINUOUS
 62
     5
 10
119.7293932133189
 20
42.354130858102963
 30
0.0
 11
340.22096979425351
 21
122.6065016400885
 31
0.0
  0
ARC
  8
DETAIL
  6
CONTINUOUS
 62
     5
 10
339.82261876196839
 20
123.6984239420176
 30
0.0
 40
1.1376849243000531
 50
60.658369700941833
 51
109.9562808114986
  0
ARC
  8
DETAIL
  6
CONTINUOUS
 62
     5
 10
339.83107266404568
 20
123.67523634198319
 30
0.0
 40
1.137635106600053
 50
290.04304405682387
 51
339.34351425897489
  0
LINE
  8
DETAIL
  6
CONTINUOUS
 62
     5
 10
122.3699086545448
 20
33.979485809137707
 30
0.0
 11
349.01690320110993
 21
94.709364964927772
 31
0.0
  0
LINE
  8
DETAIL
  6
CONTINUOUS
 62
     5
 10
122.9651924582204
 20
31.75785640889217
 30
0.0
 11
349.61218700480191
 21
92.487735564685408
 31
0.0
  0
ARC
  8
DETAIL
  6
CONTINUOUS
 62
     5
 10
349.31051911770652
 20
93.610221352688768
 30
0.0
 40
1.137684924300054
 50
55.658369700951873
 51
104.95628081157381
  0
ARC
  8
DETAIL
  6
CONTINUOUS
 62
     5
 10
349.31691991763091
 20
93.586385182358299
 30
0.0
 40
1.1376351066000541
 50
285.04304405676231
 51
334.34351425899899
  0
LINE
  8
DETAIL
  6
CONTINUOUS
 62
     5
 10
124.8657615315078
 20
23.18494332819682
 30
0.0
 11
355.94325356202262
 21
63.930139807718213
 31
0.0
  0
LINE
  8
DETAIL
  6
CONTINUOUS
 62
     5
 10
125.2651523401009
 20
20.919885496492501
 30
0.0
 11
356.34264437063212
 21
61.665081976015699
 31
0.0
  0
ARC
  8
DETAIL
  6
CONTINUOUS
 62
     5
 10
356.13995550350052
 20
62.80958845547093
 30
0.0
 40
1.137684924300056
 50
50.658369700864469
 51
99.95628081145199
  0
ARC
  8
DETAIL
  6
CONTINUOUS
 62
     5
 10
356.14425448731981
 20
62.785285122493413
 30
0.0
 40
1.137635106600055
 50
280.04304405682211
 51
329.34351425894721
  0
LINE
  8
DETAIL
  6
CONTINUOUS
 62
     5
 10
126.41131056720771
 20
12.21394942907637
 30
0.0
 11
360.16066083891661
 21
32.664367684496483
 31
0.0
  0
LINE
  8
DETAIL
  6
CONTINUOUS
 62
     5
 10
126.61176877550589
 20
9.9227016236918644
 30
0.0
 11
360.36111904723111
 21
30.373119879112441
 31
0.0
  0
ARC
  8
DETAIL
  6
CONTINUOUS
 62
     5
 10
360.25895178472911
 20
31.53093666463883
 30
0.0
 40
1.1376849243000571
 50
45.658369700912878
 51
94.956280811579816
  0
ARC
  8
DETAIL
  6
CONTINUOUS
 62
     5
 10
360.26111623457928
 20
31.506351132052711
 30
0.0
 40
1.137635106600057
 50
275.04304405681961
 51
324.34351425900542
  0
LINE
  8
DETAIL
  6
CONTINUOUS
 62
     5
 10
126.99479320025419
 20
1.149999999816828
 30
0.0
 11
361.6370280158726
 21
1.149999999912779
 31
0.0
  0
LINE
  8
DETAIL
  6
CONTINUOUS
 62
     5
 10
126.9947932002524
 20
-1.1499999999555259
 30
0.0
 11
361.63702801588721
 21
-1.149999999860938
 31
0.0
  0
ARC
  8
DETAIL
  6
CONTINUOUS
 62
     5
 10
361.63615991257211
 20
0.0123154068901385
 30
0.0
 40
1.137684924300058
 50
40.658369700916033
 51
89.956280811467877
  0
ARC
  8
DETAIL
  6
CONTINUOUS
 62
     5
 10
361.63617335568421
 20
-0.0123652145562119
 30
0.0
 40
1.137635106600057
 50
270.04304405682262
 51
319.34351425898723
  0
LINE
  8
DETAIL
  6
CONTINUOUS
 62
     5
 10
126.61176877549499
 20
-9.9227016238310171
 30
0.0
 11
360.36111904722111
 21
-30.373119879061051
 31
0.0
  0
LINE
  8
DETAIL
  6
CONTINUOUS
 62
     5
 10
126.41131056719411
 20
-12.213949429215059
 30
0.0
 11
360.16066083893571
 21
-32.66436768444737
 31
0.0
  0
ARC
  8
DETAIL
  6
CONTINUOUS
 62
     5
 10
360.2610985015981
 20
-31.506399578542641
 30
0.0
 40
1.1376849243000591
 50
35.658369700889722
 51
84.956280811479346
  0
ARC
  8
DETAIL
  6
CONTINUOUS
 62
     5
 10
360.25896083566198
 20
-31.530987454417751
 30
0.0
 40
1.137635106600059
 50
265.04304405681933
 51
314.34351425903168
  0
LINE
  8
DETAIL
  6
CONTINUOUS
 62
     5
 10
125.26515234007729
 20
-20.919885496629831
 30
0.0
 11
356.34264437062672
 21
-61.665081975962948
 31
0.0
  0
LINE
  8
DETAIL
  6
CONTINUOUS
 62
     5
 10
124.8657615314814
 20
-23.184943328333699
 30
0.0
 11
355.94325356204632
 21
-63.930139807670457
 31
0.0
  0
ARC
  8
DETAIL
  6
CONTINUOUS
 62
     5
 10
356.1442325994276
 20
-62.785331839098028
 30
0.0
 40
1.13768492430006
 50
30.658369700923739
 51
79.956280811482699
  0
ARC
  8
DETAIL
  6
CONTINUOUS
 62
     5
 10
356.13996009337097
 20
-62.809639840819273
 30
0.0
 40
1.1376351066000601
 50
260.04304405679028
 51
309.34351425896392
  0
LINE
  8
DETAIL
  6
CONTINUOUS
 62
     5
 10
122.9651924581858
 20
-31.757856409026768
 30
0.0
 11
349.61218700479998
 21
-92.487735564633113
 31
0.0
  0
LINE
  8
DETAIL
  6
CONTINUOUS
 62
     5
 10
122.3699086545075
 20
-33.979485809271857
 30
0.0
 11
349.01690320113721
 21
-94.709364964882752
 31
0.0
  0
ARC
  8
DETAIL
  6
CONTINUOUS
 62
     5
 10
349.31689404140889
 20
-93.586429813537507
 30
0.0
 40
1.1376849243000611
 50
25.658369700917959
 51
74.956280811504669
  0
ARC
  8
DETAIL
  6
CONTINUOUS
 62
     5
 10
349.31051921158269
 20
-93.610272942534721
 30
0.0
 40
1.137635106600061
 50
255.04304405678971
 51
304.34351425899121
  0
LINE
  8
DETAIL
  6
CONTINUOUS
 62
     5
 10
119.7293932132725
 20
-42.354130858233482
 30
0.0
 11
340.22096979425709
 21
-122.60650164003479
 31
0.0
  0
LINE
  8
DETAIL
  6
CONTINUOUS
 62
     5
 10
118.9427468837002
 20
-44.515423885826749
 30
0.0
 11
339.43432346469939
 21
-124.7677946676349
 31
0.0
  0
ARC
  8
DETAIL
  6
CONTINUOUS
 62
     5
 10
339.83104299642667
 20
-123.6752785480649
 30
0.0
 40
1.137684924300062
 50
20.658369700923728
 51
69.956280811477583
  0
ARC
  8
DETAIL
  6
CONTINUOUS
 62
     5
 10
339.82261435913551
 20
-123.6984753437296
 30
0.0
 40
1.1376351066000621
 50
250.04304405681049
 51
299.34351425891617
  0
LINE
  8
DETAIL
  6
CONTINUOUS
 62
     5
 10
115.5823809914227
 20
-52.628064797485422
 30
0.0
 11
328.24046557254132
 21
-151.79215820612629
 31
0.0
  0
LINE
  8
DETAIL
  6
CONTINUOUS
 62
     5
 10
114.61035898951469
 20
-54.712572707463103
 30
0.0
 11
327.26844357064692
 21
-153.87666611611169
 31
0.0
  0
ARC
  8
DETAIL
  6
CONTINUOUS
 62
     5
 10
327.75887251864788
 20
-152.82288373566689
 30
0.0
 40
1.1376849243000631
 50
15.65836970093147
 51
64.956280811496811
  0
ARC
  8
DETAIL
  6
CONTINUOUS
 62
     5
 10
327.7484542209113
 20
-152.8452576563773
 30
0.0
 40
1.137635106600063
 50
245.0430440567637
 51
294.34351425897631
  0
LINE
  8
DETAIL
  6
CONTINUOUS
 62
     5
 10
110.5557170596794
 20
-62.501467385934568
 30
0.0
 11
313.7618532108072
 21
-179.82258479365871
 31
0.0
  0
LINE
  8
DETAIL
  6
CONTINUOUS
 62
     5
 10
109.40571705979259
 20
-64.49332581444105
 30
0.0
 11
312.61185321093399
 21
-181.8144432221743
 31
0.0
  0
ARC
  8
DETAIL
  6
CONTINUOUS
 62
     5
 10
313.19225911478497
 20
-180.80741450106049
 30
0.0
 40
1.1376849243000631
 50
10.658369700929519
 51
59.956280811534967
  0
ARC
  8
DETAIL
  6
CONTINUOUS
 62
     5
 10
313.17993044613831
 20
-180.82879526777009
 30
0.0
 40
1.137635106600063
 50
240.04304405673861
 51
289.34351425894198
  0
LINE
  8
DETAIL
  6
CONTINUOUS
 62
     5
 10
104.6876573657437
 20
-71.89919606815829
 30
0.0
 11
296.89532369155131
 21
-206.48445293106531
 31
0.0
  0
LINE
  8
DETAIL
  6
CONTINUOUS
 62
     5
 10
103.3684315622659
 20
-73.783245769835958
 30
0.0
 11
295.57609788808622
 21
-208.36850263275301
 31
0.0
  0
ARC
  8
DETAIL
  6
CONTINUOUS
 62
     5
 10
296.24206350840092
 20
-207.4158916675988
 30
0.0
 40
1.137684924300064
 50
5.6583697009148581
 51
54.956280811556141
  0
ARC
  8
DETAIL
  6
CONTINUOUS
 62
     5
 10
296.22791829745802
 20
-207.43611655976341
 30
0.0
 40
1.137635106600063
 50
235.04304405677439
 51
284.34351425897961
  0
LINE
  8
DETAIL
  6
CONTINUOUS
 62
     5
 10
98.022861387119519
 20
-80.749728454381966
 30
0.0
 11
277.76924148870512
 21
-231.57484970294581
 31
0.0
  0
LINE
  8
DETAIL
  6
CONTINUOUS
 62
     5
 10
96.544449884985625
 20
-82.511630673380751
 30
0.0
 11
276.29082998658299
 21
-233.33675192195551
 31
0.0
  0
ARC
  8
DETAIL
  6
CONTINUOUS
 62
     5
 10
277.03728692287041
 20
-232.4458086574077
 30
0.0
 40
1.137684924300064
 50
0.6583697009271109
 51
49.956280811563772
  0
ARC
  8
DETAIL
  6
CONTINUOUS
 62
     5
 10
277.02143282322601
 20
-232.46472375138501
 30
0.0
 40
1.1376351066000641
 50
230.0430440568129
 51
279.34351425898268
  0
LINE
  8
DETAIL
  6
CONTINUOUS
 62
     5
 10
90.612052245516679
 20
-88.985706649048552
 30
0.0
 11
247.95708734080111
 21
-246.33074174419929
 31
0.0
  0
LINE
  8
DETAIL
  6
CONTINUOUS
 62
     5
 10
88.985706648947598
 20
-90.612052245615814
 30
0.0
 11
246.330741744232
 21
-247.95708734076831
 31
0.0
  0
LINE
  8
DETAIL
  6
CONTINUOUS
 62
     5
 10
82.51163067327343
 20
-96.544449885077483
 30
0.0
 11
233.33675192198919
 21
-276.29082998653581
 31
0.0
  0
LINE
  8
DETAIL
  6
CONTINUOUS
 62
     5
 10
80.749728454273281
 20
-98.022861387209105
 30
0.0
 11
231.57484970299811
 21
-277.76924148868062
 31
0.0
  0
ARC
  8
DETAIL
  6
CONTINUOUS
 62
     5
 10
232.46467695543649
 20
-277.02145454095307
 30
0.0
 40
1.1376849243000671
 50
350.65836970091669
 51
39.956280811552148
  0
ARC
  8
DETAIL
  6
CONTINUOUS
 62
     5
 10
232.4457791435907
 20
-277.03732923663938
 30
0.0
 40
1.1376351066000669
 50
220.043044056773
 51
269.34351425895699
  0
LINE
  8
DETAIL
  6
CONTINUOUS
 62
     5
 10
73.783245769720452
 20
-103.36843156234821
 30
0.0
 11
208.36850263279121
 21
-295.57609788804172
 31
0.0
  0
LINE
  8
DETAIL
  6
CONTINUOUS
 62
     5
 10
71.899196068041419
 20
-104.6876573658237
 30
0.0
 11
206.48445293112039
 21
-296.8953236915313
 31
0.0
  0
ARC
  8
DETAIL
  6
CONTINUOUS
 62
     5
 10
207.4360680490627
 20
-296.22793585400632
 30
0.0
 40
1.137684924300068
 50
345.65836970091721
 51
34.956280811535123
  0
ARC
  8
DETAIL
  6
CONTINUOUS
 62
     5
 10
207.4158585782034
 20
-296.24210308885489
 30
0.0
 40
1.1376351066000681
 50
215.0430440568083
 51
264.34351425893328
  0
ARC
  8
DETAIL
  6
CONTINUOUS
 62
     5
 10
0.0000000000009095
 20
0.0
 30
0.0
 40
353.49999999990001
 50
300.18639395381427
 51
304.81360604624342
  0
ARC
  8
DETAIL
  6
CONTINUOUS
 62
     5
 10
0.0000000000009095
 20
0.0
 30
0.0
 40
350.49999999990001
 50
300.18798934273281
 51
304.8120106572224
  0
ARC
  8
DETAIL
  6
CONTINUOUS
 62
     5
 10
0.0000000000009095
 20
0.0
 30
0.0
 40
318.0
 50
300.20720216993811
 51
304.79279782994757
  0
ARC
  8
DETAIL
  6
CONTINUOUS
 62
     5
 10
0.0000000000009095
 20
0.0
 30
0.0
 40
315.0
 50
300.20917553275069
 51
304.79082446733162
  0
ARC
  8
DETAIL
  6
CONTINUOUS
 62
     5
 10
0.0000000000009095
 20
0.0
 30
0.0
 40
219.0
 50
300.30086963132561
 51
304.69913036868701
  0
ARC
  8
DETAIL
  6
CONTINUOUS
 62
     5
 10
0.0000000000009095
 20
0.0
 30
0.0
 40
216.0
 50
300.30504841531803
 51
304.69495158468777
  0
ARC
  8
DETAIL
  6
CONTINUOUS
 62
     5
 10
0.0000000000009095
 20
0.0
 30
0.0
 40
129.99999999990001
 50
300.50685389089023
 51
304.49314610896499
  0
ARC
  8
DETAIL
  6
CONTINUOUS
 62
     5
 10
0.0000000000009095
 20
-0.0000000000004547
 30
0.0
 40
353.49999999990052
 50
295.186393953714
 51
299.81360604623887
  0
ARC
  8
DETAIL
  6
CONTINUOUS
 62
     5
 10
0.0000000000009095
 20
-0.0000000000004547
 30
0.0
 40
350.49999999990052
 50
295.18798934276941
 51
299.81201065724292
  0
ARC
  8
DETAIL
  6
CONTINUOUS
 62
     5
 10
0.0000000000009095
 20
-0.0000000000004547
 30
0.0
 40
318.0000000000004
 50
295.20720217003111
 51
299.79279783005688
  0
ARC
  8
DETAIL
  6
CONTINUOUS
 62
     5
 10
0.0000000000009095
 20
-0.0000000000004547
 30
0.0
 40
315.0000000000004
 50
295.20917553271198
 51
299.79082446735077
  0
ARC
  8
DETAIL
  6
CONTINUOUS
 62
     5
 10
0.0000000000009095
 20
-0.0000000000004547
 30
0.0
 40
219.00000000000031
 50
295.30086963133522
 51
299.69913036862988
  0
ARC
  8
DETAIL
  6
CONTINUOUS
 62
     5
 10
0.0000000000009095
 20
-0.0000000000004547
 30
0.0
 40
216.00000000000031
 50
295.30504841533218
 51
299.6949515846452
  0
ARC
  8
DETAIL
  6
CONTINUOUS
 62
     5
 10
0.0000000000009095
 20
-0.0000000000004547
 30
0.0
 40
129.99999999990021
 50
295.50685389094338
 51
299.49314610898159
  0
ARC
  8
DETAIL
  6
CONTINUOUS
 62
     5
 10
-0.0000000000009095
 20
-0.0000000000009095
 30
0.0
 40
353.49999999990098
 50
290.18639395374692
 51
294.81360604623268
  0
ARC
  8
DETAIL
  6
CONTINUOUS
 62
     5
 10
-0.0000000000009095
 20
-0.0000000000009095
 30
0.0
 40
350.49999999990098
 50
290.18798934283069
 51
294.81201065720342
  0
ARC
  8
DETAIL
  6
CONTINUOUS
 62
     5
 10
-0.0000000000009095
 20
-0.0000000000009095
 30
0.0
 40
318.00000000000091
 50
290.20720217004822
 51
294.79279783004341
  0
ARC
  8
DETAIL
  6
CONTINUOUS
 62
     5
 10
-0.0000000000009095
 20
-0.0000000000009095
 30
0.0
 40
315.00000000000091
 50
290.20917553268782
 51
294.79082446725698
  0
ARC
  8
DETAIL
  6
CONTINUOUS
 62
     5
 10
-0.0000000000009095
 20
-0.0000000000009095
 30
0.0
 40
219.0000000000006
 50
290.30086963129332
 51
294.69913036869599
  0
ARC
  8
DETAIL
  6
CONTINUOUS
 62
     5
 10
-0.0000000000009095
 20
-0.0000000000009095
 30
0.0
 40
216.0000000000006
 50
290.30504841538573
 51
294.69495158454521
  0
ARC
  8
DETAIL
  6
CONTINUOUS
 62
     5
 10
-0.0000000000009095
 20
-0.0000000000009095
 30
0.0
 40
129.99999999990041
 50
290.50685389099868
 51
294.49314610900768
  0
ARC
  8
DETAIL
  6
CONTINUOUS
 62
     5
 10
-0.0000000000009095
 20
-0.0000000000004547
 30
0.0
 40
353.49999999990138
 50
285.18639395376368
 51
289.81360604621477
  0
ARC
  8
DETAIL
  6
CONTINUOUS
 62
     5
 10
-0.0000000000009095
 20
-0.0000000000004547
 30
0.0
 40
350.49999999990138
 50
285.18798934278749
 51
289.81201065728192
  0
ARC
  8
DETAIL
  6
CONTINUOUS
 62
     5
 10
-0.0000000000009095
 20
-0.0000000000004547
 30
0.0
 40
318.00000000000131
 50
285.20720216995858
 51
289.79279783004807
  0
ARC
  8
DETAIL
  6
CONTINUOUS
 62
     5
 10
-0.0000000000009095
 20
-0.0000000000004547
 30
0.0
 40
315.00000000000131
 50
285.20917553270021
 51
289.79082446730291
  0
ARC
  8
DETAIL
  6
CONTINUOUS
 62
     5
 10
-0.0000000000009095
 20
-0.0000000000004547
 30
0.0
 40
219.00000000000091
 50
285.30086963133402
 51
289.69913036862238
  0
ARC
  8
DETAIL
  6
CONTINUOUS
 62
     5
 10
-0.0000000000009095
 20
-0.0000000000004547
 30
0.0
 40
216.00000000000091
 50
285.30504841533212
 51
289.69495158457232
  0
ARC
  8
DETAIL
  6
CONTINUOUS
 62
     5
 10
-0.0000000000009095
 20
-0.0000000000004547
 30
0.0
 40
129.9999999999005
 50
285.50685389098561
 51
289.49314610898762
  0
ARC
  8
DETAIL
  6
CONTINUOUS
 62
     5
 10
-0.000000000001819
 20
-0.0000000000004547
 30
0.0
 40
353.49999999990172
 50
280.18639395375288
 51
284.81360604623802
  0
ARC
  8
DETAIL
  6
CONTINUOUS
 62
     5
 10
-0.000000000001819
 20
-0.0000000000004547
 30
0.0
 40
350.49999999990172
 50
280.18798934272542
 51
284.81201065724372
  0
ARC
  8
DETAIL
  6
CONTINUOUS
 62
     5
 10
-0.000000000001819
 20
-0.0000000000004547
 30
0.0
 40
318.00000000000148
 50
280.20720216997228
 51
284.79279782998572
  0
ARC
  8
DETAIL
  6
CONTINUOUS
 62
     5
 10
-0.000000000001819
 20
-0.0000000000004547
 30
0.0
 40
315.00000000000148
 50
280.2091755326714
 51
284.79082446728762
  0
ARC
  8
DETAIL
  6
CONTINUOUS
 62
     5
 10
-0.000000000001819
 20
-0.0000000000004547
 30
0.0
 40
219.00000000000099
 50
280.30086963128218
 51
284.69913036873498
  0
ARC
  8
DETAIL
  6
CONTINUOUS
 62
     5
 10
-0.000000000001819
 20
-0.0000000000004547
 30
0.0
 40
216.00000000000099
 50
280.30504841534622
 51
284.69495158467811
  0
ARC
  8
DETAIL
  6
CONTINUOUS
 62
     5
 10
-0.000000000001819
 20
-0.0000000000004547
 30
0.0
 40
129.99999999990061
 50
280.50685389100511
 51
284.49314610895419
  0
ARC
  8
DETAIL
  6
CONTINUOUS
 62
     5
 10
-0.000000000001819
 20
-0.0000000000004547
 30
0.0
 40
353.49999999990212
 50
275.18639395381678
 51
279.81360604624842
  0
ARC
  8
DETAIL
  6
CONTINUOUS
 62
     5
 10
-0.000000000001819
 20
-0.0000000000004547
 30
0.0
 40
350.49999999990212
 50
275.18798934286912
 51
279.81201065717983
  0
ARC
  8
DETAIL
  6
CONTINUOUS
 62
     5
 10
-0.000000000001819
 20
-0.0000000000004547
 30
0.0
 40
318.00000000000182
 50
275.2072021700497
 51
279.79279783001988
  0
ARC
  8
DETAIL
  6
CONTINUOUS
 62
     5
 10
-0.000000000001819
 20
-0.0000000000004547
 30
0.0
 40
315.00000000000182
 50
275.20917553269669
 51
279.79082446721128
  0
ARC
  8
DETAIL
  6
CONTINUOUS
 62
     5
 10
-0.000000000001819
 20
-0.0000000000004547
 30
0.0
 40
219.00000000000131
 50
275.30086963126519
 51
279.6991303686919
  0
ARC
  8
DETAIL
  6
CONTINUOUS
 62
     5
 10
-0.000000000001819
 20
-0.0000000000004547
 30
0.0
 40
216.00000000000131
 50
275.30504841535981
 51
279.69495158465998
  0
ARC
  8
DETAIL
  6
CONTINUOUS
 62
     5
 10
-0.000000000001819
 20
-0.0000000000004547
 30
0.0
 40
129.99999999990069
 50
275.50685389102227
 51
279.49314610892748
  0
ARC
  8
DETAIL
  6
CONTINUOUS
 62
     5
 10
-0.000000000001819
 20
0.0
 30
0.0
 40
353.49999999990217
 50
270.1863939538207
 51
274.81360604619152
  0
ARC
  8
DETAIL
  6
CONTINUOUS
 62
     5
 10
-0.000000000001819
 20
0.0
 30
0.0
 40
350.49999999990217
 50
270.18798934282222
 51
274.81201065721439
  0
ARC
  8
DETAIL
  6
CONTINUOUS
 62
     5
 10
-0.000000000001819
 20
0.0
 30
0.0
 40
318.00000000000199
 50
270.20720217002878
 51
274.79279783004591
  0
ARC
  8
DETAIL
  6
CONTINUOUS
 62
     5
 10
-0.000000000001819
 20
0.0
 30
0.0
 40
315.00000000000188
 50
270.20917553263791
 51
274.79082446735879
  0
ARC
  8
DETAIL
  6
CONTINUOUS
 62
     5
 10
-0.000000000001819
 20
0.0
 30
0.0
 40
219.00000000000139
 50
270.30086963131208
 51
274.69913036873248
  0
ARC
  8
DETAIL
  6
CONTINUOUS
 62
     5
 10
-0.000000000001819
 20
0.0
 30
0.0
 40
216.00000000000131
 50
270.30504841543109
 51
274.6949515846149
  0
ARC
  8
DETAIL
  6
CONTINUOUS
 62
     5
 10
-0.000000000001819
 20
0.0
 30
0.0
 40
129.99999999990081
 50
270.50685389099988
 51
274.49314610891861
  0
ARC
  8
DETAIL
  6
CONTINUOUS
 62
     5
 10
-0.000000000003638
 20
0.0000000000004547
 30
0.0
 40
353.49999999990268
 50
265.18639395380848
 51
269.8136060462835
  0
ARC
  8
DETAIL
  6
CONTINUOUS
 62
     5
 10
-0.000000000003638
 20
0.0000000000004547
 30
0.0
 40
350.49999999990268
 50
265.18798934278561
 51
269.81201065728197
  0
ARC
  8
DETAIL
  6
CONTINUOUS
 62
     5
 10
-0.000000000003638
 20
0.0000000000004547
 30
0.0
 40
318.00000000000239
 50
265.20720217005868
 51
269.79279782997122
  0
ARC
  8
DETAIL
  6
CONTINUOUS
 62
     5
 10
-0.000000000003638
 20
0.0000000000004547
 30
0.0
 40
315.00000000000239
 50
265.20917553264121
 51
269.79082446736209
  0
ARC
  8
DETAIL
  6
CONTINUOUS
 62
     5
 10
-0.000000000003638
 20
0.0000000000004547
 30
0.0
 40
219.00000000000159
 50
265.30086963126752
 51
269.69913036868792
  0
ARC
  8
DETAIL
  6
CONTINUOUS
 62
     5
 10
-0.000000000003638
 20
0.0000000000004547
 30
0.0
 40
216.00000000000159
 50
265.3050484153851
 51
269.69495158456891
  0
ARC
  8
DETAIL
  6
CONTINUOUS
 62
     5
 10
-0.000000000003638
 20
0.0000000000004547
 30
0.0
 40
129.99999999990101
 50
265.50685389097691
 51
269.49314610889581
  0
ARC
  8
DETAIL
  6
CONTINUOUS
 62
     5
 10
-0.000000000003638
 20
0.0000000000004547
 30
0.0
 40
353.49999999990308
 50
260.18639395375158
 51
264.81360604618322
  0
ARC
  8
DETAIL
  6
CONTINUOUS
 62
     5
 10
-0.000000000003638
 20
0.0000000000004547
 30
0.0
 40
350.49999999990303
 50
260.18798934282017
 51
264.81201065723559
  0
ARC
  8
DETAIL
  6
CONTINUOUS
 62
     5
 10
-0.000000000003638
 20
0.0000000000004547
 30
0.0
 40
318.00000000000267
 50
260.20720216998012
 51
264.7927978299503
  0
ARC
  8
DETAIL
  6
CONTINUOUS
 62
     5
 10
-0.000000000003638
 20
0.0000000000004547
 30
0.0
 40
315.00000000000267
 50
260.20917553268299
 51
264.79082446730331
  0
ARC
  8
DETAIL
  6
CONTINUOUS
 62
     5
 10
-0.000000000003638
 20
0.0000000000004547
 30
0.0
 40
219.0000000000019
 50
260.3008696313081
 51
264.69913036863011
  0
ARC
  8
DETAIL
  6
CONTINUOUS
 62
     5
 10
-0.000000000003638
 20
0.0000000000004547
 30
0.0
 40
216.0000000000019
 50
260.30504841534008
 51
264.69495158464019
  0
ARC
  8
DETAIL
  6
CONTINUOUS
 62
     5
 10
-0.000000000003638
 20
0.0000000000004547
 30
0.0
 40
129.99999999990109
 50
260.50685389096691
 51
264.49314610897773
  0
ARC
  8
DETAIL
  6
CONTINUOUS
 62
     5
 10
-0.0000000000045475
 20
0.0000000000013642
 30
0.0
 40
353.49999999990348
 50
255.18639395376201
 51
259.81360604624712
  0
ARC
  8
DETAIL
  6
CONTINUOUS
 62
     5
 10
-0.0000000000045475
 20
0.0000000000013642
 30
0.0
 40
350.49999999990342
 50
255.187989342864
 51
259.81201065727458
  0
ARC
  8
DETAIL
  6
CONTINUOUS
 62
     5
 10
-0.0000000000045475
 20
0.0000000000013642
 30
0.0
 40
318.00000000000313
 50
255.20720217001431
 51
259.79279783002772
  0
ARC
  8
DETAIL
  6
CONTINUOUS
 62
     5
 10
-0.0000000000045475
 20
0.0000000000013642
 30
0.0
 40
315.00000000000313
 50
255.20917553271241
 51
259.7908244673286
  0
ARC
  8
DETAIL
  6
CONTINUOUS
 62
     5
 10
-0.0000000000045475
 20
0.0000000000013642
 30
0.0
 40
219.0000000000021
 50
255.30086963126499
 51
259.6991303687177
  0
ARC
  8
DETAIL
  6
CONTINUOUS
 62
     5
 10
-0.0000000000045475
 20
0.0000000000013642
 30
0.0
 40
216.0000000000021
 50
255.30504841532201
 51
259.69495158465378
  0
ARC
  8
DETAIL
  6
CONTINUOUS
 62
     5
 10
-0.0000000000045475
 20
0.0000000000013642
 30
0.0
 40
129.99999999990129
 50
255.5068538909382
 51
259.49314610899489
  0
ARC
  8
DETAIL
  6
CONTINUOUS
 62
     5
 10
-0.0000000000045475
 20
0.000000000001819
 30
0.0
 40
353.49999999990382
 50
250.1863939537852
 51
254.81360604623629
  0
ARC
  8
DETAIL
  6
CONTINUOUS
 62
     5
 10
-0.0000000000045475
 20
0.000000000001819
 30
0.0
 40
350.49999999990382
 50
250.18798934282199
 51
254.81201065721251
  0
ARC
  8
DETAIL
  6
CONTINUOUS
 62
     5
 10
-0.0000000000045475
 20
0.000000000001819
 30
0.0
 40
318.00000000000341
 50
250.20720217005581
 51
254.7927978300481
  0
ARC
  8
DETAIL
  6
CONTINUOUS
 62
     5
 10
-0.0000000000045475
 20
0.000000000001819
 30
0.0
 40
315.00000000000341
 50
250.20917553269709
 51
254.79082446729981
  0
ARC
  8
DETAIL
  6
CONTINUOUS
 62
     5
 10
-0.0000000000045475
 20
0.000000000001819
 30
0.0
 40
219.0000000000023
 50
250.30086963126681
 51
254.699130368666
  0
ARC
  8
DETAIL
  6
CONTINUOUS
 62
     5
 10
-0.0000000000045475
 20
0.000000000001819
 30
0.0
 40
216.0000000000023
 50
250.30504841531709
 51
254.69495158455979
  0
ARC
  8
DETAIL
  6
CONTINUOUS
 62
     5
 10
-0.0000000000045475
 20
0.000000000001819
 30
0.0
 40
129.99999999990141
 50
250.50685389090111
 51
254.49314610901439
  0
ARC
  8
DETAIL
  6
CONTINUOUS
 62
     5
 10
-0.000000000003638
 20
0.0000000000022737
 30
0.0
 40
353.49999999990371
 50
245.18639395376729
 51
249.81360604625311
  0
ARC
  8
DETAIL
  6
CONTINUOUS
 62
     5
 10
-0.000000000003638
 20
0.0000000000022737
 30
0.0
 40
350.49999999990371
 50
245.18798934279661
 51
249.8120106572743
  0
ARC
  8
DETAIL
  6
CONTINUOUS
 62
     5
 10
-0.000000000003638
 20
0.0000000000022737
 30
0.0
 40
318.0000000000033
 50
245.2072021699567
 51
249.7927978300568
  0
ARC
  8
DETAIL
  6
CONTINUOUS
 62
     5
 10
-0.000000000003638
 20
0.0000000000022737
 30
0.0
 40
315.0000000000033
 50
245.2091755327296
 51
249.79082446731209
  0
ARC
  8
DETAIL
  6
CONTINUOUS
 62
     5
 10
-0.000000000003638
 20
0.0000000000022737
 30
0.0
 40
219.0000000000023
 50
245.30086963130401
 51
249.6991303687067
  0
ARC
  8
DETAIL
  6
CONTINUOUS
 62
     5
 10
-0.000000000003638
 20
0.0000000000022737
 30
0.0
 40
216.00000000000219
 50
245.30504841533991
 51
249.6949515846143
  0
ARC
  8
DETAIL
  6
CONTINUOUS
 62
     5
 10
-0.000000000003638
 20
0.0000000000022737
 30
0.0
 40
129.99999999990129
 50
245.5068538909922
 51
249.49314610900129
  0
ARC
  8
DETAIL
  6
CONTINUOUS
 62
     5
 10
-0.0000000000045475
 20
0.0000000000022737
 30
0.0
 40
353.49999999990371
 50
240.1863939537611
 51
244.81360604628591
  0
ARC
  8
DETAIL
  6
CONTINUOUS
 62
     5
 10
-0.0000000000045475
 20
0.0000000000022737
 30
0.0
 40
350.49999999990371
 50
240.18798934275699
 51
244.81201065723059
  0
ARC
  8
DETAIL
  6
CONTINUOUS
 62
     5
 10
-0.0000000000045475
 20
0.0000000000022737
 30
0.0
 40
318.0000000000033
 50
240.2072021699571
 51
244.79279783007681
  0
ARC
  8
DETAIL
  6
CONTINUOUS
 62
     5
 10
-0.0000000000045475
 20
0.0000000000022737
 30
0.0
 40
315.0000000000033
 50
240.20917553264931
 51
244.79082446728791
  0
ARC
  8
DETAIL
  6
CONTINUOUS
 62
     5
 10
-0.0000000000045475
 20
0.0000000000022737
 30
0.0
 40
219.0000000000023
 50
240.30086963125771
 51
244.6991303686649
  0
ARC
  8
DETAIL
  6
CONTINUOUS
 62
     5
 10
-0.0000000000045475
 20
0.0000000000022737
 30
0.0
 40
216.00000000000219
 50
240.3050484153548
 51
244.6949515845659
  0
ARC
  8
DETAIL
  6
CONTINUOUS
 62
     5
 10
-0.0000000000045475
 20
0.0000000000022737
 30
0.0
 40
129.99999999990129
 50
240.50685389090049
 51
244.49314610894021
  0
ARC
  8
DETAIL
  6
CONTINUOUS
 62
     5
 10
-0.000000000003638
 20
0.0000000000031832
 30
0.0
 40
353.49999999990371
 50
235.18639395375629
 51
239.8136060461857
  0
ARC
  8
DETAIL
  6
CONTINUOUS
 62
     5
 10
-0.000000000003638
 20
0.0000000000031832
 30
0.0
 40
350.49999999990371
 50
235.1879893427776
 51
239.81201065726711
  0
ARC
  8
DETAIL
  6
CONTINUOUS
 62
     5
 10
-0.000000000003638
 20
0.0000000000031832
 30
0.0
 40
318.0000000000033
 50
235.20720217005231
 51
239.7927978300612
  0
ARC
  8
DETAIL
  6
CONTINUOUS
 62
     5
 10
-0.000000000003638
 20
0.0000000000031832
 30
0.0
 40
315.0000000000033
 50
235.20917553266841
 51
239.79082446724931
  0
ARC
  8
DETAIL
  6
CONTINUOUS
 62
     5
 10
-0.000000000003638
 20
0.0000000000031832
 30
0.0
 40
219.0000000000023
 50
235.30086963131299
 51
239.6991303686595
  0
ARC
  8
DETAIL
  6
CONTINUOUS
 62
     5
 10
-0.000000000003638
 20
0.0000000000031832
 30
0.0
 40
216.00000000000219
 50
235.3050484153122
 51
239.69495158468189
  0
ARC
  8
DETAIL
  6
CONTINUOUS
 62
     5
 10
-0.000000000003638
 20
0.0000000000031832
 30
0.0
 40
129.99999999990129
 50
235.50685389090279
 51
239.4931461089956
  0
ARC
  8
DETAIL
  6
CONTINUOUS
 62
     5
 10
-0.000000000003638
 20
0.000000000003638
 30
0.0
 40
353.49999999990371
 50
230.18639395372921
 51
234.81360604627349
  0
ARC
  8
DETAIL
  6
CONTINUOUS
 62
     5
 10
-0.000000000003638
 20
0.000000000003638
 30
0.0
 40
350.49999999990371
 50
230.1879893428339
 51
234.81201065727629
  0
ARC
  8
DETAIL
  6
CONTINUOUS
 62
     5
 10
-0.000000000003638
 20
0.000000000003638
 30
0.0
 40
318.0000000000033
 50
230.2072021700092
 51
234.79279783001491
  0
ARC
  8
DETAIL
  6
CONTINUOUS
 62
     5
 10
-0.000000000003638
 20
0.000000000003638
 30
0.0
 40
315.0000000000033
 50
230.2091755327576
 51
234.79082446727031
  0
ARC
  8
DETAIL
  6
CONTINUOUS
 62
     5
 10
-0.000000000003638
 20
0.000000000003638
 30
0.0
 40
219.0000000000023
 50
230.30086963130901
 51
234.69913036873291
  0
ARC
  8
DETAIL
  6
CONTINUOUS
 62
     5
 10
-0.000000000003638
 20
0.000000000003638
 30
0.0
 40
216.00000000000219
 50
230.30504841542
 51
234.6949515846365
  0
ARC
  8
DETAIL
  6
CONTINUOUS
 62
     5
 10
-0.000000000003638
 20
0.000000000003638
 30
0.0
 40
129.99999999990129
 50
230.5068538909635
 51
234.49314610896269
  0
ARC
  8
DETAIL
  6
CONTINUOUS
 62
     5
 10
-0.0000000000027285
 20
0.000000000003638
 30
0.0
 40
353.49999999990348
 50
224.81360604620181
 51
229.81360604625581
  0
ARC
  8
DETAIL
  6
CONTINUOUS
 62
     5
 10
-0.0000000000027285
 20
0.000000000003638
 30
0.0
 40
350.49999999990342
 50
224.81201065715049
 51
229.8120106572016
  0
ARC
  8
DETAIL
  6
CONTINUOUS
 62
     5
 10
-0.0000000000027285
 20
0.000000000003638
 30
0.0
 40
318.00000000000313
 50
225.20720217001801
 51
229.7927978300101
  0
ARC
  8
DETAIL
  6
CONTINUOUS
 62
     5
 10
-0.0000000000027285
 20
0.000000000003638
 30
0.0
 40
315.00000000000313
 50
225.2091755326812
 51
229.79082446732639
  0
ARC
  8
DETAIL
  6
CONTINUOUS
 62
     5
 10
-0.0000000000027285
 20
0.000000000003638
 30
0.0
 40
219.0000000000021
 50
225.3008696312605
 51
229.69913036869821
  0
ARC
  8
DETAIL
  6
CONTINUOUS
 62
     5
 10
-0.0000000000027285
 20
0.000000000003638
 30
0.0
 40
216.0000000000021
 50
225.30504841533821
 51
229.69495158461731
  0
ARC
  8
DETAIL
  6
CONTINUOUS
 62
     5
 10
-0.0000000000027285
 20
0.000000000003638
 30
0.0
 40
129.99999999990129
 50
225.50685389099041
 51
229.49314610901621
  0
ARC
  8
DETAIL
  6
CONTINUOUS
 62
     5
 10
-0.0000000000027285
 20
0.0000000000040927
 30
0.0
 40
318.00000000000313
 50
220.2072021700248
 51
224.79279783007411
  0
ARC
  8
DETAIL
  6
CONTINUOUS
 62
     5
 10
-0.0000000000027285
 20
0.0000000000040927
 30
0.0
 40
315.00000000000313
 50
220.2091755327103
 51
224.79082446731371
  0
ARC
  8
DETAIL
  6
CONTINUOUS
 62
     5
 10
-0.0000000000027285
 20
0.0000000000040927
 30
0.0
 40
219.0000000000021
 50
220.30086963130179
 51
224.69913036866151
  0
ARC
  8
DETAIL
  6
CONTINUOUS
 62
     5
 10
-0.0000000000027285
 20
0.0000000000040927
 30
0.0
 40
216.0000000000021
 50
220.30504841534841
 51
224.69495158464341
  0
ARC
  8
DETAIL
  6
CONTINUOUS
 62
     5
 10
-0.0000000000027285
 20
0.0000000000040927
 30
0.0
 40
129.99999999990129
 50
220.5068538909884
 51
224.49314610894081
  0
ARC
  8
DETAIL
  6
CONTINUOUS
 62
     5
 10
-0.0000000000027285
 20
0.0000000000040927
 30
0.0
 40
353.49999999990348
 50
215.18639395372651
 51
219.813606046215
  0
ARC
  8
DETAIL
  6
CONTINUOUS
 62
     5
 10
-0.0000000000027285
 20
0.0000000000040927
 30
0.0
 40
350.49999999990342
 50
215.18798934278419
 51
219.81201065718909
  0
ARC
  8
DETAIL
  6
CONTINUOUS
 62
     5
 10
-0.0000000000027285
 20
0.0000000000040927
 30
0.0
 40
318.00000000000313
 50
215.20720216998589
 51
219.79279783003011
  0
ARC
  8
DETAIL
  6
CONTINUOUS
 62
     5
 10
-0.0000000000027285
 20
0.0000000000040927
 30
0.0
 40
315.00000000000313
 50
215.20917553269149
 51
219.79082446726301
  0
ARC
  8
DETAIL
  6
CONTINUOUS
 62
     5
 10
-0.0000000000027285
 20
0.0000000000040927
 30
0.0
 40
219.0000000000021
 50
215.3008696312674
 51
219.69913036866981
  0
ARC
  8
DETAIL
  6
CONTINUOUS
 62
     5
 10
-0.0000000000027285
 20
0.0000000000040927
 30
0.0
 40
216.0000000000021
 50
215.30504841536529
 51
219.69495158460111
  0
ARC
  8
DETAIL
  6
CONTINUOUS
 62
     5
 10
-0.0000000000027285
 20
0.0000000000040927
 30
0.0
 40
129.99999999990129
 50
215.50685389096199
 51
219.4931461089422
  0
ARC
  8
DETAIL
  6
CONTINUOUS
 62
     5
 10
-0.000000000001819
 20
0.0000000000045475
 30
0.0
 40
353.49999999990348
 50
210.18639395372051
 51
214.81360604624399
  0
ARC
  8
DETAIL
  6
CONTINUOUS
 62
     5
 10
-0.000000000001819
 20
0.0000000000045475
 30
0.0
 40
350.49999999990342
 50
210.18798934278971
 51
214.81201065725941
  0
ARC
  8
DETAIL
  6
CONTINUOUS
 62
     5
 10
-0.000000000001819
 20
0.0000000000045475
 30
0.0
 40
318.00000000000313
 50
210.20720217000519
 51
214.79279783000791
  0
ARC
  8
DETAIL
  6
CONTINUOUS
 62
     5
 10
-0.000000000001819
 20
0.0000000000045475
 30
0.0
 40
315.00000000000313
 50
210.20917553272869
 51
214.79082446730851
  0
ARC
  8
DETAIL
  6
CONTINUOUS
 62
     5
 10
-0.000000000001819
 20
0.0000000000045475
 30
0.0
 40
219.0000000000021
 50
210.30086963126399
 51
214.69913036867081
  0
ARC
  8
DETAIL
  6
CONTINUOUS
 62
     5
 10
-0.000000000001819
 20
0.0000000000045475
 30
0.0
 40
216.0000000000021
 50
210.30504841537319
 51
214.69495158459659
  0
ARC
  8
DETAIL
  6
CONTINUOUS
 62
     5
 10
-0.000000000001819
 20
0.0000000000045475
 30
0.0
 40
129.99999999990129
 50
210.50685389094889
 51
214.4931461089817
  0
ARC
  8
DETAIL
  6
CONTINUOUS
 62
     5
 10
-0.000000000001819
 20
0.000000000005457
 30
0.0
 40
353.49999999990388
 50
205.18639395374751
 51
209.81360604625229
  0
ARC
  8
DETAIL
  6
CONTINUOUS
 62
     5
 10
-0.000000000001819
 20
0.000000000005457
 30
0.0
 40
350.49999999990382
 50
205.18798934283041
 51
209.8120106572066
  0
ARC
  8
DETAIL
  6
CONTINUOUS
 62
     5
 10
-0.000000000001819
 20
0.000000000005457
 30
0.0
 40
318.00000000000352
 50
205.20720217000459
 51
209.79279783002079
  0
ARC
  8
DETAIL
  6
CONTINUOUS
 62
     5
 10
-0.000000000001819
 20
0.000000000005457
 30
0.0
 40
315.00000000000341
 50
205.20917553265099
 51
209.79082446728361
  0
ARC
  8
DETAIL
  6
CONTINUOUS
 62
     5
 10
-0.000000000001819
 20
0.000000000005457
 30
0.0
 40
219.00000000000239
 50
205.30086963127991
 51
209.69913036868681
  0
ARC
  8
DETAIL
  6
CONTINUOUS
 62
     5
 10
-0.000000000001819
 20
0.000000000005457
 30
0.0
 40
216.00000000000239
 50
205.30504841537731
 51
209.69495158464679
  0
ARC
  8
DETAIL
  6
CONTINUOUS
 62
     5
 10
-0.000000000001819
 20
0.000000000005457
 30
0.0
 40
129.99999999990141
 50
205.5068538909668
 51
209.49314610894771
  0
ARC
  8
DETAIL
  6
CONTINUOUS
 62
     5
 10
-0.0000000000009095
 20
0.0000000000063665
 30
0.0
 40
353.49999999990428
 50
200.18639395377889
 51
204.8136060462673
  0
ARC
  8
DETAIL
  6
CONTINUOUS
 62
     5
 10
-0.0000000000009095
 20
0.0000000000063665
 30
0.0
 40
350.49999999990428
 50
200.18798934280721
 51
204.81201065723661
  0
ARC
  8
DETAIL
  6
CONTINUOUS
 62
     5
 10
-0.0000000000009095
 20
0.0000000000063665
 30
0.0
 40
318.00000000000392
 50
200.20720217000181
 51
204.7927978300404
  0
ARC
  8
DETAIL
  6
CONTINUOUS
 62
     5
 10
-0.0000000000009095
 20
0.0000000000063665
 30
0.0
 40
315.00000000000392
 50
200.20917553268339
 51
204.79082446729379
  0
ARC
  8
DETAIL
  6
CONTINUOUS
 62
     5
 10
-0.0000000000009095
 20
0.0000000000063665
 30
0.0
 40
219.0000000000027
 50
200.30086963128889
 51
204.69913036872961
  0
ARC
  8
DETAIL
  6
CONTINUOUS
 62
     5
 10
-0.0000000000009095
 20
0.0000000000063665
 30
0.0
 40
216.00000000000259
 50
200.305048415383
 51
204.69495158463539
  0
ARC
  8
DETAIL
  6
CONTINUOUS
 62
     5
 10
-0.0000000000009095
 20
0.0000000000063665
 30
0.0
 40
129.9999999999016
 50
200.5068538909664
 51
204.4931461089628
  0
ARC
  8
DETAIL
  6
CONTINUOUS
 62
     5
 10
-0.0000000000009095
 20
0.0000000000063665
 30
0.0
 40
353.49999999990428
 50
195.18639395373671
 51
199.81360604624129
  0
ARC
  8
DETAIL
  6
CONTINUOUS
 62
     5
 10
-0.0000000000009095
 20
0.0000000000063665
 30
0.0
 40
350.49999999990428
 50
195.18798934281071
 51
199.81201065720271
  0
ARC
  8
DETAIL
  6
CONTINUOUS
 62
     5
 10
-0.0000000000009095
 20
0.0000000000063665
 30
0.0
 40
318.00000000000392
 50
195.20720216997881
 51
199.7927978300246
  0
ARC
  8
DETAIL
  6
CONTINUOUS
 62
     5
 10
-0.0000000000009095
 20
0.0000000000063665
 30
0.0
 40
315.00000000000392
 50
195.20917553270061
 51
199.79082446730601
  0
ARC
  8
DETAIL
  6
CONTINUOUS
 62
     5
 10
-0.0000000000009095
 20
0.0000000000063665
 30
0.0
 40
219.0000000000027
 50
195.30086963128329
 51
199.69913036870159
  0
ARC
  8
DETAIL
  6
CONTINUOUS
 62
     5
 10
-0.0000000000009095
 20
0.0000000000063665
 30
0.0
 40
216.00000000000259
 50
195.30504841538919
 51
199.6949515846301
  0
ARC
  8
DETAIL
  6
CONTINUOUS
 62
     5
 10
-0.0000000000009095
 20
0.0000000000063665
 30
0.0
 40
129.9999999999016
 50
195.50685389095599
 51
199.49314610896039
  0
ARC
  8
DETAIL
  6
CONTINUOUS
 62
     5
 10
0.0
 20
0.0000000000063665
 30
0.0
 40
353.49999999990462
 50
190.18639395375581
 51
194.8136060462389
  0
ARC
  8
DETAIL
  6
CONTINUOUS
 62
     5
 10
0.0
 20
0.0000000000063665
 30
0.0
 40
350.4999999999045
 50
190.1879893428048
 51
194.81201065721979
  0
ARC
  8
DETAIL
  6
CONTINUOUS
 62
     5
 10
0.0
 20
0.0000000000063665
 30
0.0
 40
318.00000000000409
 50
190.2072021699959
 51
194.79279783001351
  0
ARC
  8
DETAIL
  6
CONTINUOUS
 62
     5
 10
0.0
 20
0.0000000000063665
 30
0.0
 40
315.00000000000398
 50
190.20917553269749
 51
194.7908244672852
  0
ARC
  8
DETAIL
  6
CONTINUOUS
 62
     5
 10
0.0
 20
0.0000000000063665
 30
0.0
 40
219.00000000000281
 50
190.30086963128261
 51
194.69913036868451
  0
ARC
  8
DETAIL
  6
CONTINUOUS
 62
     5
 10
0.0
 20
0.0000000000063665
 30
0.0
 40
216.00000000000281
 50
190.3050484153726
 51
194.69495158462499
  0
ARC
  8
DETAIL
  6
CONTINUOUS
 62
     5
 10
0.0
 20
0.0000000000063665
 30
0.0
 40
129.99999999990169
 50
190.50685389095199
 51
194.49314610895419
  0
ARC
  8
DETAIL
  6
CONTINUOUS
 62
     5
 10
0.0
 20
0.000000000007276
 30
0.0
 40
353.49999999990462
 50
185.18639395376451
 51
189.8136060462455
  0
ARC
  8
DETAIL
  6
CONTINUOUS
 62
     5
 10
0.0
 20
0.000000000007276
 30
0.0
 40
350.49999999990462
 50
185.18798934281679
 51
189.81201065723269
  0
ARC
  8
DETAIL
  6
CONTINUOUS
 62
     5
 10
0.0
 20
0.000000000007276
 30
0.0
 40
318.00000000000409
 50
185.20720216999729
 51
189.79279783001991
  0
ARC
  8
DETAIL
  6
CONTINUOUS
 62
     5
 10
0.0
 20
0.000000000007276
 30
0.0
 40
315.00000000000409
 50
185.2091755326968
 51
189.79082446729061
  0
ARC
  8
DETAIL
  6
CONTINUOUS
 62
     5
 10
0.0
 20
0.000000000007276
 30
0.0
 40
219.0000000000029
 50
185.30086963129139
 51
189.69913036869181
  0
ARC
  8
DETAIL
  6
CONTINUOUS
 62
     5
 10
0.0
 20
0.000000000007276
 30
0.0
 40
216.00000000000281
 50
185.30504841538641
 51
189.69495158460711
  0
ARC
  8
DETAIL
  6
CONTINUOUS
 62
     5
 10
0.0
 20
0.000000000007276
 30
0.0
 40
129.99999999990169
 50
185.50685389096989
 51
189.49314610895399
  0
ARC
  8
DETAIL
  6
CONTINUOUS
 62
     5
 10
0.0000000000009095
 20
0.000000000007276
 30
0.0
 40
353.49999999990462
 50
180.1863939537686
 51
184.81360604624379
  0
ARC
  8
DETAIL
  6
CONTINUOUS
 62
     5
 10
0.0000000000009095
 20
0.000000000007276
 30
0.0
 40
350.49999999990462
 50
180.18798934279619
 51
184.81201065721439
  0
ARC
  8
DETAIL
  6
CONTINUOUS
 62
     5
 10
0.0000000000009095
 20
0.000000000007276
 30
0.0
 40
318.00000000000409
 50
180.20720217000269
 51
184.79279783001971
  0
ARC
  8
DETAIL
  6
CONTINUOUS
 62
     5
 10
0.0000000000009095
 20
0.000000000007276
 30
0.0
 40
315.00000000000409
 50
180.2091755326899
 51
184.7908244672804
  0
ARC
  8
DETAIL
  6
CONTINUOUS
 62
     5
 10
0.0000000000009095
 20
0.000000000007276
 30
0.0
 40
219.0000000000029
 50
180.30086963128599
 51
184.6991303686803
  0
ARC
  8
DETAIL
  6
CONTINUOUS
 62
     5
 10
0.0000000000009095
 20
0.000000000007276
 30
0.0
 40
216.00000000000281
 50
180.30504841537899
 51
184.6949515846149
  0
ARC
  8
DETAIL
  6
CONTINUOUS
 62
     5
 10
0.0000000000009095
 20
0.000000000007276
 30
0.0
 40
129.99999999990169
 50
180.50685389097379
 51
184.49314610897039
  0
ARC
  8
DETAIL
  6
CONTINUOUS
 62
     5
 10
0.0000000000009095
 20
0.0000000000077307
 30
0.0
 40
353.49999999990513
 50
175.18639395375621
 51
179.81360604625749
  0
ARC
  8
DETAIL
  6
CONTINUOUS
 62
     5
 10
0.0000000000009095
 20
0.0000000000077307
 30
0.0
 40
350.49999999990513
 50
175.1879893428117
 51
179.81201065722991
  0
ARC
  8
DETAIL
  6
CONTINUOUS
 62
     5
 10
0.0000000000009095
 20
0.0000000000077307
 30
0.0
 40
318.0000000000046
 50
175.20720217000601
 51
179.79279783002329
  0
ARC
  8
DETAIL
  6
CONTINUOUS
 62
     5
 10
0.0000000000009095
 20
0.0000000000077307
 30
0.0
 40
315.00000000000449
 50
175.20917553269351
 51
179.79082446728401
  0
ARC
  8
DETAIL
  6
CONTINUOUS
 62
     5
 10
0.0000000000009095
 20
0.0000000000077307
 30
0.0
 40
219.00000000000321
 50
175.30086963129361
 51
179.69913036868789
  0
ARC
  8
DETAIL
  6
CONTINUOUS
 62
     5
 10
0.0000000000009095
 20
0.0000000000077307
 30
0.0
 40
216.0000000000031
 50
175.3050484153851
 51
179.69495158462101
  0
ARC
  8
DETAIL
  6
CONTINUOUS
 62
     5
 10
0.0000000000009095
 20
0.0000000000077307
 30
0.0
 40
129.99999999990189
 50
175.50685389095119
 51
179.493146108974
  0
ARC
  8
DETAIL
  6
CONTINUOUS
 62
     5
 10
0.000000000001819
 20
0.0000000000086402
 30
0.0
 40
353.49999999990558
 50
170.1863939537545
 51
174.81360604623549
  0
ARC
  8
DETAIL
  6
CONTINUOUS
 62
     5
 10
0.000000000001819
 20
0.0000000000086402
 30
0.0
 40
350.49999999990553
 50
170.18798934279411
 51
174.81201065720941
  0
ARC
  8
DETAIL
  6
CONTINUOUS
 62
     5
 10
0.000000000001819
 20
0.0000000000086402
 30
0.0
 40
318.000000000005
 50
170.20720217000371
 51
174.79279783002849
  0
ARC
  8
DETAIL
  6
CONTINUOUS
 62
     5
 10
0.000000000001819
 20
0.0000000000086402
 30
0.0
 40
315.00000000000489
 50
170.2091755326858
 51
174.7908244672771
  0
ARC
  8
DETAIL
  6
CONTINUOUS
 62
     5
 10
0.000000000001819
 20
0.0000000000086402
 30
0.0
 40
219.00000000000341
 50
170.3008696312813
 51
174.6991303686828
  0
ARC
  8
DETAIL
  6
CONTINUOUS
 62
     5
 10
0.000000000001819
 20
0.0000000000086402
 30
0.0
 40
216.00000000000341
 50
170.3050484153668
 51
174.69495158461359
  0
ARC
  8
DETAIL
  6
CONTINUOUS
 62
     5
 10
0.000000000001819
 20
0.0000000000086402
 30
0.0
 40
129.999999999902
 50
170.50685389096969
 51
174.49314610897761
  0
ARC
  8
DETAIL
  6
CONTINUOUS
 62
     5
 10
0.0000000000027285
 20
0.0000000000086402
 30
0.0
 40
353.49999999990581
 50
165.1863939537611
 51
169.81360604624419
  0
ARC
  8
DETAIL
  6
CONTINUOUS
 62
     5
 10
0.0000000000027285
 20
0.0000000000086402
 30
0.0
 40
350.4999999999057
 50
165.18798934281361
 51
169.81201065722209
  0
ARC
  8
DETAIL
  6
CONTINUOUS
 62
     5
 10
0.0000000000027285
 20
0.0000000000086402
 30
0.0
 40
318.00000000000517
 50
165.20720216998649
 51
169.79279783002769
  0
ARC
  8
DETAIL
  6
CONTINUOUS
 62
     5
 10
0.0000000000027285
 20
0.0000000000086402
 30
0.0
 40
315.00000000000512
 50
165.20917553268211
 51
169.79082446730251
  0
ARC
  8
DETAIL
  6
CONTINUOUS
 62
     5
 10
0.0000000000027285
 20
0.0000000000086402
 30
0.0
 40
219.00000000000361
 50
165.30086963129139
 51
169.6991303686917
  0
ARC
  8
DETAIL
  6
CONTINUOUS
 62
     5
 10
0.0000000000027285
 20
0.0000000000086402
 30
0.0
 40
216.0000000000035
 50
165.30504841537501
 51
169.6949515846274
  0
ARC
  8
DETAIL
  6
CONTINUOUS
 62
     5
 10
0.0000000000027285
 20
0.0000000000086402
 30
0.0
 40
129.99999999990209
 50
165.506853890965
 51
169.4931461089684
  0
ARC
  8
DETAIL
  6
CONTINUOUS
 62
     5
 10
0.000000000003638
 20
0.0000000000090949
 30
0.0
 40
353.49999999990598
 50
160.18639395375831
 51
164.81360604626329
  0
ARC
  8
DETAIL
  6
CONTINUOUS
 62
     5
 10
0.000000000003638
 20
0.0000000000090949
 30
0.0
 40
350.49999999990592
 50
160.18798934279729
 51
164.8120106572128
  0
ARC
  8
DETAIL
  6
CONTINUOUS
 62
     5
 10
0.000000000003638
 20
0.0000000000090949
 30
0.0
 40
318.00000000000529
 50
160.20720217001059
 51
164.79279783002119
  0
ARC
  8
DETAIL
  6
CONTINUOUS
 62
     5
 10
0.000000000003638
 20
0.0000000000090949
 30
0.0
 40
315.00000000000529
 50
160.20917553269399
 51
164.79082446729939
  0
ARC
  8
DETAIL
  6
CONTINUOUS
 62
     5
 10
0.000000000003638
 20
0.0000000000090949
 30
0.0
 40
219.00000000000369
 50
160.30086963129841
 51
164.69913036866589
  0
ARC
  8
DETAIL
  6
CONTINUOUS
 62
     5
 10
0.000000000003638
 20
0.0000000000090949
 30
0.0
 40
216.00000000000361
 50
160.3050484153699
 51
164.69495158461081
  0
ARC
  8
DETAIL
  6
CONTINUOUS
 62
     5
 10
0.000000000003638
 20
0.0000000000090949
 30
0.0
 40
129.9999999999022
 50
160.50685389098089
 51
164.4931461089636
  0
ARC
  8
DETAIL
  6
CONTINUOUS
 62
     5
 10
0.0000000000045475
 20
0.0000000000081855
 30
0.0
 40
353.49999999990581
 50
155.1863939537327
 51
159.81360604622111
  0
ARC
  8
DETAIL
  6
CONTINUOUS
 62
     5
 10
0.0000000000045475
 20
0.0000000000081855
 30
0.0
 40
350.49999999990581
 50
155.18798934276339
 51
159.812010657228
  0
ARC
  8
DETAIL
  6
CONTINUOUS
 62
     5
 10
0.0000000000045475
 20
0.0000000000081855
 30
0.0
 40
318.00000000000517
 50
155.2072021699596
 51
159.79279783003341
  0
ARC
  8
DETAIL
  6
CONTINUOUS
 62
     5
 10
0.0000000000045475
 20
0.0000000000081855
 30
0.0
 40
315.00000000000517
 50
155.20917553268291
 51
159.79082446731661
  0
ARC
  8
DETAIL
  6
CONTINUOUS
 62
     5
 10
0.0000000000045475
 20
0.0000000000081855
 30
0.0
 40
219.00000000000361
 50
155.3008696312701
 51
159.6991303686759
  0
ARC
  8
DETAIL
  6
CONTINUOUS
 62
     5
 10
0.0000000000045475
 20
0.0000000000081855
 30
0.0
 40
216.00000000000361
 50
155.30504841536461
 51
159.694951584617
  0
ARC
  8
DETAIL
  6
CONTINUOUS
 62
     5
 10
0.0000000000045475
 20
0.0000000000081855
 30
0.0
 40
129.99999999990209
 50
155.50685389099061
 51
159.49314610897471
  0
ARC
  8
DETAIL
  6
CONTINUOUS
 62
     5
 10
0.0000000000045475
 20
0.0000000000077307
 30
0.0
 40
353.49999999990581
 50
150.18639395374771
 51
154.81360604625249
  0
ARC
  8
DETAIL
  6
CONTINUOUS
 62
     5
 10
0.0000000000045475
 20
0.0000000000077307
 30
0.0
 40
350.4999999999057
 50
150.18798934284001
 51
154.81201065726279
  0
ARC
  8
DETAIL
  6
CONTINUOUS
 62
     5
 10
0.0000000000045475
 20
0.0000000000077307
 30
0.0
 40
318.00000000000517
 50
150.2072021700142
 51
154.79279782999549
  0
ARC
  8
DETAIL
  6
CONTINUOUS
 62
     5
 10
0.0000000000045475
 20
0.0000000000077307
 30
0.0
 40
315.00000000000512
 50
150.20917553271639
 51
154.79082446729069
  0
ARC
  8
DETAIL
  6
CONTINUOUS
 62
     5
 10
0.0000000000045475
 20
0.0000000000077307
 30
0.0
 40
219.00000000000361
 50
150.30086963131319
 51
154.6991303686618
  0
ARC
  8
DETAIL
  6
CONTINUOUS
 62
     5
 10
0.0000000000045475
 20
0.0000000000077307
 30
0.0
 40
216.0000000000035
 50
150.3050484153531
 51
154.69495158462269
  0
ARC
  8
DETAIL
  6
CONTINUOUS
 62
     5
 10
0.0000000000045475
 20
0.0000000000077307
 30
0.0
 40
129.99999999990209
 50
150.50685389095901
 51
154.49314610896329
  0
ARC
  8
DETAIL
  6
CONTINUOUS
 62
     5
 10
0.000000000005457
 20
0.000000000007276
 30
0.0
 40
353.49999999990553
 50
145.18639395375601
 51
149.81360604627949
  0
ARC
  8
DETAIL
  6
CONTINUOUS
 62
     5
 10
0.000000000005457
 20
0.000000000007276
 30
0.0
 40
350.49999999990553
 50
145.1879893428175
 51
149.81201065726901
  0
ARC
  8
DETAIL
  6
CONTINUOUS
 62
     5
 10
0.000000000005457
 20
0.000000000007276
 30
0.0
 40
318.00000000000489
 50
145.20720216999209
 51
149.79279782999481
  0
ARC
  8
DETAIL
  6
CONTINUOUS
 62
     5
 10
0.000000000005457
 20
0.000000000007276
 30
0.0
 40
315.00000000000489
 50
145.2091755326567
 51
149.79082446727131
  0
ARC
  8
DETAIL
  6
CONTINUOUS
 62
     5
 10
0.000000000005457
 20
0.000000000007276
 30
0.0
 40
219.00000000000341
 50
145.30086963125271
 51
149.69913036869761
  0
ARC
  8
DETAIL
  6
CONTINUOUS
 62
     5
 10
0.000000000005457
 20
0.000000000007276
 30
0.0
 40
216.00000000000341
 50
145.30504841540341
 51
149.69495158462689
  0
ARC
  8
DETAIL
  6
CONTINUOUS
 62
     5
 10
0.000000000005457
 20
0.000000000007276
 30
0.0
 40
129.999999999902
 50
145.50685389099769
 51
149.49314610895789
  0
ARC
  8
DETAIL
  6
CONTINUOUS
 62
     5
 10
0.0000000000063665
 20
0.000000000007276
 30
0.0
 40
353.49999999990598
 50
140.186393953785
 51
144.81360604627349
  0
ARC
  8
DETAIL
  6
CONTINUOUS
 62
     5
 10
0.0000000000063665
 20
0.000000000007276
 30
0.0
 40
350.49999999990592
 50
140.18798934283191
 51
144.81201065721581
  0
ARC
  8
DETAIL
  6
CONTINUOUS
 62
     5
 10
0.0000000000063665
 20
0.000000000007276
 30
0.0
 40
318.00000000000529
 50
140.20720216996989
 51
144.79279783001411
  0
ARC
  8
DETAIL
  6
CONTINUOUS
 62
     5
 10
0.0000000000063665
 20
0.000000000007276
 30
0.0
 40
315.00000000000529
 50
140.20917553272241
 51
144.79082446727321
  0
ARC
  8
DETAIL
  6
CONTINUOUS
 62
     5
 10
0.0000000000063665
 20
0.000000000007276
 30
0.0
 40
219.00000000000369
 50
140.30086963129091
 51
144.69913036871191
  0
ARC
  8
DETAIL
  6
CONTINUOUS
 62
     5
 10
0.0000000000063665
 20
0.000000000007276
 30
0.0
 40
216.00000000000361
 50
140.30504841539889
 51
144.69495158461109
  0
ARC
  8
DETAIL
  6
CONTINUOUS
 62
     5
 10
0.0000000000063665
 20
0.000000000007276
 30
0.0
 40
129.9999999999022
 50
140.50685389094701
 51
144.49314610896761
  0
ARC
  8
DETAIL
  6
CONTINUOUS
 62
     5
 10
0.0000000000081855
 20
0.000000000007276
 30
0.0
 40
353.49999999990672
 50
134.81360604620241
 51
139.81360604625351
  0
ARC
  8
DETAIL
  6
CONTINUOUS
 62
     5
 10
0.0000000000081855
 20
0.000000000007276
 30
0.0
 40
350.49999999990661
 50
134.81201065716829
 51
139.8120106572226
  0
ARC
  8
DETAIL
  6
CONTINUOUS
 62
     5
 10
0.0000000000081855
 20
0.000000000007276
 30
0.0
 40
318.00000000000603
 50
135.20720216992589
 51
139.79279783001499
  0
ARC
  8
DETAIL
  6
CONTINUOUS
 62
     5
 10
0.0000000000081855
 20
0.000000000007276
 30
0.0
 40
315.00000000000603
 50
135.20917553268629
 51
139.79082446728941
  0
ARC
  8
DETAIL
  6
CONTINUOUS
 62
     5
 10
0.0000000000081855
 20
0.000000000007276
 30
0.0
 40
219.00000000000409
 50
135.3008696312283
 51
139.69913036869821
  0
ARC
  8
DETAIL
  6
CONTINUOUS
 62
     5
 10
0.0000000000081855
 20
0.000000000007276
 30
0.0
 40
216.00000000000409
 50
135.30504841535659
 51
139.69495158465159
  0
ARC
  8
DETAIL
  6
CONTINUOUS
 62
     5
 10
0.0000000000081855
 20
0.000000000007276
 30
0.0
 40
129.9999999999024
 50
135.50685389093019
 51
139.49314610899361
  0
ARC
  8
DETAIL
  6
CONTINUOUS
 62
     5
 10
0.0000000000090949
 20
0.000000000007276
 30
0.0
 40
318.00000000000642
 50
130.2072021699899
 51
134.79279783000041
  0
ARC
  8
DETAIL
  6
CONTINUOUS
 62
     5
 10
0.0000000000090949
 20
0.000000000007276
 30
0.0
 40
315.00000000000631
 50
130.20917553267361
 51
134.7908244673188
  0
ARC
  8
DETAIL
  6
CONTINUOUS
 62
     5
 10
0.0000000000090949
 20
0.000000000007276
 30
0.0
 40
219.00000000000441
 50
130.30086963130179
 51
134.69913036862889
  0
ARC
  8
DETAIL
  6
CONTINUOUS
 62
     5
 10
0.0000000000090949
 20
0.000000000007276
 30
0.0
 40
216.00000000000429
 50
130.3050484153828
 51
134.69495158466179
  0
ARC
  8
DETAIL
  6
CONTINUOUS
 62
     5
 10
0.0000000000090949
 20
0.000000000007276
 30
0.0
 40
129.9999999999026
 50
130.50685389098379
 51
134.4931461089912
  0
ARC
  8
DETAIL
  6
CONTINUOUS
 62
     5
 10
0.0000000000100044
 20
0.0000000000068212
 30
0.0
 40
353.49999999990752
 50
125.18639395372649
 51
129.81360604627079
  0
ARC
  8
DETAIL
  6
CONTINUOUS
 62
     5
 10
0.0000000000100044
 20
0.0000000000068212
 30
0.0
 40
350.4999999999074
 50
125.18798934284121
 51
129.81201065728371
  0
ARC
  8
DETAIL
  6
CONTINUOUS
 62
     5
 10
0.0000000000100044
 20
0.0000000000068212
 30
0.0
 40
318.00000000000671
 50
125.20720216998509
 51
129.7927978299908
  0
ARC
  8
DETAIL
  6
CONTINUOUS
 62
     5
 10
0.0000000000100044
 20
0.0000000000068212
 30
0.0
 40
315.00000000000671
 50
125.2091755327298
 51
129.7908244672424
  0
ARC
  8
DETAIL
  6
CONTINUOUS
 62
     5
 10
0.0000000000100044
 20
0.0000000000068212
 30
0.0
 40
219.0000000000046
 50
125.3008696312671
 51
129.69913036867439
  0
ARC
  8
DETAIL
  6
CONTINUOUS
 62
     5
 10
0.0000000000100044
 20
0.0000000000068212
 30
0.0
 40
216.00000000000449
 50
125.3050484153635
 51
129.69495158458
  0
ARC
  8
DETAIL
  6
CONTINUOUS
 62
     5
 10
0.0000000000100044
 20
0.0000000000068212
 30
0.0
 40
129.99999999990271
 50
125.5068538910373
 51
129.4931461090365
  0
ARC
  8
DETAIL
  6
CONTINUOUS
 62
     5
 10
0.0000000000109139
 20
0.0000000000063665
 30
0.0
 40
353.49999999990791
 50
120.1863939538143
 51
124.81360604624339
  0
ARC
  8
DETAIL
  6
CONTINUOUS
 62
     5
 10
0.0000000000109139
 20
0.0000000000063665
 30
0.0
 40
350.4999999999078
 50
120.1879893428469
 51
124.8120106572224
  0
ARC
  8
DETAIL
  6
CONTINUOUS
 62
     5
 10
0.0000000000109139
 20
0.0000000000063665
 30
0.0
 40
318.00000000000699
 50
120.2072021699381
 51
124.7927978300653
  0
ARC
  8
DETAIL
  6
CONTINUOUS
 62
     5
 10
0.0000000000109139
 20
0.0000000000063665
 30
0.0
 40
315.00000000000699
 50
120.20917553275071
 51
124.7908244673316
  0
ARC
  8
DETAIL
  6
CONTINUOUS
 62
     5
 10
0.0000000000109139
 20
0.0000000000063665
 30
0.0
 40
219.00000000000489
 50
120.3008696313255
 51
124.69913036868699
  0
ARC
  8
DETAIL
  6
CONTINUOUS
 62
     5
 10
0.0000000000109139
 20
0.0000000000063665
 30
0.0
 40
216.0000000000048
 50
120.3050484153181
 51
124.6949515846878
  0
ARC
  8
DETAIL
  6
CONTINUOUS
 62
     5
 10
0.0000000000109139
 20
0.0000000000063665
 30
0.0
 40
129.99999999990291
 50
120.5068538908902
 51
124.4931461089657
  0
ARC
  8
DETAIL
  6
CONTINUOUS
 62
     5
 10
0.0000000000109139
 20
0.000000000005457
 30
0.0
 40
353.49999999990791
 50
115.186393953714
 51
119.8136060462389
  0
ARC
  8
DETAIL
  6
CONTINUOUS
 62
     5
 10
0.0000000000109139
 20
0.000000000005457
 30
0.0
 40
350.4999999999078
 50
115.1879893427694
 51
119.81201065724299
  0
ARC
  8
DETAIL
  6
CONTINUOUS
 62
     5
 10
0.0000000000109139
 20
0.000000000005457
 30
0.0
 40
318.00000000000699
 50
115.2072021700311
 51
119.7927978300569
  0
ARC
  8
DETAIL
  6
CONTINUOUS
 62
     5
 10
0.0000000000109139
 20
0.000000000005457
 30
0.0
 40
315.00000000000699
 50
115.20917553271209
 51
119.7908244673505
  0
ARC
  8
DETAIL
  6
CONTINUOUS
 62
     5
 10
0.0000000000109139
 20
0.000000000005457
 30
0.0
 40
219.00000000000489
 50
115.3008696313351
 51
119.69913036862989
  0
ARC
  8
DETAIL
  6
CONTINUOUS
 62
     5
 10
0.0000000000109139
 20
0.000000000005457
 30
0.0
 40
216.0000000000048
 50
115.30504841533229
 51
119.6949515846452
  0
ARC
  8
DETAIL
  6
CONTINUOUS
 62
     5
 10
0.0000000000109139
 20
0.000000000005457
 30
0.0
 40
129.99999999990291
 50
115.5068538909435
 51
119.49314610898161
  0
ARC
  8
DETAIL
  6
CONTINUOUS
 62
     5
 10
0.0000000000118234
 20
0.0000000000050022
 30
0.0
 40
353.49999999990808
 50
110.1863939537469
 51
114.81360604623271
  0
ARC
  8
DETAIL
  6
CONTINUOUS
 62
     5
 10
0.0000000000118234
 20
0.0000000000050022
 30
0.0
 40
350.49999999990803
 50
110.1879893428307
 51
114.8120106572034
  0
ARC
  8
DETAIL
  6
CONTINUOUS
 62
     5
 10
0.0000000000118234
 20
0.0000000000050022
 30
0.0
 40
318.00000000000728
 50
110.20720217004821
 51
114.7927978300433
  0
ARC
  8
DETAIL
  6
CONTINUOUS
 62
     5
 10
0.0000000000118234
 20
0.0000000000050022
 30
0.0
 40
315.00000000000722
 50
110.20917553268779
 51
114.790824467257
  0
ARC
  8
DETAIL
  6
CONTINUOUS
 62
     5
 10
0.0000000000118234
 20
0.0000000000050022
 30
0.0
 40
219.000000000005
 50
110.3008696312933
 51
114.699130368696
  0
ARC
  8
DETAIL
  6
CONTINUOUS
 62
     5
 10
0.0000000000118234
 20
0.0000000000050022
 30
0.0
 40
216.00000000000489
 50
110.3050484153857
 51
114.69495158454529
  0
ARC
  8
DETAIL
  6
CONTINUOUS
 62
     5
 10
0.0000000000118234
 20
0.0000000000050022
 30
0.0
 40
129.999999999903
 50
110.5068538909988
 51
114.4931461090078
  0
ARC
  8
DETAIL
  6
CONTINUOUS
 62
     5
 10
0.0000000000136424
 20
0.000000000003638
 30
0.0
 40
353.49999999990871
 50
105.1863939537638
 51
109.8136060462148
  0
ARC
  8
DETAIL
  6
CONTINUOUS
 62
     5
 10
0.0000000000136424
 20
0.000000000003638
 30
0.0
 40
350.4999999999086
 50
105.1879893427875
 51
109.8120106572819
  0
ARC
  8
DETAIL
  6
CONTINUOUS
 62
     5
 10
0.0000000000136424
 20
0.000000000003638
 30
0.0
 40
318.00000000000779
 50
105.20720216995861
 51
109.7927978300481
  0
ARC
  8
DETAIL
  6
CONTINUOUS
 62
     5
 10
0.0000000000136424
 20
0.000000000003638
 30
0.0
 40
315.00000000000767
 50
105.2091755327002
 51
109.7908244673029
  0
ARC
  8
DETAIL
  6
CONTINUOUS
 62
     5
 10
0.0000000000136424
 20
0.000000000003638
 30
0.0
 40
219.00000000000529
 50
105.300869631334
 51
109.69913036862241
  0
ARC
  8
DETAIL
  6
CONTINUOUS
 62
     5
 10
0.0000000000136424
 20
0.000000000003638
 30
0.0
 40
216.00000000000529
 50
105.3050484153321
 51
109.69495158457229
  0
ARC
  8
DETAIL
  6
CONTINUOUS
 62
     5
 10
0.0000000000136424
 20
0.000000000003638
 30
0.0
 40
129.9999999999032
 50
105.5068538909856
 51
109.4931461089876
  0
ARC
  8
DETAIL
  6
CONTINUOUS
 62
     5
 10
0.0000000000136424
 20
0.0000000000031832
 30
0.0
 40
353.4999999999086
 50
100.186393953753
 51
104.81360604623799
  0
ARC
  8
DETAIL
  6
CONTINUOUS
 62
     5
 10
0.0000000000136424
 20
0.0000000000031832
 30
0.0
 40
350.49999999990848
 50
100.1879893428312
 51
104.8120106572437
  0
ARC
  8
DETAIL
  6
CONTINUOUS
 62
     5
 10
0.0000000000136424
 20
0.0000000000031832
 30
0.0
 40
318.00000000000767
 50
100.20720216997231
 51
104.7927978299857
  0
ARC
  8
DETAIL
  6
CONTINUOUS
 62
     5
 10
0.0000000000136424
 20
0.0000000000031832
 30
0.0
 40
315.00000000000762
 50
100.2091755326714
 51
104.79082446728761
  0
ARC
  8
DETAIL
  6
CONTINUOUS
 62
     5
 10
0.0000000000136424
 20
0.0000000000031832
 30
0.0
 40
219.00000000000529
 50
100.3008696312823
 51
104.699130368735
  0
ARC
  8
DETAIL
  6
CONTINUOUS
 62
     5
 10
0.0000000000136424
 20
0.0000000000031832
 30
0.0
 40
216.0000000000052
 50
100.30504841534611
 51
104.69495158467799
  0
ARC
  8
DETAIL
  6
CONTINUOUS
 62
     5
 10
0.0000000000136424
 20
0.0000000000031832
 30
0.0
 40
129.99999999990311
 50
100.50685389100509
 51
104.49314610895421
  0
ARC
  8
DETAIL
  6
CONTINUOUS
 62
     5
 10
0.0000000000145519
 20
0.000000000001819
 30
0.0
 40
353.49999999990882
 50
95.186393953816804
 51
99.813606046248381
  0
ARC
  8
DETAIL
  6
CONTINUOUS
 62
     5
 10
0.0000000000145519
 20
0.000000000001819
 30
0.0
 40
350.49999999990871
 50
95.187989342869074
 51
99.812010657179798
  0
ARC
  8
DETAIL
  6
CONTINUOUS
 62
     5
 10
0.0000000000145519
 20
0.000000000001819
 30
0.0
 40
318.0000000000079
 50
95.207202170049655
 51
99.792797830019865
  0
ARC
  8
DETAIL
  6
CONTINUOUS
 62
     5
 10
0.0000000000145519
 20
0.000000000001819
 30
0.0
 40
315.00000000000779
 50
95.209175532696747
 51
99.790824467211266
  0
ARC
  8
DETAIL
  6
CONTINUOUS
 62
     5
 10
0.0000000000145519
 20
0.000000000001819
 30
0.0
 40
219.00000000000551
 50
95.300869631265229
 51
99.699130368691868
  0
ARC
  8
DETAIL
  6
CONTINUOUS
 62
     5
 10
0.0000000000145519
 20
0.000000000001819
 30
0.0
 40
216.0000000000054
 50
95.305048415359821
 51
99.694951584659933
  0
ARC
  8
DETAIL
  6
CONTINUOUS
 62
     5
 10
0.0000000000145519
 20
0.000000000001819
 30
0.0
 40
129.9999999999032
 50
95.506853891022345
 51
99.493146108927462
  0
ARC
  8
DETAIL
  6
CONTINUOUS
 62
     5
 10
0.0000000000145519
 20
0.0000000000009095
 30
0.0
 40
353.49999999990911
 50
90.18639395371649
 51
94.813606046191481
  0
ARC
  8
DETAIL
  6
CONTINUOUS
 62
     5
 10
0.0000000000145519
 20
0.0000000000009095
 30
0.0
 40
350.49999999990888
 50
90.187989342822235
 51
94.812010657214444
  0
ARC
  8
DETAIL
  6
CONTINUOUS
 62
     5
 10
0.0000000000145519
 20
0.0000000000009095
 30
0.0
 40
318.00000000000807
 50
90.207202170028779
 51
94.792797830045927
  0
ARC
  8
DETAIL
  6
CONTINUOUS
 62
     5
 10
0.0000000000145519
 20
0.0000000000009095
 30
0.0
 40
315.00000000000807
 50
90.209175532637815
 51
94.790824467358789
  0
ARC
  8
DETAIL
  6
CONTINUOUS
 62
     5
 10
0.0000000000145519
 20
0.0000000000009095
 30
0.0
 40
219.0000000000056
 50
90.300869631312082
 51
94.69913036873254
  0
ARC
  8
DETAIL
  6
CONTINUOUS
 62
     5
 10
0.0000000000145519
 20
0.0000000000009095
 30
0.0
 40
216.00000000000551
 50
90.305048415431102
 51
94.694951584614898
  0
ARC
  8
DETAIL
  6
CONTINUOUS
 62
     5
 10
0.0000000000145519
 20
0.0000000000009095
 30
0.0
 40
129.99999999990331
 50
90.506853890999949
 51
94.493146108918609
  0
ARC
  8
DETAIL
  6
CONTINUOUS
 62
     5
 10
0.0000000000154614
 20
-0.0000000000004547
 30
0.0
 40
353.49999999990939
 50
85.186393953808519
 51
89.813606046179302
  0
ARC
  8
DETAIL
  6
CONTINUOUS
 62
     5
 10
0.0000000000154614
 20
-0.0000000000004547
 30
0.0
 40
350.49999999990928
 50
85.187989342785556
 51
89.812010657281988
  0
ARC
  8
DETAIL
  6
CONTINUOUS
 62
     5
 10
0.0000000000154614
 20
-0.0000000000004547
 30
0.0
 40
318.00000000000853
 50
85.207202170058693
 51
89.792797829971221
  0
ARC
  8
DETAIL
  6
CONTINUOUS
 62
     5
 10
0.0000000000154614
 20
-0.0000000000004547
 30
0.0
 40
315.00000000000841
 50
85.209175532641211
 51
89.790824467362199
  0
ARC
  8
DETAIL
  6
CONTINUOUS
 62
     5
 10
0.0000000000154614
 20
-0.0000000000004547
 30
0.0
 40
219.0000000000058
 50
85.300869631267474
 51
89.699130368687918
  0
ARC
  8
DETAIL
  6
CONTINUOUS
 62
     5
 10
0.0000000000154614
 20
-0.0000000000004547
 30
0.0
 40
216.00000000000571
 50
85.305048415385102
 51
89.694951584568912
  0
ARC
  8
DETAIL
  6
CONTINUOUS
 62
     5
 10
0.0000000000154614
 20
-0.0000000000004547
 30
0.0
 40
129.99999999990351
 50
85.506853890976871
 51
89.493146108895843
  0
ARC
  8
DETAIL
  6
CONTINUOUS
 62
     5
 10
0.0000000000163709
 20
-0.000000000001819
 30
0.0
 40
353.49999999990979
 50
80.186393953751619
 51
84.813606046183182
  0
ARC
  8
DETAIL
  6
CONTINUOUS
 62
     5
 10
0.0000000000163709
 20
-0.000000000001819
 30
0.0
 40
350.49999999990968
 50
80.187989342820217
 51
84.812010657235575
  0
ARC
  8
DETAIL
  6
CONTINUOUS
 62
     5
 10
0.0000000000163709
 20
-0.000000000001819
 30
0.0
 40
318.00000000000881
 50
80.207202169980135
 51
84.792797829950345
  0
ARC
  8
DETAIL
  6
CONTINUOUS
 62
     5
 10
0.0000000000163709
 20
-0.000000000001819
 30
0.0
 40
315.00000000000881
 50
80.209175532682991
 51
84.790824467303253
  0
ARC
  8
DETAIL
  6
CONTINUOUS
 62
     5
 10
0.0000000000163709
 20
-0.000000000001819
 30
0.0
 40
219.00000000000611
 50
80.300869631308132
 51
84.699130368630094
  0
ARC
  8
DETAIL
  6
CONTINUOUS
 62
     5
 10
0.0000000000163709
 20
-0.000000000001819
 30
0.0
 40
216.000000000006
 50
80.305048415339996
 51
84.694951584640165
  0
ARC
  8
DETAIL
  6
CONTINUOUS
 62
     5
 10
0.0000000000163709
 20
-0.000000000001819
 30
0.0
 40
129.99999999990359
 50
80.506853890966852
 51
84.493146108977669
  0
ARC
  8
DETAIL
  6
CONTINUOUS
 62
     5
 10
0.0000000000163709
 20
-0.0000000000031832
 30
0.0
 40
353.49999999991007
 50
75.186393953761979
 51
79.813606046247031
  0
ARC
  8
DETAIL
  6
CONTINUOUS
 62
     5
 10
0.0000000000163709
 20
-0.0000000000031832
 30
0.0
 40
350.49999999991002
 50
75.187989342864
 51
79.812010657274612
  0
ARC
  8
DETAIL
  6
CONTINUOUS
 62
     5
 10
0.0000000000163709
 20
-0.0000000000031832
 30
0.0
 40
318.00000000000898
 50
75.20720217001427
 51
79.792797830027681
  0
ARC
  8
DETAIL
  6
CONTINUOUS
 62
     5
 10
0.0000000000163709
 20
-0.0000000000031832
 30
0.0
 40
315.00000000000898
 50
75.209175532712393
 51
79.790824467328605
  0
ARC
  8
DETAIL
  6
CONTINUOUS
 62
     5
 10
0.0000000000163709
 20
-0.0000000000031832
 30
0.0
 40
219.0000000000062
 50
75.300869631264987
 51
79.699130368717761
  0
ARC
  8
DETAIL
  6
CONTINUOUS
 62
     5
 10
0.0000000000163709
 20
-0.0000000000031832
 30
0.0
 40
216.00000000000611
 50
75.305048415321991
 51
79.694951584653865
  0
ARC
  8
DETAIL
  6
CONTINUOUS
 62
     5
 10
0.0000000000163709
 20
-0.0000000000031832
 30
0.0
 40
129.99999999990371
 50
75.506853890938203
 51
79.493146108994949
  0
ARC
  8
DETAIL
  6
CONTINUOUS
 62
     5
 10
0.0000000000154614
 20
-0.0000000000045475
 30
0.0
 40
353.4999999999103
 50
70.186393953785227
 51
74.813606046236231
  0
ARC
  8
DETAIL
  6
CONTINUOUS
 62
     5
 10
0.0000000000154614
 20
-0.0000000000045475
 30
0.0
 40
350.49999999991019
 50
70.187989342822036
 51
74.812010657212511
  0
ARC
  8
DETAIL
  6
CONTINUOUS
 62
     5
 10
0.0000000000154614
 20
-0.0000000000045475
 30
0.0
 40
318.00000000000932
 50
70.207202170055879
 51
74.79279783004813
  0
ARC
  8
DETAIL
  6
CONTINUOUS
 62
     5
 10
0.0000000000154614
 20
-0.0000000000045475
 30
0.0
 40
315.00000000000921
 50
70.209175532697074
 51
74.790824467299799
  0
ARC
  8
DETAIL
  6
CONTINUOUS
 62
     5
 10
0.0000000000154614
 20
-0.0000000000045475
 30
0.0
 40
219.00000000000639
 50
70.300869631266821
 51
74.699130368666047
  0
ARC
  8
DETAIL
  6
CONTINUOUS
 62
     5
 10
0.0000000000154614
 20
-0.0000000000045475
 30
0.0
 40
216.00000000000631
 50
70.305048415317117
 51
74.694951584667891
  0
ARC
  8
DETAIL
  6
CONTINUOUS
 62
     5
 10
0.0000000000154614
 20
-0.0000000000045475
 30
0.0
 40
129.99999999990379
 50
70.506853890901013
 51
74.493146109014361
  0
ARC
  8
DETAIL
  6
CONTINUOUS
 62
     5
 10
0.0000000000154614
 20
-0.0000000000059117
 30
0.0
 40
353.4999999999107
 50
65.186393953767322
 51
69.813606046253156
  0
ARC
  8
DETAIL
  6
CONTINUOUS
 62
     5
 10
0.0000000000154614
 20
-0.0000000000059117
 30
0.0
 40
350.49999999991059
 50
65.187989342796655
 51
69.812010657274314
  0
ARC
  8
DETAIL
  6
CONTINUOUS
 62
     5
 10
0.0000000000154614
 20
-0.0000000000059117
 30
0.0
 40
318.00000000000961
 50
65.207202169956673
 51
69.792797830056799
  0
ARC
  8
DETAIL
  6
CONTINUOUS
 62
     5
 10
0.0000000000154614
 20
-0.0000000000059117
 30
0.0
 40
315.00000000000949
 50
65.209175532729546
 51
69.790824467312191
  0
ARC
  8
DETAIL
  6
CONTINUOUS
 62
     5
 10
0.0000000000154614
 20
-0.0000000000059117
 30
0.0
 40
219.00000000000659
 50
65.300869631303968
 51
69.699130368706719
  0
ARC
  8
DETAIL
  6
CONTINUOUS
 62
     5
 10
0.0000000000154614
 20
-0.0000000000059117
 30
0.0
 40
216.00000000000651
 50
65.305048415339982
 51
69.694951584614287
  0
ARC
  8
DETAIL
  6
CONTINUOUS
 62
     5
 10
0.0000000000154614
 20
-0.0000000000059117
 30
0.0
 40
129.99999999990391
 50
65.506853890992232
 51
69.493146109001231
  0
ARC
  8
DETAIL
  6
CONTINUOUS
 62
     5
 10
0.0000000000163709
 20
-0.0000000000077307
 30
0.0
 40
353.49999999991149
 50
60.186393953761069
 51
64.813606046285955
  0
ARC
  8
DETAIL
  6
CONTINUOUS
 62
     5
 10
0.0000000000163709
 20
-0.0000000000077307
 30
0.0
 40
350.49999999991138
 50
60.187989342757049
 51
64.812010657230601
  0
ARC
  8
DETAIL
  6
CONTINUOUS
 62
     5
 10
0.0000000000163709
 20
-0.0000000000077307
 30
0.0
 40
318.00000000001029
 50
60.207202169957149
 51
64.79279783007685
  0
ARC
  8
DETAIL
  6
CONTINUOUS
 62
     5
 10
0.0000000000163709
 20
-0.0000000000077307
 30
0.0
 40
315.00000000001017
 50
60.209175532649503
 51
64.790824467287933
  0
ARC
  8
DETAIL
  6
CONTINUOUS
 62
     5
 10
0.0000000000163709
 20
-0.0000000000077307
 30
0.0
 40
219.00000000000711
 50
60.300869631257768
 51
64.699130368664896
  0
ARC
  8
DETAIL
  6
CONTINUOUS
 62
     5
 10
0.0000000000163709
 20
-0.0000000000077307
 30
0.0
 40
216.00000000000699
 50
60.305048415354818
 51
64.694951584667706
  0
ARC
  8
DETAIL
  6
CONTINUOUS
 62
     5
 10
0.0000000000163709
 20
-0.0000000000077307
 30
0.0
 40
129.99999999990419
 50
60.506853890900487
 51
64.493146109056553
  0
ARC
  8
DETAIL
  6
CONTINUOUS
 62
     5
 10
0.0000000000154614
 20
-0.0000000000095497
 30
0.0
 40
353.49999999991189
 50
55.186393953756557
 51
59.813606046185718
  0
ARC
  8
DETAIL
  6
CONTINUOUS
 62
     5
 10
0.0000000000154614
 20
-0.0000000000095497
 30
0.0
 40
350.49999999991178
 50
55.187989342777627
 51
59.812010657267173
  0
ARC
  8
DETAIL
  6
CONTINUOUS
 62
     5
 10
0.0000000000154614
 20
-0.0000000000095497
 30
0.0
 40
318.00000000001069
 50
55.207202170052341
 51
59.792797830061943
  0
ARC
  8
DETAIL
  6
CONTINUOUS
 62
     5
 10
0.0000000000154614
 20
-0.0000000000095497
 30
0.0
 40
315.00000000001057
 50
55.209175532668397
 51
59.79082446724928
  0
ARC
  8
DETAIL
  6
CONTINUOUS
 62
     5
 10
0.0000000000154614
 20
-0.0000000000095497
 30
0.0
 40
219.00000000000739
 50
55.300869631313041
 51
59.699130368659532
  0
ARC
  8
DETAIL
  6
CONTINUOUS
 62
     5
 10
0.0000000000154614
 20
-0.0000000000095497
 30
0.0
 40
216.0000000000073
 50
55.30504841531215
 51
59.694951584681952
  0
ARC
  8
DETAIL
  6
CONTINUOUS
 62
     5
 10
0.0000000000154614
 20
-0.0000000000095497
 30
0.0
 40
129.99999999990439
 50
55.506853890902853
 51
59.493146108995582
  0
ARC
  8
DETAIL
  6
CONTINUOUS
 62
     5
 10
0.0000000000154614
 20
-0.0000000000113687
 30
0.0
 40
353.49999999991229
 50
50.186393953729258
 51
54.813606046273513
  0
ARC
  8
DETAIL
  6
CONTINUOUS
 62
     5
 10
0.0000000000154614
 20
-0.0000000000113687
 30
0.0
 40
350.49999999991218
 50
50.187989342834172
 51
54.812010657276282
  0
ARC
  8
DETAIL
  6
CONTINUOUS
 62
     5
 10
0.0000000000154614
 20
-0.0000000000113687
 30
0.0
 40
318.00000000001108
 50
50.207202170009253
 51
54.792797830014948
  0
ARC
  8
DETAIL
  6
CONTINUOUS
 62
     5
 10
0.0000000000154614
 20
-0.0000000000113687
 30
0.0
 40
315.00000000001103
 50
50.209175532757591
 51
54.790824467270262
  0
ARC
  8
DETAIL
  6
CONTINUOUS
 62
     5
 10
0.0000000000154614
 20
-0.0000000000113687
 30
0.0
 40
219.00000000000759
 50
50.30086963130907
 51
54.699130368732916
  0
ARC
  8
DETAIL
  6
CONTINUOUS
 62
     5
 10
0.0000000000154614
 20
-0.0000000000113687
 30
0.0
 40
216.0000000000075
 50
50.305048415419968
 51
54.694951584636513
  0
ARC
  8
DETAIL
  6
CONTINUOUS
 62
     5
 10
0.0000000000154614
 20
-0.0000000000113687
 30
0.0
 40
129.9999999999045
 50
50.506853890963498
 51
54.493146108962662
  0
ARC
  8
DETAIL
  6
CONTINUOUS
 62
     5
 10
0.0000000000145519
 20
-0.0000000000127329
 30
0.0
 40
353.49999999991257
 50
44.813606046201819
 51
49.813606046255792
  0
ARC
  8
DETAIL
  6
CONTINUOUS
 62
     5
 10
0.0000000000145519
 20
-0.0000000000127329
 30
0.0
 40
350.49999999991252
 50
44.812010657150488
 51
49.812010657201562
  0
ARC
  8
DETAIL
  6
CONTINUOUS
 62
     5
 10
0.0000000000145519
 20
-0.0000000000127329
 30
0.0
 40
318.00000000001131
 50
45.207202170018022
 51
49.792797830010123
  0
ARC
  8
DETAIL
  6
CONTINUOUS
 62
     5
 10
0.0000000000145519
 20
-0.0000000000127329
 30
0.0
 40
315.0000000000112
 50
45.209175532681179
 51
49.790824467326367
  0
ARC
  8
DETAIL
  6
CONTINUOUS
 62
     5
 10
0.0000000000145519
 20
-0.0000000000127329
 30
0.0
 40
219.00000000000779
 50
45.300869631260511
 51
49.699130368698192
  0
ARC
  8
DETAIL
  6
CONTINUOUS
 62
     5
 10
0.0000000000145519
 20
-0.0000000000127329
 30
0.0
 40
216.0000000000077
 50
45.305048415338192
 51
49.69495158461725
  0
ARC
  8
DETAIL
  6
CONTINUOUS
 62
     5
 10
0.0000000000145519
 20
-0.0000000000127329
 30
0.0
 40
129.99999999990459
 50
45.506853890990392
 51
49.493146109016173
  0
ARC
  8
DETAIL
  6
CONTINUOUS
 62
     5
 10
0.0000000000136424
 20
-0.0000000000140972
 30
0.0
 40
318.00000000001108
 50
40.207202170024807
 51
44.7927978300741
  0
ARC
  8
DETAIL
  6
CONTINUOUS
 62
     5
 10
0.0000000000136424
 20
-0.0000000000140972
 30
0.0
 40
315.00000000001103
 50
40.209175532710631
 51
44.790824467313641
  0
ARC
  8
DETAIL
  6
CONTINUOUS
 62
     5
 10
0.0000000000136424
 20
-0.0000000000140972
 30
0.0
 40
219.00000000000759
 50
40.300869631301808
 51
44.699130368661478
  0
ARC
  8
DETAIL
  6
CONTINUOUS
 62
     5
 10
0.0000000000136424
 20
-0.0000000000140972
 30
0.0
 40
216.0000000000075
 50
40.305048415348402
 51
44.694951584643377
  0
ARC
  8
DETAIL
  6
CONTINUOUS
 62
     5
 10
0.0000000000136424
 20
-0.0000000000140972
 30
0.0
 40
129.9999999999045
 50
40.506853890988431
 51
44.493146108940813
  0
ARC
  8
DETAIL
  6
CONTINUOUS
 62
     5
 10
0.0000000000127329
 20
-0.0000000000150067
 30
0.0
 40
353.49999999991218
 50
35.186393953726487
 51
39.813606046214971
  0
ARC
  8
DETAIL
  6
CONTINUOUS
 62
     5
 10
0.0000000000127329
 20
-0.0000000000150067
 30
0.0
 40
350.49999999991218
 50
35.187989342784263
 51
39.81201065718917
  0
ARC
  8
DETAIL
  6
CONTINUOUS
 62
     5
 10
0.0000000000127329
 20
-0.0000000000150067
 30
0.0
 40
318.00000000001103
 50
35.207202169985948
 51
39.792797830030047
  0
ARC
  8
DETAIL
  6
CONTINUOUS
 62
     5
 10
0.0000000000127329
 20
-0.0000000000150067
 30
0.0
 40
315.00000000001091
 50
35.209175532726803
 51
39.790824467262937
  0
ARC
  8
DETAIL
  6
CONTINUOUS
 62
     5
 10
0.0000000000127329
 20
-0.0000000000150067
 30
0.0
 40
219.00000000000759
 50
35.300869631288101
 51
39.69913036866982
  0
ARC
  8
DETAIL
  6
CONTINUOUS
 62
     5
 10
0.0000000000127329
 20
-0.0000000000150067
 30
0.0
 40
216.0000000000075
 50
35.305048415365292
 51
39.694951584601093
  0
ARC
  8
DETAIL
  6
CONTINUOUS
 62
     5
 10
0.0000000000127329
 20
-0.0000000000150067
 30
0.0
 40
129.9999999999045
 50
35.506853890962333
 51
39.493146108942213
  0
ARC
  8
DETAIL
  6
CONTINUOUS
 62
     5
 10
0.0000000000109139
 20
-0.0000000000159162
 30
0.0
 40
353.4999999999124
 50
30.186393953720511
 51
34.813606046244011
  0
ARC
  8
DETAIL
  6
CONTINUOUS
 62
     5
 10
0.0000000000109139
 20
-0.0000000000159162
 30
0.0
 40
350.49999999991229
 50
30.187989342789749
 51
34.812010657259421
  0
ARC
  8
DETAIL
  6
CONTINUOUS
 62
     5
 10
0.0000000000109139
 20
-0.0000000000159162
 30
0.0
 40
318.00000000001108
 50
30.207202170005171
 51
34.792797830007963
  0
ARC
  8
DETAIL
  6
CONTINUOUS
 62
     5
 10
0.0000000000109139
 20
-0.0000000000159162
 30
0.0
 40
315.00000000001103
 50
30.209175532728661
 51
34.790824467308447
  0
ARC
  8
DETAIL
  6
CONTINUOUS
 62
     5
 10
0.0000000000109139
 20
-0.0000000000159162
 30
0.0
 40
219.0000000000077
 50
30.300869631264021
 51
34.699130368670822
  0
ARC
  8
DETAIL
  6
CONTINUOUS
 62
     5
 10
0.0000000000109139
 20
-0.0000000000159162
 30
0.0
 40
216.00000000000759
 50
30.30504841537315
 51
34.694951584596588
  0
ARC
  8
DETAIL
  6
CONTINUOUS
 62
     5
 10
0.0000000000109139
 20
-0.0000000000159162
 30
0.0
 40
129.9999999999045
 50
30.506853890948971
 51
34.493146108981747
  0
ARC
  8
DETAIL
  6
CONTINUOUS
 62
     5
 10
0.0000000000100044
 20
-0.0000000000168257
 30
0.0
 40
353.49999999991257
 50
25.18639395379417
 51
29.813606046252261
  0
ARC
  8
DETAIL
  6
CONTINUOUS
 62
     5
 10
0.0000000000100044
 20
-0.0000000000168257
 30
0.0
 40
350.49999999991252
 50
25.187989342830392
 51
29.812010657206638
  0
ARC
  8
DETAIL
  6
CONTINUOUS
 62
     5
 10
0.0000000000100044
 20
-0.0000000000168257
 30
0.0
 40
318.00000000001143
 50
25.20720217000456
 51
29.792797830020781
  0
ARC
  8
DETAIL
  6
CONTINUOUS
 62
     5
 10
0.0000000000100044
 20
-0.0000000000168257
 30
0.0
 40
315.00000000001131
 50
25.209175532686391
 51
29.790824467283599
  0
ARC
  8
DETAIL
  6
CONTINUOUS
 62
     5
 10
0.0000000000100044
 20
-0.0000000000168257
 30
0.0
 40
219.00000000000779
 50
25.30086963127993
 51
29.699130368686792
  0
ARC
  8
DETAIL
  6
CONTINUOUS
 62
     5
 10
0.0000000000100044
 20
-0.0000000000168257
 30
0.0
 40
216.0000000000077
 50
25.305048415377279
 51
29.694951584646851
  0
ARC
  8
DETAIL
  6
CONTINUOUS
 62
     5
 10
0.0000000000100044
 20
-0.0000000000168257
 30
0.0
 40
129.99999999990459
 50
25.506853890966759
 51
29.49314610894767
  0
ARC
  8
DETAIL
  6
CONTINUOUS
 62
     5
 10
0.0000000000081855
 20
-0.0000000000181899
 30
0.0
 40
353.49999999991297
 50
20.186393953778921
 51
24.813606046267271
  0
ARC
  8
DETAIL
  6
CONTINUOUS
 62
     5
 10
0.0000000000081855
 20
-0.0000000000181899
 30
0.0
 40
350.49999999991292
 50
20.187989342807221
 51
24.81201065723668
  0
ARC
  8
DETAIL
  6
CONTINUOUS
 62
     5
 10
0.0000000000081855
 20
-0.0000000000181899
 30
0.0
 40
318.00000000001171
 50
20.207202170001821
 51
24.792797830040389
  0
ARC
  8
DETAIL
  6
CONTINUOUS
 62
     5
 10
0.0000000000081855
 20
-0.0000000000181899
 30
0.0
 40
315.00000000001148
 50
20.209175532683432
 51
24.790824467293771
  0
ARC
  8
DETAIL
  6
CONTINUOUS
 62
     5
 10
0.0000000000081855
 20
-0.0000000000181899
 30
0.0
 40
219.00000000000799
 50
20.300869631288911
 51
24.699130368729929
  0
ARC
  8
DETAIL
  6
CONTINUOUS
 62
     5
 10
0.0000000000081855
 20
-0.0000000000181899
 30
0.0
 40
216.0000000000079
 50
20.305048415382998
 51
24.694951584635429
  0
ARC
  8
DETAIL
  6
CONTINUOUS
 62
     5
 10
0.0000000000081855
 20
-0.0000000000181899
 30
0.0
 40
129.99999999990479
 50
20.506853890966411
 51
24.493146108962801
  0
ARC
  8
DETAIL
  6
CONTINUOUS
 62
     5
 10
0.000000000007276
 20
-0.0000000000195541
 30
0.0
 40
353.49999999991331
 50
15.18639395376338
 51
19.813606046241691
  0
ARC
  8
DETAIL
  6
CONTINUOUS
 62
     5
 10
0.000000000007276
 20
-0.0000000000195541
 30
0.0
 40
350.49999999991309
 50
15.18798934281069
 51
19.812010657202698
  0
ARC
  8
DETAIL
  6
CONTINUOUS
 62
     5
 10
0.000000000007276
 20
-0.0000000000195541
 30
0.0
 40
318.00000000001188
 50
15.20720216997884
 51
19.792797830024611
  0
ARC
  8
DETAIL
  6
CONTINUOUS
 62
     5
 10
0.000000000007276
 20
-0.0000000000195541
 30
0.0
 40
315.00000000001182
 50
15.2091755327006
 51
19.79082446730602
  0
ARC
  8
DETAIL
  6
CONTINUOUS
 62
     5
 10
0.000000000007276
 20
-0.0000000000195541
 30
0.0
 40
219.00000000000821
 50
15.300869631283289
 51
19.699130368701631
  0
ARC
  8
DETAIL
  6
CONTINUOUS
 62
     5
 10
0.000000000007276
 20
-0.0000000000195541
 30
0.0
 40
216.0000000000081
 50
15.30504841538921
 51
19.69495158463009
  0
ARC
  8
DETAIL
  6
CONTINUOUS
 62
     5
 10
0.000000000007276
 20
-0.0000000000195541
 30
0.0
 40
129.9999999999049
 50
15.506853890956
 51
19.493146108960438
  0
ARC
  8
DETAIL
  6
CONTINUOUS
 62
     5
 10
0.000000000005457
 20
-0.0000000000200089
 30
0.0
 40
353.4999999999136
 50
10.186393953755839
 51
14.81360604623891
  0
ARC
  8
DETAIL
  6
CONTINUOUS
 62
     5
 10
0.000000000005457
 20
-0.0000000000200089
 30
0.0
 40
350.49999999991348
 50
10.18798934280478
 51
14.81201065721983
  0
ARC
  8
DETAIL
  6
CONTINUOUS
 62
     5
 10
0.000000000005457
 20
-0.0000000000200089
 30
0.0
 40
318.00000000001222
 50
10.20720216999589
 51
14.79279783004054
  0
ARC
  8
DETAIL
  6
CONTINUOUS
 62
     5
 10
0.000000000005457
 20
-0.0000000000200089
 30
0.0
 40
315.00000000001211
 50
10.2091755326975
 51
14.79082446728515
  0
ARC
  8
DETAIL
  6
CONTINUOUS
 62
     5
 10
0.000000000005457
 20
-0.0000000000200089
 30
0.0
 40
219.00000000000841
 50
10.30086963128257
 51
14.699130368684459
  0
ARC
  8
DETAIL
  6
CONTINUOUS
 62
     5
 10
0.000000000005457
 20
-0.0000000000200089
 30
0.0
 40
216.0000000000083
 50
10.305048415372569
 51
14.69495158462499
  0
ARC
  8
DETAIL
  6
CONTINUOUS
 62
     5
 10
0.000000000005457
 20
-0.0000000000200089
 30
0.0
 40
129.99999999990499
 50
10.50685389097894
 51
14.493146108984
  0
ARC
  8
DETAIL
  6
CONTINUOUS
 62
     5
 10
0.000000000003638
 20
-0.0000000000209184
 30
0.0
 40
353.49999999991388
 50
5.1863939537645178
 51
9.8136060462455088
  0
ARC
  8
DETAIL
  6
CONTINUOUS
 62
     5
 10
0.000000000003638
 20
-0.0000000000209184
 30
0.0
 40
350.49999999991383
 50
5.1879893428167696
 51
9.8120106572326637
  0
ARC
  8
DETAIL
  6
CONTINUOUS
 62
     5
 10
0.000000000003638
 20
-0.0000000000209184
 30
0.0
 40
318.00000000001251
 50
5.2072021699973172
 51
9.7927978300198681
  0
ARC
  8
DETAIL
  6
CONTINUOUS
 62
     5
 10
0.000000000003638
 20
-0.0000000000209184
 30
0.0
 40
315.00000000001239
 50
5.2091755326967846
 51
9.7908244672906477
  0
ARC
  8
DETAIL
  6
CONTINUOUS
 62
     5
 10
0.000000000003638
 20
-0.0000000000209184
 30
0.0
 40
219.00000000000861
 50
5.3008696312914401
 51
9.6991303686917973
  0
ARC
  8
DETAIL
  6
CONTINUOUS
 62
     5
 10
0.000000000003638
 20
-0.0000000000209184
 30
0.0
 40
216.0000000000085
 50
5.3050484153864437
 51
9.6949515846331646
  0
ARC
  8
DETAIL
  6
CONTINUOUS
 62
     5
 10
0.000000000003638
 20
-0.0000000000209184
 30
0.0
 40
129.9999999999051
 50
5.5068538909699614
 51
9.4931461089799356
  0
ARC
  8
DETAIL
  6
CONTINUOUS
 62
     5
 10
0.000000000001819
 20
-0.0000000000213731
 30
0.0
 40
353.49999999991411
 50
0.1863939537686
 51
4.8136060462437786
  0
ARC
  8
DETAIL
  6
CONTINUOUS
 62
     5
 10
0.000000000001819
 20
-0.0000000000213731
 30
0.0
 40
350.49999999991388
 50
0.1879893427961749
 51
4.8120106572144081
  0
ARC
  8
DETAIL
  6
CONTINUOUS
 62
     5
 10
0.000000000001819
 20
-0.0000000000213731
 30
0.0
 40
318.00000000001262
 50
0.2072021700027287
 51
4.792797830019774
  0
ARC
  8
DETAIL
  6
CONTINUOUS
 62
     5
 10
0.000000000001819
 20
-0.0000000000213731
 30
0.0
 40
315.00000000001251
 50
0.209175532689922
 51
4.7908244672803546
  0
ARC
  8
DETAIL
  6
CONTINUOUS
 62
     5
 10
0.000000000001819
 20
-0.0000000000213731
 30
0.0
 40
219.0000000000087
 50
0.3008696312860345
 51
4.6991303686802652
  0
ARC
  8
DETAIL
  6
CONTINUOUS
 62
     5
 10
0.000000000001819
 20
-0.0000000000213731
 30
0.0
 40
216.00000000000861
 50
0.3050484153789809
 51
4.6949515846148984
  0
ARC
  8
DETAIL
  6
CONTINUOUS
 62
     5
 10
0.000000000001819
 20
-0.0000000000213731
 30
0.0
 40
129.99999999990521
 50
0.5068538909738781
 51
4.4931461089704596
  0
ARC
  8
DETAIL
  6
CONTINUOUS
 62
     5
 10
0.0
 20
-0.0000000000218279
 30
0.0
 40
353.49999999991451
 50
355.18639395375618
 51
359.81360604625741
  0
ARC
  8
DETAIL
  6
CONTINUOUS
 62
     5
 10
0.0
 20
-0.0000000000218279
 30
0.0
 40
350.49999999991439
 50
355.1879893428117
 51
359.81201065722991
  0
ARC
  8
DETAIL
  6
CONTINUOUS
 62
     5
 10
0.0
 20
-0.0000000000218279
 30
0.0
 40
318.00000000001307
 50
355.20720217000598
 51
359.79279783002329
  0
ARC
  8
DETAIL
  6
CONTINUOUS
 62
     5
 10
0.0
 20
-0.0000000000218279
 30
0.0
 40
315.00000000001302
 50
355.20917553269351
 51
359.79082446728398
  0
ARC
  8
DETAIL
  6
CONTINUOUS
 62
     5
 10
0.0
 20
-0.0000000000218279
 30
0.0
 40
219.00000000000901
 50
355.30086963129372
 51
359.69913036868792
  0
ARC
  8
DETAIL
  6
CONTINUOUS
 62
     5
 10
0.0
 20
-0.0000000000218279
 30
0.0
 40
216.0000000000089
 50
355.3050484153851
 51
359.69495158462098
  0
ARC
  8
DETAIL
  6
CONTINUOUS
 62
     5
 10
0.0
 20
-0.0000000000218279
 30
0.0
 40
129.9999999999053
 50
355.50685389097691
 51
359.49314610897397
  0
ARC
  8
DETAIL
  6
CONTINUOUS
 62
     5
 10
-0.000000000001819
 20
-0.0000000000227374
 30
0.0
 40
353.49999999991491
 50
350.18639395375448
 51
354.81360604626212
  0
ARC
  8
DETAIL
  6
CONTINUOUS
 62
     5
 10
-0.000000000001819
 20
-0.0000000000227374
 30
0.0
 40
350.49999999991479
 50
350.18798934281978
 51
354.81201065723599
  0
ARC
  8
DETAIL
  6
CONTINUOUS
 62
     5
 10
-0.000000000001819
 20
-0.0000000000227374
 30
0.0
 40
318.00000000001342
 50
350.20720217000371
 51
354.79279783002892
  0
ARC
  8
DETAIL
  6
CONTINUOUS
 62
     5
 10
-0.000000000001819
 20
-0.0000000000227374
 30
0.0
 40
315.0000000000133
 50
350.20917553268578
 51
354.7908244673032
  0
ARC
  8
DETAIL
  6
CONTINUOUS
 62
     5
 10
-0.000000000001819
 20
-0.0000000000227374
 30
0.0
 40
219.00000000000921
 50
350.30086963128127
 51
354.6991303686828
  0
ARC
  8
DETAIL
  6
CONTINUOUS
 62
     5
 10
-0.000000000001819
 20
-0.0000000000227374
 30
0.0
 40
216.00000000000909
 50
350.30504841536691
 51
354.69495158461348
  0
ARC
  8
DETAIL
  6
CONTINUOUS
 62
     5
 10
-0.000000000001819
 20
-0.0000000000227374
 30
0.0
 40
129.9999999999055
 50
350.50685389096981
 51
354.49314610897761
  0
ARC
  8
DETAIL
  6
CONTINUOUS
 62
     5
 10
-0.000000000003638
 20
-0.0000000000227374
 30
0.0
 40
353.49999999991519
 50
345.18639395376113
 51
349.81360604624422
  0
ARC
  8
DETAIL
  6
CONTINUOUS
 62
     5
 10
-0.000000000003638
 20
-0.0000000000227374
 30
0.0
 40
350.49999999991502
 50
345.18798934281358
 51
349.81201065722212
  0
ARC
  8
DETAIL
  6
CONTINUOUS
 62
     5
 10
-0.000000000003638
 20
-0.0000000000227374
 30
0.0
 40
318.00000000001359
 50
345.20720216998649
 51
349.79279783002772
  0
ARC
  8
DETAIL
  6
CONTINUOUS
 62
     5
 10
-0.000000000003638
 20
-0.0000000000227374
 30
0.0
 40
315.00000000001347
 50
345.20917553268202
 51
349.79082446730251
  0
ARC
  8
DETAIL
  6
CONTINUOUS
 62
     5
 10
-0.000000000003638
 20
-0.0000000000227374
 30
0.0
 40
219.00000000000941
 50
345.30086963129139
 51
349.69913036869173
  0
ARC
  8
DETAIL
  6
CONTINUOUS
 62
     5
 10
-0.000000000003638
 20
-0.0000000000227374
 30
0.0
 40
216.00000000000929
 50
345.30504841537498
 51
349.6949515846274
  0
ARC
  8
DETAIL
  6
CONTINUOUS
 62
     5
 10
-0.000000000003638
 20
-0.0000000000227374
 30
0.0
 40
129.99999999990561
 50
345.50685389096509
 51
349.49314610896852
  0
ARC
  8
DETAIL
  6
CONTINUOUS
 62
     5
 10
-0.000000000005457
 20
-0.0000000000218279
 30
0.0
 40
353.49999999991519
 50
340.1863939537821
 51
344.81360604626332
  0
ARC
  8
DETAIL
  6
CONTINUOUS
 62
     5
 10
-0.000000000005457
 20
-0.0000000000218279
 30
0.0
 40
350.49999999991508
 50
340.18798934279732
 51
344.8120106572128
  0
ARC
  8
DETAIL
  6
CONTINUOUS
 62
     5
 10
-0.000000000005457
 20
-0.0000000000218279
 30
0.0
 40
318.0000000000137
 50
340.20720217001048
 51
344.79279783002119
  0
ARC
  8
DETAIL
  6
CONTINUOUS
 62
     5
 10
-0.000000000005457
 20
-0.0000000000218279
 30
0.0
 40
315.00000000001359
 50
340.20917553269402
 51
344.79082446729939
  0
ARC
  8
DETAIL
  6
CONTINUOUS
 62
     5
 10
-0.000000000005457
 20
-0.0000000000218279
 30
0.0
 40
219.00000000000941
 50
340.30086963129838
 51
344.69913036869258
  0
ARC
  8
DETAIL
  6
CONTINUOUS
 62
     5
 10
-0.000000000005457
 20
-0.0000000000218279
 30
0.0
 40
216.00000000000929
 50
340.30504841536992
 51
344.69495158461081
  0
ARC
  8
DETAIL
  6
CONTINUOUS
 62
     5
 10
-0.000000000005457
 20
-0.0000000000218279
 30
0.0
 40
129.99999999990561
 50
340.50685389098078
 51
344.49314610896357
  0
ARC
  8
DETAIL
  6
CONTINUOUS
 62
     5
 10
-0.0000000000081855
 20
-0.0000000000218279
 30
0.0
 40
353.49999999991542
 50
335.1863939537327
 51
339.81360604622108
  0
ARC
  8
DETAIL
  6
CONTINUOUS
 62
     5
 10
-0.0000000000081855
 20
-0.0000000000218279
 30
0.0
 40
350.49999999991519
 50
335.18798934276327
 51
339.81201065722792
  0
ARC
  8
DETAIL
  6
CONTINUOUS
 62
     5
 10
-0.0000000000081855
 20
-0.0000000000218279
 30
0.0
 40
318.00000000001381
 50
335.2072021699596
 51
339.79279783003341
  0
ARC
  8
DETAIL
  6
CONTINUOUS
 62
     5
 10
-0.0000000000081855
 20
-0.0000000000218279
 30
0.0
 40
315.0000000000137
 50
335.20917553268288
 51
339.79082446731661
  0
ARC
  8
DETAIL
  6
CONTINUOUS
 62
     5
 10
-0.0000000000081855
 20
-0.0000000000218279
 30
0.0
 40
219.00000000000949
 50
335.30086963127007
 51
339.69913036867592
  0
ARC
  8
DETAIL
  6
CONTINUOUS
 62
     5
 10
-0.0000000000081855
 20
-0.0000000000218279
 30
0.0
 40
216.00000000000941
 50
335.30504841536458
 51
339.694951584617
  0
ARC
  8
DETAIL
  6
CONTINUOUS
 62
     5
 10
-0.0000000000081855
 20
-0.0000000000218279
 30
0.0
 40
129.99999999990561
 50
335.50685389099061
 51
339.49314610897471
  0
ARC
  8
DETAIL
  6
CONTINUOUS
 62
     5
 10
-0.0000000000100044
 20
-0.0000000000213731
 30
0.0
 40
353.49999999991559
 50
330.18639395374771
 51
334.81360604625252
  0
ARC
  8
DETAIL
  6
CONTINUOUS
 62
     5
 10
-0.0000000000100044
 20
-0.0000000000213731
 30
0.0
 40
350.49999999991547
 50
330.18798934284001
 51
334.81201065726287
  0
ARC
  8
DETAIL
  6
CONTINUOUS
 62
     5
 10
-0.0000000000100044
 20
-0.0000000000213731
 30
0.0
 40
318.00000000001398
 50
330.20720217001423
 51
334.79279782999538
  0
ARC
  8
DETAIL
  6
CONTINUOUS
 62
     5
 10
-0.0000000000100044
 20
-0.0000000000213731
 30
0.0
 40
315.00000000001393
 50
330.20917553271642
 51
334.79082446729058
  0
ARC
  8
DETAIL
  6
CONTINUOUS
 62
     5
 10
-0.0000000000100044
 20
-0.0000000000213731
 30
0.0
 40
219.00000000000969
 50
330.30086963131322
 51
334.69913036866183
  0
ARC
  8
DETAIL
  6
CONTINUOUS
 62
     5
 10
-0.0000000000100044
 20
-0.0000000000213731
 30
0.0
 40
216.00000000000949
 50
330.30504841535321
 51
334.69495158462269
  0
ARC
  8
DETAIL
  6
CONTINUOUS
 62
     5
 10
-0.0000000000100044
 20
-0.0000000000213731
 30
0.0
 40
129.9999999999057
 50
330.50685389095901
 51
334.49314610896329
  0
ARC
  8
DETAIL
  6
CONTINUOUS
 62
     5
 10
-0.0000000000118234
 20
-0.0000000000200089
 30
0.0
 40
353.49999999991547
 50
325.18639395375601
 51
329.81360604627952
  0
ARC
  8
DETAIL
  6
CONTINUOUS
 62
     5
 10
-0.0000000000118234
 20
-0.0000000000200089
 30
0.0
 40
350.49999999991542
 50
325.18798934281739
 51
329.81201065726901
  0
ARC
  8
DETAIL
  6
CONTINUOUS
 62
     5
 10
-0.0000000000118234
 20
-0.0000000000200089
 30
0.0
 40
318.00000000001398
 50
325.20720216999212
 51
329.79279783002909
  0
ARC
  8
DETAIL
  6
CONTINUOUS
 62
     5
 10
-0.0000000000118234
 20
-0.0000000000200089
 30
0.0
 40
315.00000000001393
 50
325.20917553269157
 51
329.79082446727131
  0
ARC
  8
DETAIL
  6
CONTINUOUS
 62
     5
 10
-0.0000000000118234
 20
-0.0000000000200089
 30
0.0
 40
219.00000000000961
 50
325.30086963125268
 51
329.69913036869758
  0
ARC
  8
DETAIL
  6
CONTINUOUS
 62
     5
 10
-0.0000000000118234
 20
-0.0000000000200089
 30
0.0
 40
216.00000000000949
 50
325.30504841540341
 51
329.69495158462678
  0
ARC
  8
DETAIL
  6
CONTINUOUS
 62
     5
 10
-0.0000000000118234
 20
-0.0000000000200089
 30
0.0
 40
129.9999999999057
 50
325.50685389099772
 51
329.49314610895789
  0
ARC
  8
DETAIL
  6
CONTINUOUS
 62
     5
 10
-0.0000000000136424
 20
-0.0000000000195541
 30
0.0
 40
353.49999999991581
 50
320.18639395378511
 51
324.81360604627349
  0
ARC
  8
DETAIL
  6
CONTINUOUS
 62
     5
 10
-0.0000000000136424
 20
-0.0000000000195541
 30
0.0
 40
350.49999999991559
 50
320.18798934283188
 51
324.81201065721569
  0
ARC
  8
DETAIL
  6
CONTINUOUS
 62
     5
 10
-0.0000000000136424
 20
-0.0000000000195541
 30
0.0
 40
318.00000000001421
 50
320.20720216996961
 51
324.79279783001402
  0
ARC
  8
DETAIL
  6
CONTINUOUS
 62
     5
 10
-0.0000000000136424
 20
-0.0000000000195541
 30
0.0
 40
315.00000000001398
 50
320.20917553272233
 51
324.79082446727318
  0
ARC
  8
DETAIL
  6
CONTINUOUS
 62
     5
 10
-0.0000000000136424
 20
-0.0000000000195541
 30
0.0
 40
219.00000000000981
 50
320.30086963129088
 51
324.69913036871191
  0
ARC
  8
DETAIL
  6
CONTINUOUS
 62
     5
 10
-0.0000000000136424
 20
-0.0000000000195541
 30
0.0
 40
216.00000000000961
 50
320.30504841539891
 51
324.69495158463468
  0
ARC
  8
DETAIL
  6
CONTINUOUS
 62
     5
 10
-0.0000000000136424
 20
-0.0000000000195541
 30
0.0
 40
129.99999999990581
 50
320.50685389094701
 51
324.49314610896772
  0
ARC
  8
DETAIL
  6
CONTINUOUS
 62
     5
 10
-0.0000000000154614
 20
-0.0000000000181899
 30
0.0
 40
353.4999999999161
 50
314.81360604620181
 51
319.81360604629009
  0
ARC
  8
DETAIL
  6
CONTINUOUS
 62
     5
 10
-0.0000000000154614
 20
-0.0000000000181899
 30
0.0
 40
350.49999999991599
 50
314.81201065716829
 51
319.81201065722257
  0
ARC
  8
DETAIL
  6
CONTINUOUS
 62
     5
 10
-0.0000000000154614
 20
-0.0000000000181899
 30
0.0
 40
318.0000000000145
 50
315.20720217003588
 51
319.79279783003301
  0
ARC
  8
DETAIL
  6
CONTINUOUS
 62
     5
 10
-0.0000000000154614
 20
-0.0000000000181899
 30
0.0
 40
315.00000000001432
 50
315.2091755326864
 51
319.79082446728933
  0
ARC
  8
DETAIL
  6
CONTINUOUS
 62
     5
 10
-0.0000000000154614
 20
-0.0000000000181899
 30
0.0
 40
219.00000000001
 50
315.3008696312283
 51
319.69913036869809
  0
ARC
  8
DETAIL
  6
CONTINUOUS
 62
     5
 10
-0.0000000000154614
 20
-0.0000000000181899
 30
0.0
 40
216.00000000000981
 50
315.30504841535662
 51
319.69495158465162
  0
ARC
  8
DETAIL
  6
CONTINUOUS
 62
     5
 10
-0.0000000000154614
 20
-0.0000000000181899
 30
0.0
 40
129.9999999999059
 50
315.50685389093019
 51
319.49314610901149
  0
ARC
  8
DETAIL
  6
CONTINUOUS
 62
     5
 10
-0.0000000000172804
 20
-0.0000000000163709
 30
0.0
 40
318.0000000000145
 50
310.2072021699899
 51
314.79279783000038
  0
ARC
  8
DETAIL
  6
CONTINUOUS
 62
     5
 10
-0.0000000000172804
 20
-0.0000000000163709
 30
0.0
 40
315.00000000001432
 50
310.20917553267361
 51
314.79082446731883
  0
ARC
  8
DETAIL
  6
CONTINUOUS
 62
     5
 10
-0.0000000000172804
 20
-0.0000000000163709
 30
0.0
 40
219.00000000001
 50
310.30086963130191
 51
314.69913036862891
  0
ARC
  8
DETAIL
  6
CONTINUOUS
 62
     5
 10
-0.0000000000172804
 20
-0.0000000000163709
 30
0.0
 40
216.00000000000981
 50
310.30504841538271
 51
314.69495158466179
  0
ARC
  8
DETAIL
  6
CONTINUOUS
 62
     5
 10
-0.0000000000172804
 20
-0.0000000000163709
 30
0.0
 40
129.9999999999059
 50
310.50685389098379
 51
314.4931461089912
  0
ARC
  8
DETAIL
  6
CONTINUOUS
 62
     5
 10
-0.0000000000190994
 20
-0.0000000000154614
 30
0.0
 40
353.49999999991638
 50
305.18639395372651
 51
309.81360604627071
  0
ARC
  8
DETAIL
  6
CONTINUOUS
 62
     5
 10
-0.0000000000190994
 20
-0.0000000000154614
 30
0.0
 40
350.49999999991633
 50
305.18798934284109
 51
309.81201065728368
  0
ARC
  8
DETAIL
  6
CONTINUOUS
 62
     5
 10
-0.0000000000190994
 20
-0.0000000000154614
 30
0.0
 40
318.00000000001478
 50
305.20720216998512
 51
309.79279782999072
  0
ARC
  8
DETAIL
  6
CONTINUOUS
 62
     5
 10
-0.0000000000190994
 20
-0.0000000000154614
 30
0.0
 40
315.00000000001461
 50
305.20917553272977
 51
309.79082446724237
  0
ARC
  8
DETAIL
  6
CONTINUOUS
 62
     5
 10
-0.0000000000190994
 20
-0.0000000000154614
 30
0.0
 40
219.0000000000102
 50
305.30086963126712
 51
309.69913036867439
  0
ARC
  8
DETAIL
  6
CONTINUOUS
 62
     5
 10
-0.0000000000190994
 20
-0.0000000000154614
 30
0.0
 40
216.00000000001
 50
305.3050484153635
 51
309.69495158458011
  0
ARC
  8
DETAIL
  6
CONTINUOUS
 62
     5
 10
-0.0000000000190994
 20
-0.0000000000154614
 30
0.0
 40
129.99999999990601
 50
305.50685389103728
 51
309.4931461090365
  0
LINE
  8
OUTLINE
  6
CONTINUOUS
 62
     3
 10
-315.72317779980131
 20
254.91199461779979
 30
0.0
 11
-287.05832389666739
 21
226.24714071466681
 31
0.0
  0
ARC
  8
OUTLINE
  6
CONTINUOUS
 62
     3
 10
0.0000000000011369
 20
0.0
 30
0.0
 40
365.49999999990001
 50
141.75632703058511
 51
218.24367296941489
  0
LINE
  8
OUTLINE
  6
CONTINUOUS
 62
     3
 10
-287.05832389666739
 20
-226.24714071466681
 30
0.0
 11
-315.72317779971672
 21
-254.91199461788071
 31
0.0
  0
ARC
  8
OUTLINE
  6
CONTINUOUS
 62
     3
 10
-311.48053711259774
 20
-259.15463530499983
 30
0.0
 40
5.9999999999996518
 50
134.99999999999903
 51
225.0000000000008
  0
LINE
  8
OUTLINE
  6
CONTINUOUS
 62
     3
 10
-315.72317779971672
 20
-263.39727599211892
 30
0.0
 11
-263.39727599211619
 21
-315.72317779972491
 31
0.0
  0
ARC
  8
OUTLINE
  6
CONTINUOUS
 62
     3
 10
-259.15463530500256
 20
-311.4805371126003
 30
0.0
 40
5.9999999999997877
 50
225.00000000007412
 51
314.99999999999909
  0
LINE
  8
OUTLINE
  6
CONTINUOUS
 62
     3
 10
-254.91199461788349
 20
-315.72317779971951
 30
0.0
 11
-226.24714071467861
 21
-287.05832389665829
 31
0.0
  0
ARC
  8
OUTLINE
  6
CONTINUOUS
 62
     3
 10
0.0000000000009095
 20
-0.0000000000006253
 30
0.0
 40
365.49999999989933
 50
231.7563270305825
 51
308.243672969415
  0
LINE
  8
OUTLINE
  6
CONTINUOUS
 62
     3
 10
226.24714071466769
 20
-287.0583238966683
 30
0.0
 11
254.91199461758151
 21
-315.72317779971951
 31
0.0
  0
ARC
  8
OUTLINE
  6
CONTINUOUS
 62
     3
 10
259.15463530470061
 20
-311.48053711260036
 30
0.0
 40
5.999999999999754
 50
225.00000000000034
 51
314.99999999999955
  0
LINE
  8
OUTLINE
  6
CONTINUOUS
 62
     3
 10
263.3972759918197
 20
-315.72317779971951
 30
0.0
 11
315.72317779971399
 21
-263.39727599212569
 31
0.0
  0
ARC
  8
OUTLINE
  6
CONTINUOUS
 62
     3
 10
311.48053711260104
 20
-259.154635305
 30
0.0
 40
6.0000000000000631
 50
314.99999999991405
 51
44.999999999999432
  0
LINE
  8
OUTLINE
  6
CONTINUOUS
 62
     3
 10
315.72317779972042
 20
-254.91199461788071
 30
0.0
 11
287.05832389665829
 21
-226.24714071468131
 31
0.0
  0
ARC
  8
OUTLINE
  6
CONTINUOUS
 62
     3
 10
0.0000000000005116
 20
-0.00000000000054
 30
0.0
 40
365.49999999990024
 50
321.75632703058227
 51
38.2436729694154
  0
LINE
  8
OUTLINE
  6
CONTINUOUS
 62
     3
 10
287.05832389666739
 20
226.2471407146686
 30
0.0
 11
315.72317779972042
 21
254.9119946178798
 31
0.0
  0
ARC
  8
OUTLINE
  6
CONTINUOUS
 62
     3
 10
311.48053711260144
 20
259.15463530499892
 30
0.0
 40
5.9999999999996518
 50
314.99999999999909
 51
45.000000000000796
  0
LINE
  8
OUTLINE
  6
CONTINUOUS
 62
     3
 10
315.72317779972042
 20
263.39727599211801
 30
0.0
 11
263.39727599181418
 21
315.72317779972451
 31
0.0
  0
ARC
  8
OUTLINE
  6
CONTINUOUS
 62
     3
 10
259.15463530470083
 20
311.48053711259934
 30
0.0
 40
5.9999999999999609
 50
45.000000000079808
 51
135.00000000000114
  0
LINE
  8
OUTLINE
  6
CONTINUOUS
 62
     3
 10
254.91199461758151
 20
315.72317779971848
 30
0.0
 11
226.24714071465769
 21
287.05832389667648
 31
0.0
  0
ARC
  8
OUTLINE
  6
CONTINUOUS
 62
     3
 10
0.0000000000006537
 20
-0.0000000000001137
 30
0.0
 40
365.4999999999003
 50
51.756327030587045
 51
128.243672969415
  0
LINE
  8
OUTLINE
  6
CONTINUOUS
 62
     3
 10
-226.24714071466681
 20
287.0583238966683
 30
0.0
 11
-254.91199461788349
 21
315.72317779971848
 31
0.0
  0
ARC
  8
OUTLINE
  6
CONTINUOUS
 62
     3
 10
-259.15463530500256
 20
311.48053711259928
 30
0.0
 40
5.9999999999997877
 50
45.000000000000966
 51
134.99999999999886
  0
LINE
  8
OUTLINE
  6
CONTINUOUS
 62
     3
 10
-263.39727599212159
 20
315.72317779971848
 30
0.0
 11
-315.72317779972218
 21
263.39727599211261
 31
0.0
  0
ARC
  8
OUTLINE
  6
CONTINUOUS
 62
     3
 10
-311.48053711267943
 20
259.15463530491667
 30
0.0
 40
6.0000000000000959
 50
134.99999999896556
 51
224.99999999996624
  0
ENDSEC
  0
EOF
