  0
SECTION
  2
HEADER
  9
$ACADVER
  1
AC1009
  9
$DWGCODEPAGE
  3
dos932
  9
$INSBASE
 10
0.0
 20
0.0
 30
0.0
  9
$EXTMIN
 10
-201.2145825559455
 20
-371.70408977161242
 30
-0.0015258207003583
  9
$EXTMAX
 10
793.52875885498725
 20
547.62268863574354
 30
0.0000000349246037
  9
$LIMMIN
 10
-2970.0
 20
-2100.0
  9
$LIMMAX
 10
2970.0
 20
2100.0
  9
$ORTHOMODE
 70
     1
  9
$REGENMODE
 70
     1
  9
$FILLMODE
 70
     1
  9
$QTEXTMODE
 70
     0
  9
$MIRRTEXT
 70
     0
  9
$LTSCALE
 40
20.0
  9
$ATTMODE
 70
     1
  9
$TEXTSIZE
 40
64.0
  9
$TRACEWID
 40
0.05
  9
$TEXTSTYLE
  7
STANDARD
  9
$CLAYER
  8
SIZE
  9
$CELTYPE
  6
CONTINUOUS
  9
$CECOLOR
 62
     7
  9
$DIMSCALE
 40
1.0
  9
$DIMASZ
 40
12.0
  9
$DIMEXO
 40
20.0
  9
$DIMDLI
 40
200.0
  9
$DIMRND
 40
0.0
  9
$DIMDLE
 40
0.0
  9
$DIMEXE
 40
20.0
  9
$DIMTP
 40
0.0
  9
$DIMTM
 40
0.0
  9
$DIMTXT
 40
64.0
  9
$DIMCEN
 40
0.09
  9
$DIMTSZ
 40
0.0
  9
$DIMTOL
 70
     0
  9
$DIMLIM
 70
     0
  9
$DIMTIH
 70
     0
  9
$DIMTOH
 70
     0
  9
$DIMSE1
 70
     0
  9
$DIMSE2
 70
     0
  9
$DIMTAD
 70
     1
  9
$DIMZIN
 70
     8
  9
$DIMBLK
  1

  9
$DIMASO
 70
     1
  9
$DIMSHO
 70
     0
  9
$DIMPOST
  1

  9
$DIMAPOST
  1

  9
$DIMALT
 70
     0
  9
$DIMALTD
 70
     2
  9
$DIMALTF
 40
25.399999999999999
  9
$DIMLFAC
 40
1.0
  9
$DIMTOFL
 70
     1
  9
$DIMTVP
 40
0.0
  9
$DIMTIX
 70
     1
  9
$DIMSOXD
 70
     0
  9
$DIMSAH
 70
     0
  9
$DIMBLK1
  1

  9
$DIMBLK2
  1

  9
$DIMSTYLE
  2
STANDARD
  9
$DIMCLRD
 70
     7
  9
$DIMCLRE
 70
     7
  9
$DIMCLRT
 70
     7
  9
$DIMTFAC
 40
1.0
  9
$DIMGAP
 40
25.0
  9
$LUNITS
 70
     2
  9
$LUPREC
 70
     4
  9
$SKETCHINC
 40
0.1
  9
$FILLETRAD
 40
3.0
  9
$AUNITS
 70
     1
  9
$AUPREC
 70
     3
  9
$MENU
  1
ACAD
  9
$ELEVATION
 40
0.0
  9
$PELEVATION
 40
0.0
  9
$THICKNESS
 40
0.0
  9
$LIMCHECK
 70
     0
  9
$CHAMFERA
 40
0.0
  9
$CHAMFERB
 40
0.0
  9
$SKPOLY
 70
     0
  9
$TDCREATE
 40
2453019.62301037
  9
$TDUPDATE
 40
2459375.456302419
  9
$TDINDWG
 40
1.7182914468
  9
$TDUSRTIMER
 40
1.7182914468
  9
$USRTIMER
 70
     1
  9
$ANGBASE
 50
0.0
  9
$ANGDIR
 70
     0
  9
$PDMODE
 70
     3
  9
$PDSIZE
 40
-2.0
  9
$PLINEWID
 40
0.0
  9
$SPLFRAME
 70
     0
  9
$SPLINETYPE
 70
     6
  9
$SPLINESEGS
 70
     8
  9
$SURFTAB1
 70
     6
  9
$SURFTAB2
 70
     6
  9
$SURFTYPE
 70
     6
  9
$SURFU
 70
     6
  9
$SURFV
 70
     6
  9
$UCSNAME
  2

  9
$UCSORG
 10
0.0
 20
0.0
 30
0.0
  9
$UCSXDIR
 10
1.0
 20
0.0
 30
0.0
  9
$UCSYDIR
 10
0.0
 20
1.0
 30
0.0
  9
$PUCSNAME
  2

  9
$PUCSORG
 10
0.0
 20
0.0
 30
0.0
  9
$PUCSXDIR
 10
1.0
 20
0.0
 30
0.0
  9
$PUCSYDIR
 10
0.0
 20
1.0
 30
0.0
  9
$USERI1
 70
     0
  9
$USERI2
 70
     0
  9
$USERI3
 70
     0
  9
$USERI4
 70
     0
  9
$USERI5
 70
     0
  9
$USERR1
 40
20.0
  9
$USERR2
 40
0.0
  9
$USERR3
 40
0.0
  9
$USERR4
 40
0.0
  9
$USERR5
 40
0.0
  9
$WORLDVIEW
 70
     1
  9
$SHADEDGE
 70
     3
  9
$SHADEDIF
 70
    70
  9
$TILEMODE
 70
     1
  9
$MAXACTVP
 70
    48
  9
$PINSBASE
 10
0.0
 20
0.0
 30
0.0
  9
$PLIMCHECK
 70
     0
  9
$PEXTMIN
 10
-100000000000000000000.0
 20
-100000000000000000000.0
 30
-100000000000000000000.0
  9
$PEXTMAX
 10
100000000000000000000.0
 20
100000000000000000000.0
 30
100000000000000000000.0
  9
$PLIMMIN
 10
0.0
 20
0.0
  9
$PLIMMAX
 10
12.0
 20
9.0
  9
$UNITMODE
 70
     0
  9
$VISRETAIN
 70
     0
  9
$PLINEGEN
 70
     0
  9
$PSLTSCALE
 70
     0
  9
$TREEDEPTH
 70
  3020
  9
$ATTDIA
 70
     0
  9
$ATTREQ
 70
     1
  9
$BLIPMODE
 70
     1
  9
$COORDS
 70
     1
  9
$DRAGMODE
 70
     2
  9
$OSMODE
 70
     0
  9
$HANDLING
 70
     0
  9
$HANDSEED
  5
FF86
  0
ENDSEC
  0
SECTION
  2
TABLES
  0
TABLE
  2
LTYPE
 70
     2
  0
LTYPE
  2
CONTINUOUS
 70
     0
  3
実線
 72
    65
 73
     0
 40
0.0
  0
LTYPE
  2
DASHDOT
 70
     0
  3
____ _ ____ _ ____ _ ____ _ ____ _ ____ _ ____
 72
    65
 73
     4
 40
5.5
 49
4.0
 49
-0.6
 49
0.3
 49
-0.6
  0
ENDTAB
  0
TABLE
  2
LAYER
 70
    12
  0
LAYER
  2
0
 70
     0
 62
     7
  6
CONTINUOUS
  0
LAYER
  2
BASIS
 70
     0
 62
     6
  6
DASHDOT
  0
LAYER
  2
OUTLINE
 70
     0
 62
     3
  6
CONTINUOUS
  0
LAYER
  2
DETAIL
 70
     0
 62
     5
  6
CONTINUOUS
  0
LAYER
  2
SIZE
 70
     0
 62
    30
  6
CONTINUOUS
  0
LAYER
  2
ARRANGE
 70
     0
 62
     1
  6
CONTINUOUS
  0
LAYER
  2
DEFPOINTS
 70
     0
 62
     7
  6
CONTINUOUS
  0
LAYER
  2
ETC
 70
     0
 62
    61
  6
CONTINUOUS
  0
LAYER
  2
FIX
 70
    64
 62
    11
  6
CONTINUOUS
  0
LAYER
  2
NOTE
 70
    64
 62
     4
  6
CONTINUOUS
  0
LAYER
  2
SERVICESPACE
 70
    64
 62
     2
  6
DASHDOT
  0
LAYER
  2
SYMBOLLINE
 70
    64
 62
    15
  6
CONTINUOUS
  0
ENDTAB
  0
TABLE
  2
STYLE
 70
     1
  0
STYLE
  2
STANDARD
 70
     0
 40
64.0
 41
0.9
 50
0.0
 71
     0
 42
64.0
  3
SIMPLEX.shx
  4
BIGFONT.shx
  0
ENDTAB
  0
TABLE
  2
APPID
 70
    20
  0
APPID
  2
ACAD
 70
     0
  0
APPID
  2
AUTOCAD_POSTSCRIPT_FIGURE
 70
     0
  0
APPID
  2
ACAD_EXEMPT_FROM_CAD_STANDARDS
 70
     0
  0
APPID
  2
ACAD_PSEXT
 70
     0
  0
APPID
  2
ACAUTHENVIRON
 70
     0
  0
APPID
  2
GENIUS_GENOENT_13
 70
     0
  0
APPID
  2
GENIUS_GENCFG_13
 70
     0
  0
APPID
  2
GENIUS_GENCFG0_13
 70
     0
  0
APPID
  2
GENIUS_GENCFG1_13
 70
     0
  0
APPID
  2
GENIUS_GENCFG2_13
 70
     0
  0
APPID
  2
GENIUS_GENCFG3_13
 70
     0
  0
APPID
  2
GENIUS_GENCFG4_13
 70
     0
  0
APPID
  2
GENIUS_GEVCFG0_13
 70
     0
  0
APPID
  2
CONTENTBLOCKICON
 70
     0
  0
APPID
  2
CONTENTBLOCKDESCRIPTION
 70
     0
  0
APPID
  2
ACAD_NAV_VCDISPLAY
 70
     0
  0
APPID
  2
ACAD_MLEADERVER
 70
     0
  0
APPID
  2
ACDBDYNAMICBLOCKTRUENAME
 70
     0
  0
APPID
  2
ACDBDYNAMICBLOCKGUID
 70
     0
  0
APPID
  2
ACAD_DSTYLE_DIMRADIAL_EXTENSION
 70
     0
  0
ENDTAB
  0
TABLE
  2
DIMSTYLE
 70
     1
  0
DIMSTYLE
  2
STANDARD
 70
     0
  3

  4

  5
_ORIGIN
  6

  7

 40
1.0
 41
12.0
 42
20.0
 43
200.0
 44
20.0
 45
0.0
 46
0.0
 47
0.0
 48
0.0
140
64.0
141
0.09
142
0.0
143
25.399999999999999
144
1.0
145
0.0
146
1.0
147
25.0
 71
     0
 72
     0
 73
     0
 74
     0
 75
     0
 76
     0
 77
     1
 78
     8
170
     0
171
     2
172
     1
173
     0
174
     1
175
     0
176
     7
177
     7
178
     7
  0
ENDTAB
  0
TABLE
  2
VIEW
 70
     1
  0
VIEW
  2
ALL
 70
     0
 40
4282.6198079999986
 10
0.0
 20
41.309904000000003
 41
5940.0
 11
0.0
 21
0.0
 31
1.0
 12
0.0
 22
0.0
 32
0.0
 42
50.0
 43
0.0
 44
0.0
 50
0.0
 71
     0
  0
ENDTAB
  0
TABLE
  2
UCS
 70
     0
  0
ENDTAB
  0
TABLE
  2
VPORT
 70
     1
  0
VPORT
  2
*ACTIVE
 70
     0
 10
0.0
 20
0.0
 11
1.0
 21
1.0
 12
296.15708814952092
 22
87.959299432065507
 13
0.0
 23
0.0
 14
1.0
 24
1.0
 15
0.0
 25
0.0
 16
0.0
 26
0.0
 36
1.0
 17
0.0
 27
0.0
 37
0.0
 40
925.48986295533814
 41
1.767337807606264
 42
50.0
 43
0.0
 44
0.0
 50
0.0
 51
0.0
 71
     0
 72
  1000
 73
     1
 74
     3
 75
     0
 76
     0
 77
     0
 78
     0
  0
ENDTAB
  0
ENDSEC
  0
SECTION
  2
BLOCKS
  0
BLOCK
  8
0
  2
_ORIGIN
 70
     0
 10
0.0
 20
0.0
 30
0.0
  3
_ORIGIN
  1
_ORIGIN
  0
CIRCLE
  8
SIZE
  6
CONTINUOUS
 62
    30
 10
0.0
 20
0.0
 30
0.0
 40
0.5
  0
LINE
  8
SIZE
  6
CONTINUOUS
 62
    30
 10
0.0
 20
0.0
 30
0.0
 11
-1.0
 21
0.0
 31
0.0
  0
ENDBLK
  8
0
  0
ENDSEC
  0
SECTION
  2
ENTITIES
  0
LINE
  8
BASIS
  6
DASHDOT
 62
     6
 10
-200.90897497196599
 20
0.0
 30
0.0
 11
59.315399726721807
 21
0.0
 31
0.0
  0
CIRCLE
  8
ARRANGE
  6
CONTINUOUS
 62
     1
 10
0.0
 20
0.0
 30
0.0
 40
40.0
  0
POINT
  8
ARRANGE
  6
CONTINUOUS
 62
     1
 10
0.0
 20
0.0
 30
0.0
  0
ARC
  8
DETAIL
  6
CONTINUOUS
 62
     5
 10
-1.5
 20
364.0
 30
0.0
 40
1.5
 50
0.0
 51
180.0
  0
LINE
  8
DETAIL
  6
CONTINUOUS
 62
     5
 10
0.0
 20
364.0
 30
0.0
 11
0.0
 21
278.36439612064851
 31
0.0
  0
ARC
  8
DETAIL
  6
CONTINUOUS
 62
     5
 10
-191.5
 20
217.74945986718009
 30
0.0
 40
1.5
 50
0.0
 51
180.0
  0
ARC
  8
DETAIL
  6
CONTINUOUS
 62
     5
 10
-98.509999999972024
 20
352.03286561101231
 30
0.0
 40
1.5
 50
0.0
 51
180.0
  0
ARC
  8
DETAIL
  6
CONTINUOUS
 62
     5
 10
-1.5
 20
235.0151280869577
 30
0.0
 40
1.5
 50
0.0
 51
180.0
  0
ARC
  8
DETAIL
  6
CONTINUOUS
 62
     5
 10
-1.5
 20
278.36439612064851
 30
0.0
 40
1.5
 50
180.0
 51
0.0
  0
LINE
  8
DETAIL
  6
CONTINUOUS
 62
     5
 10
-97.009999999972024
 20
-1.0
 30
0.0
 11
-3.0
 21
-1.0
 31
0.0
  0
LINE
  8
DETAIL
  6
CONTINUOUS
 62
     5
 10
-100.0099999999738
 20
-0.9041666666671517
 30
0.0
 11
-174.14999999986961
 21
-0.9041666666671517
 31
0.0
  0
LINE
  8
DETAIL
  6
CONTINUOUS
 62
     5
 10
-177.14999999986961
 20
-0.9041666666671517
 30
0.0
 11
-189.16407711761349
 21
-0.9041666666671517
 31
0.0
  0
ARC
  8
DETAIL
  6
CONTINUOUS
 62
     5
 10
-189.0930476612393
 20
0.0000000000002274
 30
0.0
 40
0.9069523387612433
 50
94.491812477283901
 51
265.50818752271613
  0
LINE
  8
DETAIL
  6
CONTINUOUS
 62
     5
 10
-100.0099999999738
 20
0.9041666666671517
 30
0.0
 11
-174.14999999986961
 21
0.9041666666671517
 31
0.0
  0
LINE
  8
DETAIL
  6
CONTINUOUS
 62
     5
 10
-177.14999999986961
 20
0.9041666666671517
 30
0.0
 11
-189.16407711761349
 21
0.9041666666671517
 31
0.0
  0
LINE
  8
DETAIL
  6
CONTINUOUS
 62
     5
 10
-97.009999999972024
 20
1.0000000000002269
 30
0.0
 11
-3.0
 21
1.0000000000002269
 31
0.0
  0
ARC
  8
DETAIL
  6
CONTINUOUS
 62
     5
 10
-111.540255133732
 20
237.16986512674069
 30
0.0
 40
78.944867957338047
 50
95.035878947368673
 51
142.4744586328261
  0
ARC
  8
DETAIL
  6
CONTINUOUS
 62
     5
 10
-111.540255133732
 20
237.16986512674069
 30
0.0
 40
78.944867957338047
 50
146.2101588911315
 51
173.64487201142819
  0
ARC
  8
DETAIL
  6
CONTINUOUS
 62
     5
 10
-110.6085197367011
 20
235.8711184209736
 30
0.0
 40
77.98729442001067
 50
95.57139819047832
 51
144.56433793699011
  0
ARC
  8
DETAIL
  6
CONTINUOUS
 62
     5
 10
-110.6085197367011
 20
235.8711184209736
 30
0.0
 40
77.98729442001067
 50
148.5652762593765
 51
172.40315762683639
  0
ARC
  8
DETAIL
  6
CONTINUOUS
 62
     5
 10
-109.9769417486395
 20
246.96456310792419
 30
0.0
 40
78.554911076559407
 50
95.994011254534669
 51
144.77762698483909
  0
ARC
  8
DETAIL
  6
CONTINUOUS
 62
     5
 10
-109.9769417486395
 20
246.96456310792419
 30
0.0
 40
78.554911076559407
 50
148.7718445532997
 51
172.29074731161171
  0
ARC
  8
DETAIL
  6
CONTINUOUS
 62
     5
 10
-108.38949221843809
 20
245.91906005530711
 30
0.0
 40
82.112057154830737
 50
97.051720423375443
 51
143.2125912318258
  0
ARC
  8
DETAIL
  6
CONTINUOUS
 62
     5
 10
-108.38949221843809
 20
245.91906005530711
 30
0.0
 40
82.112057154830737
 50
146.8664114006925
 51
173.66404159137971
  0
ARC
  8
DETAIL
  6
CONTINUOUS
 62
     5
 10
-106.3782930516163
 20
265.36699395806448
 30
0.0
 40
83.799966037889277
 50
98.296311826381384
 51
143.9722203983992
  0
ARC
  8
DETAIL
  6
CONTINUOUS
 62
     5
 10
-106.3782930516163
 20
265.36699395806448
 30
0.0
 40
83.799966037889277
 50
147.62176947710989
 51
176.2621784222741
  0
ARC
  8
DETAIL
  6
CONTINUOUS
 62
     5
 10
-109.9050371402391
 20
267.53886722381748
 30
0.0
 40
77.424607288870533
 50
96.135358891079917
 51
145.59529830672801
  0
ARC
  8
DETAIL
  6
CONTINUOUS
 62
     5
 10
-110.2120557435519
 20
256.57917462263367
 30
0.0
 40
77.909345202278374
 50
95.870017201872386
 51
145.1520251126224
  0
ARC
  8
DETAIL
  6
CONTINUOUS
 62
     5
 10
-110.2120557435519
 20
256.57917462263367
 30
0.0
 40
77.909345202278374
 50
149.22434018971759
 51
170.4525459841237
  0
ARC
  8
DETAIL
  6
CONTINUOUS
 62
     5
 10
-111.9001254131163
 20
222.73004596199209
 30
0.0
 40
76.807110921132519
 50
94.689831483831867
 51
144.14189674305209
  0
ARC
  8
DETAIL
  6
CONTINUOUS
 62
     5
 10
-111.9001254131163
 20
222.73004596199209
 30
0.0
 40
76.807110921132519
 50
148.1604868537155
 51
171.74437159375779
  0
ARC
  8
DETAIL
  6
CONTINUOUS
 62
     5
 10
-113.1923175238953
 20
224.29307398967421
 30
0.0
 40
77.486868187327559
 50
93.905477511589567
 51
141.87670069574889
  0
ARC
  8
DETAIL
  6
CONTINUOUS
 62
     5
 10
-113.1923175238953
 20
224.29307398967421
 30
0.0
 40
77.486868187327559
 50
145.62909428986671
 51
172.40836045169311
  0
ARC
  8
DETAIL
  6
CONTINUOUS
 62
     5
 10
-104.5513331215907
 20
98.544132994500046
 30
0.0
 40
100.167349277132
 50
97.819859734759646
 51
134.01318486436989
  0
ARC
  8
DETAIL
  6
CONTINUOUS
 62
     5
 10
-104.5513331215907
 20
98.544132994500046
 30
0.0
 40
100.167349277132
 50
136.45003101247289
 51
146.3261262415021
  0
ARC
  8
DETAIL
  6
CONTINUOUS
 62
     5
 10
-103.37317348020591
 20
96.674360237243263
 30
0.0
 40
104.5216586708669
 50
98.304696037172619
 51
132.62132250827389
  0
ARC
  8
DETAIL
  6
CONTINUOUS
 62
     5
 10
-103.37317348020591
 20
96.674360237243263
 30
0.0
 40
104.5216586708669
 50
134.89842064000351
 51
145.97495614504689
  0
LINE
  8
DETAIL
  6
CONTINUOUS
 62
     5
 10
-118.1799999998975
 20
197.7799999999697
 30
0.0
 11
-100.009999999972
 21
199.22206349203751
 31
0.0
  0
LINE
  8
DETAIL
  6
CONTINUOUS
 62
     5
 10
-118.4699999999348
 20
200.1000000000349
 30
0.0
 11
-100.009999999972
 21
201.54218749998131
 31
0.0
  0
LINE
  8
DETAIL
  6
CONTINUOUS
 62
     5
 10
-97.009999999972024
 20
350.89999999996508
 30
0.0
 11
-3.1899999999441211
 21
362.5
 31
0.0
  0
LINE
  8
DETAIL
  6
CONTINUOUS
 62
     5
 10
-97.009999999972024
 20
349.45000000001158
 30
0.0
 11
-3.1899999999441211
 21
361.04999999998842
 31
0.0
  0
LINE
  8
DETAIL
  6
CONTINUOUS
 62
     5
 10
-6.0899999998509884
 20
311.45999999996269
 30
0.0
 11
-97.009999999972024
 21
301.59999999997672
 31
0.0
  0
LINE
  8
DETAIL
  6
CONTINUOUS
 62
     5
 10
-97.009999999972024
 20
329.72999999998137
 30
0.0
 11
-3.1899999999441211
 21
340.75
 31
0.0
  0
LINE
  8
DETAIL
  6
CONTINUOUS
 62
     5
 10
-97.009999999972024
 20
336.40000000002328
 30
0.0
 11
-3.1899999999441211
 21
347.70999999996269
 31
0.0
  0
LINE
  8
DETAIL
  6
CONTINUOUS
 62
     5
 10
-97.009999999972024
 20
345.38999999995582
 30
0.0
 11
-3.1899999999441211
 21
356.98999999999069
 31
0.0
  0
LINE
  8
DETAIL
  6
CONTINUOUS
 62
     5
 10
-97.009999999972024
 20
343.35999999998597
 30
0.0
 11
-3.1899999999441211
 21
354.6699999999837
 31
0.0
  0
LINE
  8
DETAIL
  6
CONTINUOUS
 62
     5
 10
-118.4699999999348
 20
346.8399999999674
 30
0.0
 11
-100.009999999972
 21
349.14749999996269
 31
0.0
  0
LINE
  8
DETAIL
  6
CONTINUOUS
 62
     5
 10
-6.0899999998509884
 20
313.77999999996968
 30
0.0
 11
-97.009999999972024
 21
303.9199999999837
 31
0.0
  0
LINE
  8
DETAIL
  6
CONTINUOUS
 62
     5
 10
-100.009999999972
 20
317.82906249995739
 30
0.0
 11
-118.4699999978948
 21
315.81000000022073
 31
0.0
  0
LINE
  8
DETAIL
  6
CONTINUOUS
 62
     5
 10
-118.1799999998975
 20
325.0899999999674
 30
0.0
 11
-100.009999999972
 21
327.10888888887371
 31
0.0
  0
LINE
  8
DETAIL
  6
CONTINUOUS
 62
     5
 10
-118.4699999999348
 20
327.40999999997439
 30
0.0
 11
-100.009999999972
 21
329.42906249999203
 31
0.0
  0
LINE
  8
DETAIL
  6
CONTINUOUS
 62
     5
 10
-118.4699999999348
 20
348.28999999997899
 30
0.0
 11
-100.009999999972
 21
350.59749999997439
 31
0.0
  0
LINE
  8
DETAIL
  6
CONTINUOUS
 62
     5
 10
-118.1799999998975
 20
334.0800000000163
 30
0.0
 11
-100.009999999972
 21
336.09888888886468
 31
0.0
  0
ARC
  8
DETAIL
  6
CONTINUOUS
 62
     5
 10
-113.0357278645361
 20
165.4956761749975
 30
0.0
 40
81.241887160448371
 50
93.817107773328487
 51
138.7857244500081
  0
ARC
  8
DETAIL
  6
CONTINUOUS
 62
     5
 10
-113.0357278645361
 20
165.4956761749975
 30
0.0
 40
81.241887160448371
 50
142.10871703217981
 51
161.3244795986233
  0
LINE
  8
DETAIL
  6
CONTINUOUS
 62
     5
 10
-100.009999999972
 20
268.53062499997043
 30
0.0
 11
-118.4699999999375
 21
266.79999999998842
 31
0.0
  0
LINE
  8
DETAIL
  6
CONTINUOUS
 62
     5
 10
-100.009999999972
 20
301.29888888887638
 30
0.0
 11
-118.1799999998975
 21
299.28000000002788
 31
0.0
  0
LINE
  8
DETAIL
  6
CONTINUOUS
 62
     5
 10
-100.009999999972
 20
245.91047619045099
 30
0.0
 11
-118.1799999998975
 21
244.17999999999299
 31
0.0
  0
LINE
  8
DETAIL
  6
CONTINUOUS
 62
     5
 10
-100.009999999972
 20
248.2306249999821
 30
0.0
 11
-118.444148799812
 21
246.55733919999309
 31
0.0
  0
ARC
  8
DETAIL
  6
CONTINUOUS
 62
     5
 10
-113.50071032577399
 20
166.3963929314659
 30
0.0
 40
77.924227814239629
 50
93.44263838327862
 51
141.10619825554701
  0
ARC
  8
DETAIL
  6
CONTINUOUS
 62
     5
 10
-113.50071032577399
 20
166.3963929314659
 30
0.0
 40
77.924227814239629
 50
144.76672719535171
 51
162.7286993895606
  0
LINE
  8
SIZE
  6
CONTINUOUS
 62
    30
 10
-193.0
 20
237.74945986718009
 30
0.0
 11
-193.0
 21
439.95046510147989
 31
0.0
  0
LINE
  8
SIZE
  6
CONTINUOUS
 62
    30
 10
0.0000000000000012
 20
384.0
 30
0.0
 11
0.0000000000000047
 21
439.95046510147989
 31
0.0
  0
LINE
  8
SIZE
  6
CONTINUOUS
 62
    30
 10
-181.0
 20
419.95046510147989
 30
0.0
 11
-12.0
 21
419.95046510147989
 31
0.0
  0
CIRCLE
  8
SIZE
  6
CONTINUOUS
 62
    30
 10
-193.0
 20
419.95046510147989
 30
0.0
 40
6.0
  0
LINE
  8
SIZE
  6
CONTINUOUS
 62
    30
 10
-193.0
 20
419.95046510147989
 30
0.0
 11
-181.0
 21
419.95046510147989
 31
0.0
  0
CIRCLE
  8
SIZE
  6
CONTINUOUS
 62
    30
 10
0.0000000000000034
 20
419.95046510147989
 30
0.0
 40
6.0
  0
LINE
  8
SIZE
  6
CONTINUOUS
 62
    30
 10
0.0000000000000034
 20
419.95046510147989
 30
0.0
 11
-11.999999999999996
 21
419.95046510147989
 31
0.0
  0
TEXT
  8
SIZE
  6
CONTINUOUS
 62
    30
 10
-171.09200000000001
 20
444.95046510147989
 30
0.0
 40
64.0
  1
193
 50
0.0
 41
0.9
 51
0.0
  7
STANDARD
 71
     0
 72
     1
 11
-96.5
 21
444.95046510147989
 31
0.0
210
0.0
220
0.0
230
1.0
  0
POINT
  8
DEFPOINTS
  6
CONTINUOUS
 62
    30
 10
-193.0
 20
217.74945986718009
 30
0.0
  0
POINT
  8
DEFPOINTS
  6
CONTINUOUS
 62
    30
 10
0.0
 20
364.0
 30
0.0
  0
POINT
  8
DEFPOINTS
  6
CONTINUOUS
 62
    30
 10
0.0000000000000034
 20
419.95046510147989
 30
0.0
  0
LINE
  8
SIZE
  6
CONTINUOUS
 62
    30
 10
18.5
 20
365.50000000000011
 30
0.0
 11
211.01938863652339
 21
365.50000000000023
 31
0.0
  0
LINE
  8
SIZE
  6
CONTINUOUS
 62
    30
 10
18.5
 20
-365.50000000000011
 30
0.0
 11
211.01938863652359
 21
-365.50000000000011
 31
0.0
  0
LINE
  8
SIZE
  6
CONTINUOUS
 62
    30
 10
191.01938863652339
 20
353.50000000000023
 30
0.0
 11
191.01938863652359
 21
-353.50000000000011
 31
0.0
  0
CIRCLE
  8
SIZE
  6
CONTINUOUS
 62
    30
 10
191.01938863652339
 20
365.50000000000023
 30
0.0
 40
6.0
  0
LINE
  8
SIZE
  6
CONTINUOUS
 62
    30
 10
191.01938863652339
 20
365.50000000000023
 30
0.0
 11
191.01938863652339
 21
353.50000000000023
 31
0.0
  0
CIRCLE
  8
SIZE
  6
CONTINUOUS
 62
    30
 10
191.01938863652359
 20
-365.50000000000011
 30
0.0
 40
6.0
  0
LINE
  8
SIZE
  6
CONTINUOUS
 62
    30
 10
191.01938863652359
 20
-365.50000000000011
 30
0.0
 11
191.01938863652359
 21
-353.50000000000011
 31
0.0
  0
TEXT
  8
SIZE
  6
CONTINUOUS
 62
    30
 10
166.01938863652339
 20
-109.152
 30
0.0
 40
64.0
  1
φ731
 50
90.0
 41
0.9
 51
0.0
  7
STANDARD
 71
     0
 72
     1
 11
166.01938863652339
 21
-0.0000000000000067
 31
0.0
210
0.0
220
0.0
230
1.0
  0
POINT
  8
DEFPOINTS
  6
CONTINUOUS
 62
    30
 10
-1.5000000000000011
 20
365.50000000000011
 30
0.0
  0
POINT
  8
DEFPOINTS
  6
CONTINUOUS
 62
    30
 10
-1.5000000000000011
 20
-365.50000000000011
 30
0.0
  0
POINT
  8
DEFPOINTS
  6
CONTINUOUS
 62
    30
 10
191.01938863652359
 20
-365.50000000000011
 30
0.0
  0
LINE
  8
DETAIL
  6
CONTINUOUS
 62
     5
 10
-97.009999999972024
 20
347.13000000000471
 30
0.0
 11
-3.1899999999441211
 21
358.72999999998137
 31
0.0
  0
LINE
  8
DETAIL
  6
CONTINUOUS
 62
     5
 10
-97.009999999972024
 20
269.11999999999529
 30
0.0
 11
-6.0899999998509884
 21
277.53000000002788
 31
0.0
  0
LINE
  8
DETAIL
  6
CONTINUOUS
 62
     5
 10
-118.1799999998975
 20
264.77000000001863
 30
0.0
 11
-6.0899999998509884
 21
275.21000000002101
 31
0.0
  0
LINE
  8
DETAIL
  6
CONTINUOUS
 62
     5
 10
-97.009999999972024
 20
225.9100000000326
 30
0.0
 11
-6.0899999998509884
 21
233.15999999997439
 31
0.0
  0
LINE
  8
DETAIL
  6
CONTINUOUS
 62
     5
 10
-97.009999999972024
 20
223.59000000002561
 30
0.0
 11
-6.0899999998509884
 21
230.8399999999674
 31
0.0
  0
LINE
  8
DETAIL
  6
CONTINUOUS
 62
     5
 10
-100.009999999972
 20
303.61906249999441
 30
0.0
 11
-118.4699999999348
 21
301.59999999997672
 31
0.0
  0
LINE
  8
DETAIL
  6
CONTINUOUS
 62
     5
 10
-100.009999999972
 20
315.22047619044872
 30
0.0
 11
-118.1799999998975
 21
313.48999999999069
 31
0.0
  0
ARC
  8
DETAIL
  6
CONTINUOUS
 62
     5
 10
-108.4344458878204
 20
71.730324940368519
 30
0.0
 40
101.02934184648529
 50
95.700766660371954
 51
130.57629916825019
  0
ARC
  8
DETAIL
  6
CONTINUOUS
 62
     5
 10
-108.4344458878204
 20
71.730324940368519
 30
0.0
 40
101.02934184648529
 50
132.8557116914111
 51
141.87549692401711
  0
ARC
  8
DETAIL
  6
CONTINUOUS
 62
     5
 10
-114.8263789142857
 20
83.122623184290887
 30
0.0
 40
91.529928158113265
 50
92.28143177993195
 51
130.40103004925129
  0
ARC
  8
DETAIL
  6
CONTINUOUS
 62
     5
 10
-114.8263789142857
 20
83.122623184290887
 30
0.0
 40
91.529928158113265
 50
132.91477558557969
 51
145.21524120938039
  0
LINE
  8
DETAIL
  6
CONTINUOUS
 62
     5
 10
-118.4699999999348
 20
172.26000000000931
 30
0.0
 11
-100.009999999972
 21
173.41374999997799
 31
0.0
  0
LINE
  8
DETAIL
  6
CONTINUOUS
 62
     5
 10
-118.4699999999348
 20
174.5800000000163
 30
0.0
 11
-100.009999999972
 21
175.73374999998501
 31
0.0
  0
ARC
  8
DETAIL
  6
CONTINUOUS
 62
     5
 10
-108.6876502051182
 20
33.804580171204982
 30
0.0
 40
112.2026686197901
 50
95.001662285865962
 51
125.6921205517227
  0
ARC
  8
DETAIL
  6
CONTINUOUS
 62
     5
 10
-108.6876502051182
 20
33.804580171204982
 30
0.0
 40
112.2026686197901
 50
127.6015688777162
 51
134.9165702778694
  0
ARC
  8
DETAIL
  6
CONTINUOUS
 62
     5
 10
-111.1327828376843
 20
38.981985837045158
 30
0.0
 40
109.16486873019289
 50
93.853883999347062
 51
125.25850867130239
  0
ARC
  8
DETAIL
  6
CONTINUOUS
 62
     5
 10
-111.1327828376843
 20
38.981985837045158
 30
0.0
 40
109.16486873019289
 50
127.210697888764
 51
136.25793213140321
  0
LINE
  8
DETAIL
  6
CONTINUOUS
 62
     5
 10
-118.4699999999348
 20
145.57999999995809
 30
0.0
 11
-100.009999999972
 21
146.44531250000699
 31
0.0
  0
LINE
  8
DETAIL
  6
CONTINUOUS
 62
     5
 10
-118.4699999999348
 20
147.8999999999651
 30
0.0
 11
-100.009999999972
 21
148.76531250001401
 31
0.0
  0
ARC
  8
DETAIL
  6
CONTINUOUS
 62
     5
 10
-188.95565311140669
 20
10.89113567474806
 30
0.0
 40
1.0543152222771821
 50
187.88508629280579
 51
352.11491370719421
  0
ARC
  8
DETAIL
  6
CONTINUOUS
 62
     5
 10
-98.509999999972024
 20
269.35821496145951
 30
0.0
 40
1.5
 50
180.0
 51
0.0
  0
ARC
  8
DETAIL
  6
CONTINUOUS
 62
     5
 10
-98.509999999972024
 20
249.41073167675131
 30
0.0
 40
1.5
 50
0.0
 51
180.0
  0
LINE
  8
DETAIL
  6
CONTINUOUS
 62
     5
 10
-97.009999999972024
 20
318.13000000000471
 30
0.0
 11
-3.1899999999441211
 21
328.57000000000698
 31
0.0
  0
LINE
  8
DETAIL
  6
CONTINUOUS
 62
     5
 10
-97.009999999972024
 20
315.80999999999767
 30
0.0
 11
-3.1899999999441211
 21
326.25
 31
0.0
  0
ARC
  8
DETAIL
  6
CONTINUOUS
 62
     5
 10
-115.7488754503684
 20
191.31790693642171
 30
0.0
 40
73.492314849912205
 50
91.895689275443488
 51
142.62279608232629
  0
ARC
  8
DETAIL
  6
CONTINUOUS
 62
     5
 10
-115.7488754503684
 20
191.31790693642171
 30
0.0
 40
73.492314849912205
 50
146.66551928399511
 51
169.0835697713465
  0
ARC
  8
DETAIL
  6
CONTINUOUS
 62
     5
 10
-114.60420291849729
 20
189.44532340713039
 30
0.0
 40
77.451212888246602
 50
92.86097427307817
 51
140.24776106982611
  0
ARC
  8
DETAIL
  6
CONTINUOUS
 62
     5
 10
-114.60420291849729
 20
189.44532340713039
 30
0.0
 40
77.451212888246602
 50
143.8573337657094
 51
166.77064953986391
  0
LINE
  8
DETAIL
  6
CONTINUOUS
 62
     5
 10
-97.009999999972024
 20
201.84000000002561
 30
0.0
 11
-3.1899999999441211
 21
208.2200000000303
 31
0.0
  0
LINE
  8
DETAIL
  6
CONTINUOUS
 62
     5
 10
-97.009999999972024
 20
199.5200000000186
 30
0.0
 11
-3.1899999999441211
 21
206.1900000000023
 31
0.0
  0
ARC
  8
DETAIL
  6
CONTINUOUS
 62
     5
 10
-116.2185820053601
 20
4.4555238555660708
 30
0.0
 40
113.0169037009242
 50
91.141468916161884
 51
120.8365520552786
  0
ARC
  8
DETAIL
  6
CONTINUOUS
 62
     5
 10
-116.2185820053601
 20
4.4555238555660708
 30
0.0
 40
113.0169037009242
 50
122.62480381063141
 51
129.3720878385779
  0
ARC
  8
DETAIL
  6
CONTINUOUS
 62
     5
 10
-113.9880579789842
 20
1.128253779420902
 30
0.0
 40
118.7939319063246
 50
92.289707588184314
 51
120.42695770621511
  0
ARC
  8
DETAIL
  6
CONTINUOUS
 62
     5
 10
-113.9880579789842
 20
1.128253779420902
 30
0.0
 40
118.7939319063246
 50
122.11993831008169
 51
129.78166750654009
  0
LINE
  8
DETAIL
  6
CONTINUOUS
 62
     5
 10
-118.4699999999393
 20
117.4500000000115
 30
0.0
 11
-100.009999999972
 21
118.31531250000261
 31
0.0
  0
LINE
  8
DETAIL
  6
CONTINUOUS
 62
     5
 10
-118.7341487998565
 20
119.8273392000104
 30
0.0
 11
-100.009999999972
 21
120.63531250000941
 31
0.0
  0
LINE
  8
DETAIL
  6
CONTINUOUS
 62
     5
 10
-187.91130622281341
 20
10.74649762923082
 30
0.0
 11
-187.91130622281429
 21
21.917742684528552
 31
0.0
  0
LINE
  8
DETAIL
  6
CONTINUOUS
 62
     5
 10
-187.91130622281341
 20
24.072568929371869
 30
0.0
 11
-187.9113062228125
 21
45.959701668081152
 31
0.0
  0
LINE
  8
DETAIL
  6
CONTINUOUS
 62
     5
 10
-187.9113062228125
 20
47.718501836017822
 30
0.0
 11
-187.9113062228125
 21
69.526511893867564
 31
0.0
  0
LINE
  8
DETAIL
  6
CONTINUOUS
 62
     5
 10
-187.91130622281341
 20
71.303879251440549
 30
0.0
 11
-187.91130622281341
 21
91.822415848037053
 31
0.0
  0
LINE
  8
DETAIL
  6
CONTINUOUS
 62
     5
 10
-187.91130622281341
 20
94.119391135868568
 30
0.0
 11
-187.91130622281341
 21
113.2592916274323
 31
0.0
  0
LINE
  8
DETAIL
  6
CONTINUOUS
 62
     5
 10
-187.91130622281341
 20
116.58370560973709
 30
0.0
 11
-187.91130622281341
 21
134.10304802687489
 31
0.0
  0
LINE
  8
DETAIL
  6
CONTINUOUS
 62
     5
 10
-187.91130622281341
 20
244.81836252092751
 30
0.0
 11
-187.91130622281341
 21
246.18117624990961
 31
0.0
  0
ARC
  8
DETAIL
  6
CONTINUOUS
 62
     5
 10
-4.5
 20
223.13026670736829
 30
0.0
 40
1.5
 50
180.0
 51
0.0
  0
LINE
  8
DETAIL
  6
CONTINUOUS
 62
     5
 10
-187.91130622281341
 20
138.22544660502439
 30
0.0
 11
-187.91130622281341
 21
154.08342310312881
 31
0.0
  0
LINE
  8
DETAIL
  6
CONTINUOUS
 62
     5
 10
-187.9113062228125
 20
158.1404585655298
 30
0.0
 11
-187.9113062228125
 21
172.54955798756109
 31
0.0
  0
LINE
  8
DETAIL
  6
CONTINUOUS
 62
     5
 10
-187.91130622281341
 20
197.02172881253071
 30
0.0
 11
-187.91130622281341
 21
205.23566275446419
 31
0.0
  0
LINE
  8
DETAIL
  6
CONTINUOUS
 62
     5
 10
-187.9113062228125
 20
178.5067566042419
 30
0.0
 11
-187.91130622281341
 21
189.5318310879625
 31
0.0
  0
LINE
  8
DETAIL
  6
CONTINUOUS
 62
     5
 10
-187.91130622281341
 20
214.4405026021424
 30
0.0
 11
-187.91130622281429
 21
219.69963504458599
 31
0.0
  0
LINE
  8
DETAIL
  6
CONTINUOUS
 62
     5
 10
-187.91130622281341
 20
229.5846792360777
 30
0.0
 11
-187.91130622281341
 21
233.7587666478498
 31
0.0
  0
LINE
  8
DETAIL
  6
CONTINUOUS
 62
     5
 10
-97.009999999972024
 20
148.7700000000186
 30
0.0
 11
-3.1899999999441211
 21
153.98999999999069
 31
0.0
  0
ARC
  8
DETAIL
  6
CONTINUOUS
 62
     5
 10
-127.0909579440595
 20
-230.44780412946619
 30
0.0
 40
259.59099364861572
 50
88.096870241816291
 51
100.4444118557184
  0
ARC
  8
DETAIL
  6
CONTINUOUS
 62
     5
 10
-127.0909579440595
 20
-230.44780412946619
 30
0.0
 40
259.59099364861572
 50
101.1184608192211
 51
103.5499502208839
  0
ARC
  8
DETAIL
  6
CONTINUOUS
 62
     5
 10
-122.98712267367139
 20
-261.69903170947401
 30
0.0
 40
293.05384717012453
 50
89.116809702774447
 51
100.05452276515931
  0
ARC
  8
DETAIL
  6
CONTINUOUS
 62
     5
 10
-122.98712267367139
 20
-261.69903170947401
 30
0.0
 40
293.05384717012453
 50
100.65077054287509
 51
103.21883276377091
  0
ARC
  8
DETAIL
  6
CONTINUOUS
 62
     5
 10
-4.5
 20
316.20339715569412
 30
0.0
 40
1.5
 50
0.0
 51
180.0
  0
LINE
  8
DETAIL
  6
CONTINUOUS
 62
     5
 10
-118.4699999999348
 20
29.0
 30
0.0
 11
-100.009999999972
 21
29.2884374999777
 31
0.0
  0
LINE
  8
DETAIL
  6
CONTINUOUS
 62
     5
 10
-6.0
 20
316.20339715569412
 30
0.0
 11
-6.0
 21
223.13026670736829
 31
0.0
  0
LINE
  8
DETAIL
  6
CONTINUOUS
 62
     5
 10
-97.009999999972024
 20
285.35999999998597
 30
0.0
 11
-6.0899999998509884
 21
294.64000000001403
 31
0.0
  0
LINE
  8
DETAIL
  6
CONTINUOUS
 62
     5
 10
-97.009999999972024
 20
173.70999999996269
 30
0.0
 11
-3.1899999999441211
 21
179.51000000000931
 31
0.0
  0
LINE
  8
DETAIL
  6
CONTINUOUS
 62
     5
 10
-97.009999999972024
 20
327.40999999997439
 30
0.0
 11
-3.1899999999441211
 21
338.42999999999302
 31
0.0
  0
LINE
  8
DETAIL
  6
CONTINUOUS
 62
     5
 10
-118.4699999999348
 20
31.320000000006981
 30
0.0
 11
-100.009999999972
 21
31.608437499984689
 31
0.0
  0
LINE
  8
DETAIL
  6
CONTINUOUS
 62
     5
 10
-97.009999999972024
 20
287.39000000001403
 30
0.0
 11
-6.0899999998509884
 21
296.6699999999837
 31
0.0
  0
LINE
  8
DETAIL
  6
CONTINUOUS
 62
     5
 10
-97.009999999972024
 20
176.0299999999697
 30
0.0
 11
-3.1899999999441211
 21
181.8300000000163
 31
0.0
  0
LINE
  8
DETAIL
  6
CONTINUOUS
 62
     5
 10
-97.009999999972024
 20
146.45000000001161
 30
0.0
 11
-3.1899999999441211
 21
151.38000000000471
 31
0.0
  0
ARC
  8
DETAIL
  6
CONTINUOUS
 62
     5
 10
-106.67941788088589
 20
258.70666476914158
 30
0.0
 40
82.845472084351925
 50
148.27991352968559
 51
165.25994618320209
  0
LINE
  8
DETAIL
  6
CONTINUOUS
 62
     5
 10
-97.009999999972024
 20
31.60999999998603
 30
0.0
 11
-3.1899999999441211
 21
32.769999999960419
 31
0.0
  0
LINE
  8
DETAIL
  6
CONTINUOUS
 62
     5
 10
-97.009999999972024
 20
61.770000000018626
 30
0.0
 11
-3.1899999999441211
 21
63.799999999988358
 31
0.0
  0
ARC
  8
DETAIL
  6
CONTINUOUS
 62
     5
 10
-110.02588140827081
 20
256.66847488255701
 30
0.0
 40
80.177423482843679
 50
96.045482961838573
 51
143.10888337293761
  0
LINE
  8
DETAIL
  6
CONTINUOUS
 62
     5
 10
-118.1799999998975
 20
340.75
 30
0.0
 11
-100.009999999972
 21
342.7688888889063
 31
0.0
  0
ARC
  8
DETAIL
  6
CONTINUOUS
 62
     5
 10
-106.67941788088589
 20
258.70666476914158
 30
0.0
 40
82.845472084351925
 50
97.979552115316324
 51
144.52954389222381
  0
LINE
  8
DETAIL
  6
CONTINUOUS
 62
     5
 10
-118.4699999999348
 20
343.07000000000698
 30
0.0
 11
-100.009999999972
 21
345.08906249996681
 31
0.0
  0
ARC
  8
DETAIL
  6
CONTINUOUS
 62
     5
 10
-110.02588140827081
 20
256.66847488255701
 30
0.0
 40
80.177423482843679
 50
146.84506775990451
 51
175.91889932781251
  0
LINE
  8
DETAIL
  6
CONTINUOUS
 62
     5
 10
-97.009999999972024
 20
29.289999999979049
 30
0.0
 11
-3.1899999999441211
 21
30.450000000011642
 31
0.0
  0
LINE
  8
DETAIL
  6
CONTINUOUS
 62
     5
 10
-97.009999999972024
 20
59.450000000011642
 30
0.0
 11
-3.1899999999441211
 21
61.479999999981374
 31
0.0
  0
ARC
  8
DETAIL
  6
CONTINUOUS
 62
     5
 10
-114.0698325044023
 20
-62.257045931323262
 30
0.0
 40
151.06114442162831
 50
91.669169741669279
 51
113.4357752157548
  0
ARC
  8
DETAIL
  6
CONTINUOUS
 62
     5
 10
-114.0698325044023
 20
-62.257045931323262
 30
0.0
 40
151.06114442162831
 50
114.6819196592802
 51
119.2629509413398
  0
LINE
  8
DETAIL
  6
CONTINUOUS
 62
     5
 10
-118.1799999998975
 20
344.52000000001863
 30
0.0
 11
-100.009999999972
 21
346.82730158725752
 31
0.0
  0
ARC
  8
DETAIL
  6
CONTINUOUS
 62
     5
 10
-116.83421875287701
 20
-143.13743049625299
 30
0.0
 40
202.0140533625929
 50
90.46394983087373
 51
106.4824567311228
  0
ARC
  8
DETAIL
  6
CONTINUOUS
 62
     5
 10
-116.83421875287701
 20
-143.13743049625299
 30
0.0
 40
202.0140533625929
 50
107.3718665863516
 51
110.60003936950299
  0
ARC
  8
DETAIL
  6
CONTINUOUS
 62
     5
 10
-108.88464263866631
 20
262.36092730343807
 30
0.0
 40
81.276278773595848
 50
96.772968488434032
 51
143.41814175239861
  0
ARC
  8
DETAIL
  6
CONTINUOUS
 62
     5
 10
-108.88464263866631
 20
262.36092730343807
 30
0.0
 40
81.276278773595848
 50
147.13139389250989
 51
176.39392857586631
  0
ARC
  8
DETAIL
  6
CONTINUOUS
 62
     5
 10
-119.18630220552591
 20
-40.266455881856473
 30
0.0
 40
131.0384136768007
 50
89.686799492774796
 51
114.7996928415815
  0
ARC
  8
DETAIL
  6
CONTINUOUS
 62
     5
 10
-119.18630220552591
 20
-40.266455881856473
 30
0.0
 40
131.0384136768007
 50
116.25335879450481
 51
122.7111528491503
  0
LINE
  8
DETAIL
  6
CONTINUOUS
 62
     5
 10
-118.4699999999348
 20
88.739999999990687
 30
0.0
 11
-100.009999999972
 21
89.316875000003961
 31
0.0
  0
ARC
  8
DETAIL
  6
CONTINUOUS
 62
     5
 10
-114.5926303469014
 20
-140.16857787872749
 30
0.0
 40
201.68585214618309
 50
91.101567617406658
 51
107.17539003387481
  0
ARC
  8
DETAIL
  6
CONTINUOUS
 62
     5
 10
-114.5926303469014
 20
-140.16857787872749
 30
0.0
 40
201.68585214618309
 50
108.069615890786
 51
111.95543257839709
  0
LINE
  8
DETAIL
  6
CONTINUOUS
 62
     5
 10
-118.4699999999348
 20
90.770000000018626
 30
0.0
 11
-100.009999999972
 21
91.635312500009604
 31
0.0
  0
LINE
  8
DETAIL
  6
CONTINUOUS
 62
     5
 10
-118.4699999999348
 20
58.869999999995343
 30
0.0
 11
-100.009999999972
 21
59.446875000008617
 31
0.0
  0
LINE
  8
DETAIL
  6
CONTINUOUS
 62
     5
 10
-118.4699999999348
 20
61.479999999981374
 30
0.0
 11
-100.009999999972
 21
61.768437500016937
 31
0.0
  0
LINE
  8
DETAIL
  6
CONTINUOUS
 62
     5
 10
-97.009999999972024
 20
120.640000000014
 30
0.0
 11
-3.1899999999441211
 21
124.7000000000116
 31
0.0
  0
ARC
  8
DETAIL
  6
CONTINUOUS
 62
     5
 10
-111.2325534428001
 20
138.05868536263961
 30
0.0
 40
84.078840514881563
 50
141.6278848198493
 51
155.7813065339989
  0
ARC
  8
DETAIL
  6
CONTINUOUS
 62
     5
 10
-111.2325534428001
 20
138.05868536263961
 30
0.0
 40
84.078840514881563
 50
94.739762530626393
 51
138.44461676845029
  0
LINE
  8
DETAIL
  6
CONTINUOUS
 62
     5
 10
-97.010006416705437
 20
338.72000172285652
 30
0.0
 11
-3.1900064166775342
 21
350.03000172279599
 31
0.0
  0
LINE
  8
DETAIL
  6
CONTINUOUS
 62
     5
 10
-97.009999999972024
 20
91.64000000001397
 30
0.0
 11
-3.1899999999441211
 21
94.539999999979045
 31
0.0
  0
LINE
  8
DETAIL
  6
CONTINUOUS
 62
     5
 10
-100.009999999972
 20
225.6121874999881
 30
0.0
 11
-118.4699999999348
 21
224.1699999999837
 31
0.0
  0
ARC
  8
DETAIL
  6
CONTINUOUS
 62
     5
 10
-110.45739071797109
 20
204.26863735114799
 30
0.0
 40
81.486262668935751
 50
144.93014979777089
 51
167.46074044903111
  0
ARC
  8
DETAIL
  6
CONTINUOUS
 62
     5
 10
-112.3574808616186
 20
139.242289470385
 30
0.0
 40
85.147395180449067
 50
139.54761376554151
 51
155.76369385304571
  0
ARC
  8
DETAIL
  6
CONTINUOUS
 62
     5
 10
-106.35658318323659
 20
263.87579623047941
 30
0.0
 40
83.843866645570429
 50
98.306930022245638
 51
143.95619723468531
  0
ARC
  8
DETAIL
  6
CONTINUOUS
 62
     5
 10
-110.45739071797109
 20
204.26863735114799
 30
0.0
 40
81.486262668935751
 50
95.643058530260362
 51
141.41062555229689
  0
LINE
  8
DETAIL
  6
CONTINUOUS
 62
     5
 10
-97.009999999972024
 20
89.320000000006985
 30
0.0
 11
-3.1899999999441211
 21
92.21999999997206
 31
0.0
  0
ARC
  8
DETAIL
  6
CONTINUOUS
 62
     5
 10
-106.35658318323659
 20
263.87579623047941
 30
0.0
 40
83.843866645570429
 50
147.60216664956189
 51
176.03729823873019
  0
LINE
  8
DETAIL
  6
CONTINUOUS
 62
     5
 10
-97.009999999972024
 20
118.320000000007
 30
0.0
 11
-3.1899999999441211
 21
122.3800000000047
 31
0.0
  0
LINE
  8
DETAIL
  6
CONTINUOUS
 62
     5
 10
-118.4699999999348
 20
336.40000000002328
 30
0.0
 11
-100.009999999972
 21
338.41906249998311
 31
0.0
  0
LINE
  8
DETAIL
  6
CONTINUOUS
 62
     5
 10
-100.009999999972
 20
284.77047619049489
 30
0.0
 11
-118.1799999998975
 21
283.03999999997899
 31
0.0
  0
ARC
  8
DETAIL
  6
CONTINUOUS
 62
     5
 10
-112.3574808616186
 20
139.242289470385
 30
0.0
 40
85.147395180449067
 50
94.116662122013139
 51
136.52814207378049
  0
LINE
  8
DETAIL
  6
CONTINUOUS
 62
     5
 10
-100.009999999972
 20
223.29206349204469
 30
0.0
 11
-118.1799999998975
 21
221.8500000000349
 31
0.0
  0
ARC
  8
DETAIL
  6
CONTINUOUS
 62
     5
 10
-111.6139278767596
 20
205.7576976408775
 30
0.0
 40
77.560734660328592
 50
94.8563109695923
 51
143.7345567196827
  0
ARC
  8
DETAIL
  6
CONTINUOUS
 62
     5
 10
-111.6139278767596
 20
205.7576976408775
 30
0.0
 40
77.560734660328592
 50
147.66813909516199
 51
169.6445047561098
  0
LINE
  8
DETAIL
  6
CONTINUOUS
 62
     5
 10
-100.009999999972
 20
287.37906249994552
 30
0.0
 11
-118.4699999999348
 21
285.35999999998597
 31
0.0
  0
ARC
  8
DETAIL
  6
CONTINUOUS
 62
     5
 10
-175.64999999986961
 20
316.6075452804962
 30
0.0
 40
1.5
 50
0.0
 51
180.0
  0
ARC
  8
DETAIL
  6
CONTINUOUS
 62
     5
 10
-1.5
 20
-364.0
 30
0.0
 40
1.5
 50
180.0
 51
0.0
  0
LINE
  8
DETAIL
  6
CONTINUOUS
 62
     5
 10
0.0
 20
-364.0
 30
0.0
 11
0.0
 21
-278.36439612064851
 31
0.0
  0
ARC
  8
DETAIL
  6
CONTINUOUS
 62
     5
 10
-191.5
 20
-217.74945986718009
 30
0.0
 40
1.5
 50
180.0
 51
0.0
  0
ARC
  8
DETAIL
  6
CONTINUOUS
 62
     5
 10
-98.509999999972024
 20
-352.03286561101231
 30
0.0
 40
1.5
 50
180.0
 51
0.0
  0
ARC
  8
DETAIL
  6
CONTINUOUS
 62
     5
 10
-1.5
 20
-235.0151280869577
 30
0.0
 40
1.5
 50
180.0
 51
0.0
  0
ARC
  8
DETAIL
  6
CONTINUOUS
 62
     5
 10
-1.5
 20
-278.36439612064851
 30
0.0
 40
1.5
 50
0.0
 51
180.0
  0
ARC
  8
DETAIL
  6
CONTINUOUS
 62
     5
 10
-111.540255133732
 20
-237.16986512674069
 30
0.0
 40
78.944867957338047
 50
217.5255413671739
 51
264.9641210526313
  0
ARC
  8
DETAIL
  6
CONTINUOUS
 62
     5
 10
-111.540255133732
 20
-237.16986512674069
 30
0.0
 40
78.944867957338047
 50
186.35512798857181
 51
213.78984110883741
  0
ARC
  8
DETAIL
  6
CONTINUOUS
 62
     5
 10
-110.6085197367011
 20
-235.87111842097369
 30
0.0
 40
77.98729442001067
 50
215.43566206300989
 51
264.42860180952169
  0
ARC
  8
DETAIL
  6
CONTINUOUS
 62
     5
 10
-110.6085197367011
 20
-235.87111842097369
 30
0.0
 40
77.98729442001067
 50
187.59684237316361
 51
211.43472374062341
  0
ARC
  8
DETAIL
  6
CONTINUOUS
 62
     5
 10
-109.9769417486395
 20
-246.96456310792419
 30
0.0
 40
78.554911076559407
 50
215.222373015161
 51
264.00598874546529
  0
ARC
  8
DETAIL
  6
CONTINUOUS
 62
     5
 10
-109.9769417486395
 20
-246.96456310792419
 30
0.0
 40
78.554911076559407
 50
187.70925268838829
 51
211.2281554467003
  0
ARC
  8
DETAIL
  6
CONTINUOUS
 62
     5
 10
-108.38949221843809
 20
-245.91906005530711
 30
0.0
 40
82.112057154830737
 50
216.7874087681742
 51
262.9482795766246
  0
ARC
  8
DETAIL
  6
CONTINUOUS
 62
     5
 10
-108.38949221843809
 20
-245.91906005530711
 30
0.0
 40
82.112057154830737
 50
186.3359584086204
 51
213.1335885993075
  0
ARC
  8
DETAIL
  6
CONTINUOUS
 62
     5
 10
-106.3782930516163
 20
-265.36699395806448
 30
0.0
 40
83.799966037889277
 50
216.0277796016008
 51
261.70368817361862
  0
ARC
  8
DETAIL
  6
CONTINUOUS
 62
     5
 10
-106.3782930516163
 20
-265.36699395806448
 30
0.0
 40
83.799966037889277
 50
183.73782157772601
 51
212.37823052289011
  0
ARC
  8
DETAIL
  6
CONTINUOUS
 62
     5
 10
-109.9050371402391
 20
-267.53886722381748
 30
0.0
 40
77.424607288870533
 50
214.4047016932719
 51
263.86464110892013
  0
ARC
  8
DETAIL
  6
CONTINUOUS
 62
     5
 10
-110.2120557435519
 20
-256.57917462263367
 30
0.0
 40
77.909345202278374
 50
214.8479748873776
 51
264.12998279812763
  0
ARC
  8
DETAIL
  6
CONTINUOUS
 62
     5
 10
-110.2120557435519
 20
-256.57917462263367
 30
0.0
 40
77.909345202278374
 50
189.5474540158763
 51
210.77565981028229
  0
ARC
  8
DETAIL
  6
CONTINUOUS
 62
     5
 10
-111.9001254131163
 20
-222.73004596199209
 30
0.0
 40
76.807110921132519
 50
215.85810325694791
 51
265.31016851616818
  0
ARC
  8
DETAIL
  6
CONTINUOUS
 62
     5
 10
-111.9001254131163
 20
-222.73004596199209
 30
0.0
 40
76.807110921132519
 50
188.25562840624221
 51
211.8395131462845
  0
ARC
  8
DETAIL
  6
CONTINUOUS
 62
     5
 10
-113.1923175238953
 20
-224.29307398967421
 30
0.0
 40
77.486868187327559
 50
218.12329930425111
 51
266.09452248841041
  0
ARC
  8
DETAIL
  6
CONTINUOUS
 62
     5
 10
-113.1923175238953
 20
-224.29307398967421
 30
0.0
 40
77.486868187327559
 50
187.59163954830689
 51
214.37090571013329
  0
ARC
  8
DETAIL
  6
CONTINUOUS
 62
     5
 10
-104.5513331215907
 20
-98.544132994500046
 30
0.0
 40
100.167349277132
 50
225.98681513563011
 51
262.18014026524042
  0
ARC
  8
DETAIL
  6
CONTINUOUS
 62
     5
 10
-104.5513331215907
 20
-98.544132994500046
 30
0.0
 40
100.167349277132
 50
213.67387375849449
 51
223.54996898752711
  0
ARC
  8
DETAIL
  6
CONTINUOUS
 62
     5
 10
-103.37317348020591
 20
-96.674360237243263
 30
0.0
 40
104.5216586708669
 50
227.37867749172611
 51
261.69530396282738
  0
ARC
  8
DETAIL
  6
CONTINUOUS
 62
     5
 10
-103.37317348020591
 20
-96.674360237243263
 30
0.0
 40
104.5216586708669
 50
214.02504385495311
 51
225.10157935999649
  0
LINE
  8
DETAIL
  6
CONTINUOUS
 62
     5
 10
-118.1799999998975
 20
-197.7799999999697
 30
0.0
 11
-100.009999999972
 21
-199.22206349203739
 31
0.0
  0
LINE
  8
DETAIL
  6
CONTINUOUS
 62
     5
 10
-118.4699999999348
 20
-200.1000000000349
 30
0.0
 11
-100.009999999972
 21
-201.5421874999814
 31
0.0
  0
LINE
  8
DETAIL
  6
CONTINUOUS
 62
     5
 10
-97.009999999972024
 20
-350.89999999996508
 30
0.0
 11
-3.1899999999441211
 21
-362.5
 31
0.0
  0
LINE
  8
DETAIL
  6
CONTINUOUS
 62
     5
 10
-97.009999999972024
 20
-349.45000000001158
 30
0.0
 11
-3.1899999999441211
 21
-361.04999999998842
 31
0.0
  0
LINE
  8
DETAIL
  6
CONTINUOUS
 62
     5
 10
-6.0899999998509884
 20
-311.45999999996269
 30
0.0
 11
-97.009999999972024
 21
-301.59999999997672
 31
0.0
  0
LINE
  8
DETAIL
  6
CONTINUOUS
 62
     5
 10
-97.009999999972024
 20
-329.72999999998137
 30
0.0
 11
-3.1899999999441211
 21
-340.75
 31
0.0
  0
LINE
  8
DETAIL
  6
CONTINUOUS
 62
     5
 10
-97.009999999972024
 20
-336.40000000002328
 30
0.0
 11
-3.1899999999441211
 21
-347.70999999996269
 31
0.0
  0
LINE
  8
DETAIL
  6
CONTINUOUS
 62
     5
 10
-97.009999999972024
 20
-345.38999999995582
 30
0.0
 11
-3.1899999999441211
 21
-356.98999999999069
 31
0.0
  0
LINE
  8
DETAIL
  6
CONTINUOUS
 62
     5
 10
-97.009999999972024
 20
-343.35999999998597
 30
0.0
 11
-3.1899999999441211
 21
-354.6699999999837
 31
0.0
  0
LINE
  8
DETAIL
  6
CONTINUOUS
 62
     5
 10
-118.4699999999348
 20
-346.8399999999674
 30
0.0
 11
-100.009999999972
 21
-349.14749999996269
 31
0.0
  0
LINE
  8
DETAIL
  6
CONTINUOUS
 62
     5
 10
-6.0899999998509884
 20
-313.77999999996968
 30
0.0
 11
-97.009999999972024
 21
-303.9199999999837
 31
0.0
  0
LINE
  8
DETAIL
  6
CONTINUOUS
 62
     5
 10
-100.009999999972
 20
-317.82906249995739
 30
0.0
 11
-118.4699999978948
 21
-315.81000000022073
 31
0.0
  0
LINE
  8
DETAIL
  6
CONTINUOUS
 62
     5
 10
-118.1799999998975
 20
-325.0899999999674
 30
0.0
 11
-100.009999999972
 21
-327.10888888887371
 31
0.0
  0
LINE
  8
DETAIL
  6
CONTINUOUS
 62
     5
 10
-118.4699999999348
 20
-327.40999999997439
 30
0.0
 11
-100.009999999972
 21
-329.42906249999203
 31
0.0
  0
LINE
  8
DETAIL
  6
CONTINUOUS
 62
     5
 10
-118.4699999999348
 20
-348.28999999997899
 30
0.0
 11
-100.009999999972
 21
-350.59749999997439
 31
0.0
  0
LINE
  8
DETAIL
  6
CONTINUOUS
 62
     5
 10
-118.1799999998975
 20
-334.0800000000163
 30
0.0
 11
-100.009999999972
 21
-336.09888888886468
 31
0.0
  0
ARC
  8
DETAIL
  6
CONTINUOUS
 62
     5
 10
-113.0357278645361
 20
-165.4956761749975
 30
0.0
 40
81.241887160448371
 50
221.2142755499919
 51
266.18289222667153
  0
ARC
  8
DETAIL
  6
CONTINUOUS
 62
     5
 10
-113.0357278645361
 20
-165.4956761749975
 30
0.0
 40
81.241887160448371
 50
198.6755204013767
 51
217.89128296782019
  0
LINE
  8
DETAIL
  6
CONTINUOUS
 62
     5
 10
-100.009999999972
 20
-268.53062499997043
 30
0.0
 11
-118.4699999999375
 21
-266.79999999998842
 31
0.0
  0
LINE
  8
DETAIL
  6
CONTINUOUS
 62
     5
 10
-100.009999999972
 20
-301.29888888887638
 30
0.0
 11
-118.1799999998975
 21
-299.28000000002788
 31
0.0
  0
LINE
  8
DETAIL
  6
CONTINUOUS
 62
     5
 10
-97.009999999972024
 20
-246.19619047616359
 30
0.0
 11
-118.1799999998975
 21
-244.17999999999299
 31
0.0
  0
LINE
  8
DETAIL
  6
CONTINUOUS
 62
     5
 10
-100.009999999972
 20
-248.2306249999821
 30
0.0
 11
-118.444148799812
 21
-246.55733919999309
 31
0.0
  0
ARC
  8
DETAIL
  6
CONTINUOUS
 62
     5
 10
-113.50071032577399
 20
-166.3963929314659
 30
0.0
 40
77.924227814239629
 50
218.89380174445299
 51
266.55736161672138
  0
ARC
  8
DETAIL
  6
CONTINUOUS
 62
     5
 10
-113.50071032577399
 20
-166.3963929314659
 30
0.0
 40
77.924227814239629
 50
197.2713006104361
 51
215.23327280464829
  0
LINE
  8
DETAIL
  6
CONTINUOUS
 62
     5
 10
-97.009999999972024
 20
-347.13000000000471
 30
0.0
 11
-3.1899999999441211
 21
-358.72999999998137
 31
0.0
  0
LINE
  8
DETAIL
  6
CONTINUOUS
 62
     5
 10
-97.009999999972024
 20
-269.11999999999529
 30
0.0
 11
-6.0899999998509884
 21
-277.53000000002788
 31
0.0
  0
LINE
  8
DETAIL
  6
CONTINUOUS
 62
     5
 10
-118.1799999998975
 20
-264.77000000001863
 30
0.0
 11
-100.009999999972
 21
-266.46234365243362
 31
0.0
  0
LINE
  8
DETAIL
  6
CONTINUOUS
 62
     5
 10
-97.009999999972024
 20
-266.74176197699421
 30
0.0
 11
-6.0899999998509884
 21
-275.21000000002101
 31
0.0
  0
LINE
  8
DETAIL
  6
CONTINUOUS
 62
     5
 10
-97.009999999972024
 20
-225.9100000000326
 30
0.0
 11
-6.0899999998509884
 21
-233.15999999997439
 31
0.0
  0
LINE
  8
DETAIL
  6
CONTINUOUS
 62
     5
 10
-97.009999999972024
 20
-223.59000000002561
 30
0.0
 11
-6.0899999998509884
 21
-230.8399999999674
 31
0.0
  0
LINE
  8
DETAIL
  6
CONTINUOUS
 62
     5
 10
-100.009999999972
 20
-303.61906249999441
 30
0.0
 11
-118.4699999999348
 21
-301.59999999997672
 31
0.0
  0
LINE
  8
DETAIL
  6
CONTINUOUS
 62
     5
 10
-100.009999999972
 20
-315.22047619044872
 30
0.0
 11
-118.1799999998975
 21
-313.48999999999069
 31
0.0
  0
ARC
  8
DETAIL
  6
CONTINUOUS
 62
     5
 10
-108.4344458878204
 20
-71.730324940368519
 30
0.0
 40
101.02934184648529
 50
229.42370083174981
 51
264.29923333962802
  0
ARC
  8
DETAIL
  6
CONTINUOUS
 62
     5
 10
-108.4344458878204
 20
-71.730324940368519
 30
0.0
 40
101.02934184648529
 50
218.12450307598289
 51
227.1442883085889
  0
ARC
  8
DETAIL
  6
CONTINUOUS
 62
     5
 10
-114.8263789142857
 20
-83.122623184290887
 30
0.0
 40
91.529928158113265
 50
229.59896995074831
 51
267.71856822006811
  0
ARC
  8
DETAIL
  6
CONTINUOUS
 62
     5
 10
-114.8263789142857
 20
-83.122623184290887
 30
0.0
 40
91.529928158113265
 50
214.78475879061961
 51
227.0852244144204
  0
LINE
  8
DETAIL
  6
CONTINUOUS
 62
     5
 10
-118.4699999999348
 20
-172.26000000000931
 30
0.0
 11
-100.009999999972
 21
-173.41374999997811
 31
0.0
  0
LINE
  8
DETAIL
  6
CONTINUOUS
 62
     5
 10
-118.4699999999348
 20
-174.5800000000163
 30
0.0
 11
-100.009999999972
 21
-175.73374999998501
 31
0.0
  0
ARC
  8
DETAIL
  6
CONTINUOUS
 62
     5
 10
-108.6876502051182
 20
-33.804580171204982
 30
0.0
 40
112.2026686197901
 50
234.3078794482773
 51
264.99833771413398
  0
ARC
  8
DETAIL
  6
CONTINUOUS
 62
     5
 10
-108.6876502051182
 20
-33.804580171204982
 30
0.0
 40
112.2026686197901
 50
225.0834297221306
 51
232.39843112228371
  0
ARC
  8
DETAIL
  6
CONTINUOUS
 62
     5
 10
-111.1327828376843
 20
-38.981985837045158
 30
0.0
 40
109.16486873019289
 50
234.74149132869761
 51
266.14611600065291
  0
ARC
  8
DETAIL
  6
CONTINUOUS
 62
     5
 10
-111.1327828376843
 20
-38.981985837045158
 30
0.0
 40
109.16486873019289
 50
223.74206786859679
 51
232.789302111236
  0
LINE
  8
DETAIL
  6
CONTINUOUS
 62
     5
 10
-118.4699999999348
 20
-145.57999999995809
 30
0.0
 11
-100.009999999972
 21
-146.44531250000699
 31
0.0
  0
LINE
  8
DETAIL
  6
CONTINUOUS
 62
     5
 10
-118.4699999999348
 20
-147.8999999999651
 30
0.0
 11
-100.009999999972
 21
-148.76531250001401
 31
0.0
  0
ARC
  8
DETAIL
  6
CONTINUOUS
 62
     5
 10
-188.95565311140669
 20
-10.89113567474806
 30
0.0
 40
1.0543152222771821
 50
7.8850862928058083
 51
172.11491370719421
  0
ARC
  8
DETAIL
  6
CONTINUOUS
 62
     5
 10
-98.509999999972024
 20
-248.62483082394829
 30
0.0
 40
1.5
 50
0.0
 51
180.0
  0
ARC
  8
DETAIL
  6
CONTINUOUS
 62
     5
 10
-98.509999999972024
 20
-226.84079152463349
 30
0.0
 40
1.5
 50
180.0
 51
0.0
  0
LINE
  8
DETAIL
  6
CONTINUOUS
 62
     5
 10
-97.009999999972024
 20
-318.13000000000471
 30
0.0
 11
-3.1899999999441211
 21
-328.57000000000698
 31
0.0
  0
LINE
  8
DETAIL
  6
CONTINUOUS
 62
     5
 10
-97.009999999972024
 20
-315.80999999999767
 30
0.0
 11
-3.1899999999441211
 21
-326.25
 31
0.0
  0
ARC
  8
DETAIL
  6
CONTINUOUS
 62
     5
 10
-115.7488754503684
 20
-191.31790693642171
 30
0.0
 40
73.492314849912205
 50
217.37720391767371
 51
268.10431072455651
  0
ARC
  8
DETAIL
  6
CONTINUOUS
 62
     5
 10
-115.7488754503684
 20
-191.31790693642171
 30
0.0
 40
73.492314849912205
 50
190.9164302286535
 51
213.33448071600489
  0
ARC
  8
DETAIL
  6
CONTINUOUS
 62
     5
 10
-114.60420291849729
 20
-189.44532340713039
 30
0.0
 40
77.451212888246602
 50
219.75223893017389
 51
267.13902572692177
  0
ARC
  8
DETAIL
  6
CONTINUOUS
 62
     5
 10
-114.60420291849729
 20
-189.44532340713039
 30
0.0
 40
77.451212888246602
 50
193.22935046013609
 51
216.1426662342906
  0
LINE
  8
DETAIL
  6
CONTINUOUS
 62
     5
 10
-97.009999999972024
 20
-201.84000000002561
 30
0.0
 11
-3.1899999999441211
 21
-208.2200000000303
 31
0.0
  0
LINE
  8
DETAIL
  6
CONTINUOUS
 62
     5
 10
-97.009999999972024
 20
-199.5200000000186
 30
0.0
 11
-3.1899999999441211
 21
-206.1900000000023
 31
0.0
  0
ARC
  8
DETAIL
  6
CONTINUOUS
 62
     5
 10
-116.2185820053601
 20
-4.4555238555660708
 30
0.0
 40
113.0169037009242
 50
239.16344794472141
 51
268.85853108383822
  0
ARC
  8
DETAIL
  6
CONTINUOUS
 62
     5
 10
-116.2185820053601
 20
-4.4555238555660708
 30
0.0
 40
113.0169037009242
 50
230.6279121614221
 51
237.37519618936861
  0
ARC
  8
DETAIL
  6
CONTINUOUS
 62
     5
 10
-113.9880579789842
 20
-1.128253779420902
 30
0.0
 40
118.7939319063246
 50
239.57304229378491
 51
267.71029241181571
  0
ARC
  8
DETAIL
  6
CONTINUOUS
 62
     5
 10
-113.9880579789842
 20
-1.128253779420902
 30
0.0
 40
118.7939319063246
 50
230.21833249345991
 51
237.88006168991831
  0
LINE
  8
DETAIL
  6
CONTINUOUS
 62
     5
 10
-118.4699999999393
 20
-117.4500000000115
 30
0.0
 11
-100.009999999972
 21
-118.31531250000261
 31
0.0
  0
LINE
  8
DETAIL
  6
CONTINUOUS
 62
     5
 10
-118.7341487998565
 20
-119.8273392000104
 30
0.0
 11
-100.009999999972
 21
-120.63531250000931
 31
0.0
  0
LINE
  8
DETAIL
  6
CONTINUOUS
 62
     5
 10
-187.91130622281341
 20
-10.74649762923082
 30
0.0
 11
-187.91130622281429
 21
-21.917742684528552
 31
0.0
  0
LINE
  8
DETAIL
  6
CONTINUOUS
 62
     5
 10
-187.91130622281341
 20
-24.072568929371869
 30
0.0
 11
-187.9113062228125
 21
-45.959701668081102
 31
0.0
  0
LINE
  8
DETAIL
  6
CONTINUOUS
 62
     5
 10
-187.9113062228125
 20
-47.718501836017822
 30
0.0
 11
-187.9113062228125
 21
-69.526511893867564
 31
0.0
  0
LINE
  8
DETAIL
  6
CONTINUOUS
 62
     5
 10
-187.91130622281341
 20
-71.303879251440549
 30
0.0
 11
-187.91130622281341
 21
-91.822415848037053
 31
0.0
  0
LINE
  8
DETAIL
  6
CONTINUOUS
 62
     5
 10
-187.91130622281341
 20
-94.119391135868568
 30
0.0
 11
-187.91130622281341
 21
-113.2592916274323
 31
0.0
  0
LINE
  8
DETAIL
  6
CONTINUOUS
 62
     5
 10
-187.91130622281341
 20
-116.58370560973709
 30
0.0
 11
-187.91130622281341
 21
-134.10304802687489
 31
0.0
  0
LINE
  8
DETAIL
  6
CONTINUOUS
 62
     5
 10
-187.91130622281341
 20
-244.81836252092751
 30
0.0
 11
-187.91130622281341
 21
-246.18117624990961
 31
0.0
  0
LINE
  8
DETAIL
  6
CONTINUOUS
 62
     5
 10
-187.91130622281341
 20
-229.5846792360777
 30
0.0
 11
-187.91130622281341
 21
-233.7587666478498
 31
0.0
  0
LINE
  8
DETAIL
  6
CONTINUOUS
 62
     5
 10
-187.9113062228125
 20
-178.50675660424201
 30
0.0
 11
-187.91130622281341
 21
-189.53183108796239
 31
0.0
  0
LINE
  8
DETAIL
  6
CONTINUOUS
 62
     5
 10
-187.91130622281341
 20
-214.44050260214229
 30
0.0
 11
-187.91130622281429
 21
-219.6996350445859
 31
0.0
  0
LINE
  8
DETAIL
  6
CONTINUOUS
 62
     5
 10
-187.91130622281341
 20
-138.22544660502439
 30
0.0
 11
-187.91130622281341
 21
-154.08342310312881
 31
0.0
  0
LINE
  8
DETAIL
  6
CONTINUOUS
 62
     5
 10
-187.91130622281341
 20
-197.02172881253071
 30
0.0
 11
-187.91130622281341
 21
-205.2356627544643
 31
0.0
  0
LINE
  8
DETAIL
  6
CONTINUOUS
 62
     5
 10
-187.9113062228125
 20
-158.14045856552971
 30
0.0
 11
-187.9113062228125
 21
-172.54955798756109
 31
0.0
  0
ARC
  8
DETAIL
  6
CONTINUOUS
 62
     5
 10
-4.5
 20
-223.13026670736829
 30
0.0
 40
1.5
 50
0.0
 51
180.0
  0
LINE
  8
DETAIL
  6
CONTINUOUS
 62
     5
 10
-97.009999999972024
 20
-148.7700000000186
 30
0.0
 11
-3.1899999999441211
 21
-153.98999999999069
 31
0.0
  0
ARC
  8
DETAIL
  6
CONTINUOUS
 62
     5
 10
-127.0909579440595
 20
230.44780412946619
 30
0.0
 40
259.59099364861572
 50
259.55558814428122
 51
271.9031297581837
  0
ARC
  8
DETAIL
  6
CONTINUOUS
 62
     5
 10
-127.0909579440595
 20
230.44780412946619
 30
0.0
 40
259.59099364861572
 50
256.45004977911611
 51
258.88153918077887
  0
ARC
  8
DETAIL
  6
CONTINUOUS
 62
     5
 10
-122.98712267367139
 20
261.69903170947401
 30
0.0
 40
293.05384717012453
 50
259.94547723484072
 51
270.88319029722561
  0
ARC
  8
DETAIL
  6
CONTINUOUS
 62
     5
 10
-122.98712267367139
 20
261.69903170947401
 30
0.0
 40
293.05384717012453
 50
256.78116723622912
 51
259.34922945712498
  0
ARC
  8
DETAIL
  6
CONTINUOUS
 62
     5
 10
-4.5
 20
-316.20339715569412
 30
0.0
 40
1.5
 50
180.0
 51
0.0
  0
LINE
  8
DETAIL
  6
CONTINUOUS
 62
     5
 10
-6.0
 20
-316.20339715569412
 30
0.0
 11
-6.0
 21
-223.13026670736829
 31
0.0
  0
LINE
  8
DETAIL
  6
CONTINUOUS
 62
     5
 10
-118.4699999999348
 20
-29.0
 30
0.0
 11
-100.009999999972
 21
-29.2884374999777
 31
0.0
  0
LINE
  8
DETAIL
  6
CONTINUOUS
 62
     5
 10
-97.009999999972024
 20
-285.35999999998597
 30
0.0
 11
-6.0899999998509884
 21
-294.64000000001403
 31
0.0
  0
LINE
  8
DETAIL
  6
CONTINUOUS
 62
     5
 10
-97.009999999972024
 20
-173.70999999996269
 30
0.0
 11
-3.1899999999441211
 21
-179.51000000000931
 31
0.0
  0
LINE
  8
DETAIL
  6
CONTINUOUS
 62
     5
 10
-97.009999999972024
 20
-327.40999999997439
 30
0.0
 11
-3.1899999999441211
 21
-338.42999999999302
 31
0.0
  0
LINE
  8
DETAIL
  6
CONTINUOUS
 62
     5
 10
-118.4699999999348
 20
-31.320000000006981
 30
0.0
 11
-100.009999999972
 21
-31.608437499984689
 31
0.0
  0
LINE
  8
DETAIL
  6
CONTINUOUS
 62
     5
 10
-97.009999999972024
 20
-287.39000000001403
 30
0.0
 11
-6.0899999998509884
 21
-296.6699999999837
 31
0.0
  0
LINE
  8
DETAIL
  6
CONTINUOUS
 62
     5
 10
-97.009999999972024
 20
-176.0299999999697
 30
0.0
 11
-3.1899999999441211
 21
-181.8300000000163
 31
0.0
  0
ARC
  8
DETAIL
  6
CONTINUOUS
 62
     5
 10
-106.67941788088589
 20
-258.70666476914158
 30
0.0
 40
82.845472084351925
 50
194.74005381679791
 51
211.72008647031419
  0
LINE
  8
DETAIL
  6
CONTINUOUS
 62
     5
 10
-97.009999999972024
 20
-146.45000000001161
 30
0.0
 11
-3.1899999999441211
 21
-151.38000000000471
 31
0.0
  0
LINE
  8
DETAIL
  6
CONTINUOUS
 62
     5
 10
-97.009999999972024
 20
-31.60999999998603
 30
0.0
 11
-3.1899999999441211
 21
-32.769999999960419
 31
0.0
  0
LINE
  8
DETAIL
  6
CONTINUOUS
 62
     5
 10
-97.009999999972024
 20
-61.770000000018626
 30
0.0
 11
-3.1899999999441211
 21
-63.799999999988358
 31
0.0
  0
ARC
  8
DETAIL
  6
CONTINUOUS
 62
     5
 10
-110.02588140827081
 20
-256.66847488255701
 30
0.0
 40
80.177423482843679
 50
216.89111662706239
 51
263.95451703816138
  0
LINE
  8
DETAIL
  6
CONTINUOUS
 62
     5
 10
-118.1799999998975
 20
-340.75
 30
0.0
 11
-100.009999999972
 21
-342.7688888889063
 31
0.0
  0
ARC
  8
DETAIL
  6
CONTINUOUS
 62
     5
 10
-106.67941788088589
 20
-258.70666476914158
 30
0.0
 40
82.845472084351925
 50
215.4704561077763
 51
262.02044788468368
  0
LINE
  8
DETAIL
  6
CONTINUOUS
 62
     5
 10
-118.4699999999348
 20
-343.07000000000698
 30
0.0
 11
-100.009999999972
 21
-345.08906249996681
 31
0.0
  0
ARC
  8
DETAIL
  6
CONTINUOUS
 62
     5
 10
-110.02588140827081
 20
-256.66847488255701
 30
0.0
 40
80.177423482843679
 50
184.08110067218749
 51
213.15493224009549
  0
LINE
  8
DETAIL
  6
CONTINUOUS
 62
     5
 10
-97.009999999972024
 20
-29.289999999979049
 30
0.0
 11
-3.1899999999441211
 21
-30.450000000011642
 31
0.0
  0
LINE
  8
DETAIL
  6
CONTINUOUS
 62
     5
 10
-97.009999999972024
 20
-59.450000000011642
 30
0.0
 11
-3.1899999999441211
 21
-61.479999999981374
 31
0.0
  0
ARC
  8
DETAIL
  6
CONTINUOUS
 62
     5
 10
-114.0698325044023
 20
62.257045931323319
 30
0.0
 40
151.06114442162831
 50
246.5642247842448
 51
268.33083025833082
  0
ARC
  8
DETAIL
  6
CONTINUOUS
 62
     5
 10
-114.0698325044023
 20
62.257045931323319
 30
0.0
 40
151.06114442162831
 50
240.7370490586602
 51
245.3180803407198
  0
LINE
  8
DETAIL
  6
CONTINUOUS
 62
     5
 10
-118.1799999998975
 20
-344.52000000001863
 30
0.0
 11
-100.009999999972
 21
-346.82730158725752
 31
0.0
  0
ARC
  8
DETAIL
  6
CONTINUOUS
 62
     5
 10
-116.83421875287701
 20
143.13743049625299
 30
0.0
 40
202.0140533625929
 50
253.5175432688772
 51
269.53605016912633
  0
ARC
  8
DETAIL
  6
CONTINUOUS
 62
     5
 10
-116.83421875287701
 20
143.13743049625299
 30
0.0
 40
202.0140533625929
 50
249.39996063049699
 51
252.6281334136483
  0
ARC
  8
DETAIL
  6
CONTINUOUS
 62
     5
 10
-108.88464263866631
 20
-262.36092730343807
 30
0.0
 40
81.276278773595848
 50
216.5818582476015
 51
263.22703151156588
  0
ARC
  8
DETAIL
  6
CONTINUOUS
 62
     5
 10
-108.88464263866631
 20
-262.36092730343807
 30
0.0
 40
81.276278773595848
 50
183.60607142413369
 51
212.86860610749011
  0
ARC
  8
DETAIL
  6
CONTINUOUS
 62
     5
 10
-119.18630220552591
 20
40.266455881856473
 30
0.0
 40
131.0384136768007
 50
245.20030715841861
 51
270.31320050722519
  0
ARC
  8
DETAIL
  6
CONTINUOUS
 62
     5
 10
-119.18630220552591
 20
40.266455881856473
 30
0.0
 40
131.0384136768007
 50
237.2888471508497
 51
243.74664120549519
  0
LINE
  8
DETAIL
  6
CONTINUOUS
 62
     5
 10
-118.4699999999348
 20
-88.739999999990687
 30
0.0
 11
-100.009999999972
 21
-89.316875000003961
 31
0.0
  0
ARC
  8
DETAIL
  6
CONTINUOUS
 62
     5
 10
-114.5926303469014
 20
140.16857787872749
 30
0.0
 40
201.68585214618309
 50
252.82460996612519
 51
268.89843238259328
  0
ARC
  8
DETAIL
  6
CONTINUOUS
 62
     5
 10
-114.5926303469014
 20
140.16857787872749
 30
0.0
 40
201.68585214618309
 50
248.04456742160289
 51
251.930384109214
  0
LINE
  8
DETAIL
  6
CONTINUOUS
 62
     5
 10
-118.4699999999348
 20
-90.770000000018626
 30
0.0
 11
-100.009999999972
 21
-91.635312500009604
 31
0.0
  0
LINE
  8
DETAIL
  6
CONTINUOUS
 62
     5
 10
-118.4699999999348
 20
-58.869999999995343
 30
0.0
 11
-100.009999999972
 21
-59.446875000008617
 31
0.0
  0
LINE
  8
DETAIL
  6
CONTINUOUS
 62
     5
 10
-118.4699999999348
 20
-61.479999999981374
 30
0.0
 11
-100.009999999972
 21
-61.768437500016937
 31
0.0
  0
LINE
  8
DETAIL
  6
CONTINUOUS
 62
     5
 10
0.0
 20
-235.0151280869577
 30
0.0
 11
0.0
 21
235.0151280869577
 31
0.0
  0
LINE
  8
DETAIL
  6
CONTINUOUS
 62
     5
 10
-100.009999999972
 20
-352.03286561101231
 30
0.0
 11
-100.009999999972
 21
352.03286561101231
 31
0.0
  0
LINE
  8
DETAIL
  6
CONTINUOUS
 62
     5
 10
-97.009999999972024
 20
-352.03286561101231
 30
0.0
 11
-97.009999999972024
 21
352.03286561101231
 31
0.0
  0
LINE
  8
DETAIL
  6
CONTINUOUS
 62
     5
 10
-193.0
 20
-217.74945986718009
 30
0.0
 11
-193.0
 21
217.74945986718009
 31
0.0
  0
LINE
  8
DETAIL
  6
CONTINUOUS
 62
     5
 10
-3.0
 20
-364.0
 30
0.0
 11
-3.0
 21
364.0
 31
0.0
  0
LINE
  8
DETAIL
  6
CONTINUOUS
 62
     5
 10
-190.0
 20
270.82999999778389
 30
0.0
 11
-190.0
 21
-270.82999999778389
 31
0.0
  0
ARC
  8
DETAIL
  6
CONTINUOUS
 62
     5
 10
-111.2325534428001
 20
-138.05868536263961
 30
0.0
 40
84.078840514881563
 50
204.2186934660011
 51
218.3721151801507
  0
LINE
  8
DETAIL
  6
CONTINUOUS
 62
     5
 10
-97.009999999972024
 20
-120.640000000014
 30
0.0
 11
-3.1899999999441211
 21
-124.7000000000116
 31
0.0
  0
ARC
  8
DETAIL
  6
CONTINUOUS
 62
     5
 10
-111.2325534428001
 20
-138.05868536263961
 30
0.0
 40
84.078840514881563
 50
221.55538323154971
 51
265.26023746937358
  0
LINE
  8
DETAIL
  6
CONTINUOUS
 62
     5
 10
-97.010006416705437
 20
-338.72000172285652
 30
0.0
 11
-3.1900064166775342
 21
-350.03000172279599
 31
0.0
  0
LINE
  8
DETAIL
  6
CONTINUOUS
 62
     5
 10
-97.009999999972024
 20
-91.64000000001397
 30
0.0
 11
-3.1899999999441211
 21
-94.539999999979045
 31
0.0
  0
LINE
  8
DETAIL
  6
CONTINUOUS
 62
     5
 10
-100.009999999972
 20
-225.61218749998801
 30
0.0
 11
-118.4699999999348
 21
-224.1699999999837
 31
0.0
  0
ARC
  8
DETAIL
  6
CONTINUOUS
 62
     5
 10
-106.35658318323659
 20
-263.87579623047941
 30
0.0
 40
83.843866645570429
 50
216.04380276531469
 51
261.69306997775442
  0
ARC
  8
DETAIL
  6
CONTINUOUS
 62
     5
 10
-112.3574808616186
 20
-139.24228947038489
 30
0.0
 40
85.147395180449067
 50
204.23630614695429
 51
220.4523862344584
  0
ARC
  8
DETAIL
  6
CONTINUOUS
 62
     5
 10
-110.45739071797109
 20
-204.2686373511479
 30
0.0
 40
81.486262668935751
 50
218.58937444770311
 51
264.3569414697397
  0
ARC
  8
DETAIL
  6
CONTINUOUS
 62
     5
 10
-110.45739071797109
 20
-204.2686373511479
 30
0.0
 40
81.486262668935751
 50
192.53925955096881
 51
215.06985020222911
  0
ARC
  8
DETAIL
  6
CONTINUOUS
 62
     5
 10
-106.35658318323659
 20
-263.87579623047941
 30
0.0
 40
83.843866645570429
 50
183.96270176126981
 51
212.39783335043811
  0
LINE
  8
DETAIL
  6
CONTINUOUS
 62
     5
 10
-97.009999999972024
 20
-118.320000000007
 30
0.0
 11
-3.1899999999441211
 21
-122.3800000000047
 31
0.0
  0
LINE
  8
DETAIL
  6
CONTINUOUS
 62
     5
 10
-97.009999999972024
 20
-89.320000000006985
 30
0.0
 11
-3.1899999999441211
 21
-92.21999999997206
 31
0.0
  0
LINE
  8
DETAIL
  6
CONTINUOUS
 62
     5
 10
-118.4699999999348
 20
-336.40000000002328
 30
0.0
 11
-100.009999999972
 21
-338.41906249998311
 31
0.0
  0
LINE
  8
DETAIL
  6
CONTINUOUS
 62
     5
 10
-100.009999999972
 20
-284.77047619049489
 30
0.0
 11
-118.1799999998975
 21
-283.03999999997899
 31
0.0
  0
ARC
  8
DETAIL
  6
CONTINUOUS
 62
     5
 10
-112.3574808616186
 20
-139.24228947038489
 30
0.0
 40
85.147395180449067
 50
223.47185792621951
 51
265.88333787798689
  0
ARC
  8
DETAIL
  6
CONTINUOUS
 62
     5
 10
-111.6139278767596
 20
-205.7576976408775
 30
0.0
 40
77.560734660328592
 50
190.35549524389009
 51
212.33186090483801
  0
LINE
  8
DETAIL
  6
CONTINUOUS
 62
     5
 10
-100.009999999972
 20
-223.29206349204469
 30
0.0
 11
-118.1799999998975
 21
-221.8500000000349
 31
0.0
  0
ARC
  8
DETAIL
  6
CONTINUOUS
 62
     5
 10
-111.6139278767596
 20
-205.7576976408775
 30
0.0
 40
77.560734660328592
 50
216.26544328031741
 51
265.1436890304077
  0
LINE
  8
DETAIL
  6
CONTINUOUS
 62
     5
 10
-100.009999999972
 20
-287.37906249994552
 30
0.0
 11
-118.4699999999348
 21
-285.35999999998597
 31
0.0
  0
ARC
  8
DETAIL
  6
CONTINUOUS
 62
     5
 10
-175.64999999986961
 20
-316.6075452804962
 30
0.0
 40
1.5
 50
180.0
 51
0.0
  0
LINE
  8
DETAIL
  6
CONTINUOUS
 62
     5
 10
-177.14999999986961
 20
-316.6075452804962
 30
0.0
 11
-177.14999999986961
 21
316.6075452804962
 31
0.0
  0
LINE
  8
DETAIL
  6
CONTINUOUS
 62
     5
 10
-174.14999999986961
 20
-316.6075452804962
 30
0.0
 11
-174.14999999986961
 21
316.6075452804962
 31
0.0
  0
LINE
  8
OUTLINE
  6
CONTINUOUS
 62
     3
 10
-118.46999999993299
 20
348.28999999997927
 30
0.0
 11
-100.009999999972
 21
350.59749999997439
 31
0.0
  0
LINE
  8
OUTLINE
  6
CONTINUOUS
 62
     3
 10
-100.009999999972
 20
350.59749999997439
 30
0.0
 11
-100.009999999972
 21
352.03286561101231
 31
0.0
  0
ARC
  8
OUTLINE
  6
CONTINUOUS
 62
     3
 10
-98.50999999997201
 20
352.03286561101231
 30
0.0
 40
1.4999999999999858
 50
0.0
 51
180.0
  0
LINE
  8
OUTLINE
  6
CONTINUOUS
 62
     3
 10
-97.009999999972024
 20
352.03286561101231
 30
0.0
 11
-97.009999999972024
 21
350.89999999996508
 31
0.0
  0
LINE
  8
OUTLINE
  6
CONTINUOUS
 62
     3
 10
-97.009999999972024
 20
350.89999999996508
 30
0.0
 11
-3.0
 21
362.52349179278781
 31
0.0
  0
LINE
  8
OUTLINE
  6
CONTINUOUS
 62
     3
 10
-3.0
 20
362.52349179278781
 30
0.0
 11
-3.0
 21
364.0
 31
0.0
  0
ARC
  8
OUTLINE
  6
CONTINUOUS
 62
     3
 10
-1.5
 20
364.0
 30
0.0
 40
1.5
 50
0.0
 51
180.0
  0
LINE
  8
OUTLINE
  6
CONTINUOUS
 62
     3
 10
0.0
 20
364.0
 30
0.0
 11
0.0
 21
278.36439612064851
 31
0.0
  0
ARC
  8
OUTLINE
  6
CONTINUOUS
 62
     3
 10
-1.5
 20
278.36439612064851
 30
0.0
 40
1.5
 50
180.0
 51
0.0
  0
LINE
  8
OUTLINE
  6
CONTINUOUS
 62
     3
 10
-3.0
 20
278.36439612064851
 30
0.0
 11
-3.0
 21
235.0151280869577
 31
0.0
  0
ARC
  8
OUTLINE
  6
CONTINUOUS
 62
     3
 10
-1.5
 20
235.0151280869577
 30
0.0
 40
1.5
 50
0.0
 51
180.0
  0
LINE
  8
OUTLINE
  6
CONTINUOUS
 62
     3
 10
0.0
 20
235.0151280869577
 30
0.0
 11
0.0
 21
-235.0151280869577
 31
0.0
  0
ARC
  8
OUTLINE
  6
CONTINUOUS
 62
     3
 10
-1.5
 20
-235.0151280869577
 30
0.0
 40
1.5
 50
180.0
 51
0.0
  0
LINE
  8
OUTLINE
  6
CONTINUOUS
 62
     3
 10
-3.0
 20
-235.0151280869577
 30
0.0
 11
-3.0
 21
-278.36439612064851
 31
0.0
  0
ARC
  8
OUTLINE
  6
CONTINUOUS
 62
     3
 10
-1.5
 20
-278.36439612064851
 30
0.0
 40
1.5
 50
0.0
 51
180.0
  0
LINE
  8
OUTLINE
  6
CONTINUOUS
 62
     3
 10
0.0
 20
-278.36439612064851
 30
0.0
 11
0.0
 21
-364.0
 31
0.0
  0
ARC
  8
OUTLINE
  6
CONTINUOUS
 62
     3
 10
-1.5
 20
-364.0
 30
0.0
 40
1.5
 50
180.0
 51
0.0
  0
LINE
  8
OUTLINE
  6
CONTINUOUS
 62
     3
 10
-3.0
 20
-364.0
 30
0.0
 11
-3.0
 21
-362.52349179278798
 31
0.0
  0
LINE
  8
OUTLINE
  6
CONTINUOUS
 62
     3
 10
-3.0
 20
-362.52349179278798
 30
0.0
 11
-97.009999999972024
 21
-350.89999999996508
 31
0.0
  0
LINE
  8
OUTLINE
  6
CONTINUOUS
 62
     3
 10
-97.009999999972024
 20
-350.89999999996508
 30
0.0
 11
-97.009999999972024
 21
-352.03286561101231
 31
0.0
  0
ARC
  8
OUTLINE
  6
CONTINUOUS
 62
     3
 10
-98.50999999997201
 20
-352.03286561101231
 30
0.0
 40
1.4999999999999858
 50
180.0
 51
0.0
  0
LINE
  8
OUTLINE
  6
CONTINUOUS
 62
     3
 10
-100.009999999972
 20
-352.03286561101231
 30
0.0
 11
-100.009999999972
 21
-350.59749999997427
 31
0.0
  0
LINE
  8
OUTLINE
  6
CONTINUOUS
 62
     3
 10
-100.009999999972
 20
-350.59749999997427
 30
0.0
 11
-118.4699999999311
 21
-348.2899999999795
 31
0.0
  0
ARC
  8
OUTLINE
  6
CONTINUOUS
 62
     3
 10
-106.37829305161654
 20
-265.36699395806454
 30
0.0
 40
83.799966037889192
 50
216.02777960160108
 51
261.70368817360486
  0
LINE
  8
OUTLINE
  6
CONTINUOUS
 62
     3
 10
-174.14999999986961
 20
-314.6562427378085
 30
0.0
 11
-174.14999999986961
 21
-316.6075452804962
 31
0.0
  0
ARC
  8
OUTLINE
  6
CONTINUOUS
 62
     3
 10
-175.64999999986961
 20
-316.6075452804962
 30
0.0
 40
1.5
 50
180.0
 51
0.0
  0
LINE
  8
OUTLINE
  6
CONTINUOUS
 62
     3
 10
-177.14999999986961
 20
-316.6075452804962
 30
0.0
 11
-177.14999999986961
 21
-310.24237477630282
 31
0.0
  0
ARC
  8
OUTLINE
  6
CONTINUOUS
 62
     3
 10
-106.37829305161539
 20
-265.36699395806426
 30
0.0
 40
83.799966037889945
 50
183.73782157769745
 51
212.37823052288229
  0
LINE
  8
OUTLINE
  6
CONTINUOUS
 62
     3
 10
-190.0
 20
-270.82999999778212
 30
0.0
 11
-190.0
 21
-217.74945986718009
 31
0.0
  0
ARC
  8
OUTLINE
  6
CONTINUOUS
 62
     3
 10
-191.5
 20
-217.74945986718009
 30
0.0
 40
1.5
 50
180.0
 51
0.0
  0
LINE
  8
OUTLINE
  6
CONTINUOUS
 62
     3
 10
-193.0
 20
-217.74945986718009
 30
0.0
 11
-193.0
 21
217.74945986718009
 31
0.0
  0
ARC
  8
OUTLINE
  6
CONTINUOUS
 62
     3
 10
-191.5
 20
217.74945986718009
 30
0.0
 40
1.5
 50
0.0
 51
180.0
  0
LINE
  8
OUTLINE
  6
CONTINUOUS
 62
     3
 10
-190.0
 20
217.74945986718009
 30
0.0
 11
-190.0
 21
270.82999999777991
 31
0.0
  0
ARC
  8
OUTLINE
  6
CONTINUOUS
 62
     3
 10
-106.37829305161554
 20
265.36699395806585
 30
0.0
 40
83.799966037889547
 50
147.62176947711794
 51
176.26217842230517
  0
LINE
  8
OUTLINE
  6
CONTINUOUS
 62
     3
 10
-177.14999999986961
 20
310.2423747763039
 30
0.0
 11
-177.14999999986961
 21
316.6075452804962
 31
0.0
  0
ARC
  8
OUTLINE
  6
CONTINUOUS
 62
     3
 10
-175.64999999986961
 20
316.6075452804962
 30
0.0
 40
1.5
 50
0.0
 51
180.0
  0
LINE
  8
OUTLINE
  6
CONTINUOUS
 62
     3
 10
-174.14999999986961
 20
316.6075452804962
 30
0.0
 11
-174.14999999986961
 21
314.65624273780821
 31
0.0
  0
ARC
  8
OUTLINE
  6
CONTINUOUS
 62
     3
 10
-106.37829305161652
 20
265.366993958065
 30
0.0
 40
83.799966037888765
 50
98.296311826396504
 51
143.97222039839937
  0
TEXT
  8
ETC
  6
CONTINUOUS
 62
    61
 10
335.3543551054554
 20
483.45625569545808
 30
0.0
 40
64.0
  1
G-60XD3_4
 41
0.9
  0
TEXT
  8
ETC
  6
CONTINUOUS
 62
    61
 10
381.86975935401102
 20
257.35217279440172
 30
0.0
 40
40.0
  1
G-60XD3
 50
0.0
 41
0.9
 51
0.0
  7
STANDARD
 71
     0
 11
0.0
 21
0.0
 31
0.0
210
0.0
220
0.0
230
1.0
  0
TEXT
  8
ETC
  6
CONTINUOUS
 62
    61
 10
381.86975935401102
 20
191.35217279440172
 30
0.0
 40
40.0
  1
G-60XD3-F
 50
0.0
 41
0.9
 51
0.0
  7
STANDARD
 71
     0
 11
0.0
 21
0.0
 31
0.0
210
0.0
220
0.0
230
1.0
  0
TEXT
  8
ETC
  6
CONTINUOUS
 62
    61
 10
331.16836110545592
 20
365.50094568062701
 30
0.0
 40
64.0
  1
システム部材
 41
0.9
  0
ENDSEC
  0
EOF
