  0
SECTION
  2
HEADER
  9
$ACADVER
  1
AC1009
  9
$DWGCODEPAGE
  3
dos932
  9
$INSBASE
 10
0.0
 20
0.0
 30
0.0
  9
$EXTMIN
 10
-614.92689591838086
 20
-513.34484325882545
 30
0.0
  9
$EXTMAX
 10
755.03984557850606
 20
671.4258995836675
 30
0.0
  9
$LIMMIN
 10
-2970.0
 20
-2100.0
  9
$LIMMAX
 10
2970.0
 20
2100.0
  9
$ORTHOMODE
 70
     1
  9
$REGENMODE
 70
     1
  9
$FILLMODE
 70
     1
  9
$QTEXTMODE
 70
     0
  9
$MIRRTEXT
 70
     0
  9
$LTSCALE
 40
20.0
  9
$ATTMODE
 70
     1
  9
$TEXTSIZE
 40
64.0
  9
$TRACEWID
 40
0.05
  9
$TEXTSTYLE
  7
STANDARD
  9
$CLAYER
  8
SIZE
  9
$CELTYPE
  6
CONTINUOUS
  9
$CECOLOR
 62
     7
  9
$DIMSCALE
 40
1.0
  9
$DIMASZ
 40
12.0
  9
$DIMEXO
 40
20.0
  9
$DIMDLI
 40
200.0
  9
$DIMRND
 40
0.0
  9
$DIMDLE
 40
0.0
  9
$DIMEXE
 40
20.0
  9
$DIMTP
 40
0.0
  9
$DIMTM
 40
0.0
  9
$DIMTXT
 40
64.0
  9
$DIMCEN
 40
0.09
  9
$DIMTSZ
 40
0.0
  9
$DIMTOL
 70
     0
  9
$DIMLIM
 70
     0
  9
$DIMTIH
 70
     0
  9
$DIMTOH
 70
     0
  9
$DIMSE1
 70
     0
  9
$DIMSE2
 70
     0
  9
$DIMTAD
 70
     1
  9
$DIMZIN
 70
     8
  9
$DIMBLK
  1

  9
$DIMASO
 70
     1
  9
$DIMSHO
 70
     0
  9
$DIMPOST
  1

  9
$DIMAPOST
  1

  9
$DIMALT
 70
     0
  9
$DIMALTD
 70
     2
  9
$DIMALTF
 40
25.399999999999999
  9
$DIMLFAC
 40
1.0
  9
$DIMTOFL
 70
     1
  9
$DIMTVP
 40
0.0
  9
$DIMTIX
 70
     1
  9
$DIMSOXD
 70
     0
  9
$DIMSAH
 70
     0
  9
$DIMBLK1
  1

  9
$DIMBLK2
  1

  9
$DIMSTYLE
  2
STANDARD
  9
$DIMCLRD
 70
     7
  9
$DIMCLRE
 70
     7
  9
$DIMCLRT
 70
     7
  9
$DIMTFAC
 40
1.0
  9
$DIMGAP
 40
25.0
  9
$LUNITS
 70
     2
  9
$LUPREC
 70
     4
  9
$SKETCHINC
 40
0.1
  9
$FILLETRAD
 40
3.0
  9
$AUNITS
 70
     1
  9
$AUPREC
 70
     3
  9
$MENU
  1
ACAD
  9
$ELEVATION
 40
0.0
  9
$PELEVATION
 40
0.0
  9
$THICKNESS
 40
50.0
  9
$LIMCHECK
 70
     0
  9
$CHAMFERA
 40
0.0
  9
$CHAMFERB
 40
0.0
  9
$SKPOLY
 70
     0
  9
$TDCREATE
 40
2453019.62301037
  9
$TDUPDATE
 40
2458509.622313426
  9
$TDINDWG
 40
1.7120645949
  9
$TDUSRTIMER
 40
1.7120645949
  9
$USRTIMER
 70
     1
  9
$ANGBASE
 50
0.0
  9
$ANGDIR
 70
     0
  9
$PDMODE
 70
     3
  9
$PDSIZE
 40
-2.0
  9
$PLINEWID
 40
0.0
  9
$SPLFRAME
 70
     0
  9
$SPLINETYPE
 70
     6
  9
$SPLINESEGS
 70
     8
  9
$SURFTAB1
 70
     6
  9
$SURFTAB2
 70
     6
  9
$SURFTYPE
 70
     6
  9
$SURFU
 70
     6
  9
$SURFV
 70
     6
  9
$UCSNAME
  2

  9
$UCSORG
 10
0.0
 20
0.0
 30
0.0
  9
$UCSXDIR
 10
1.0
 20
0.0
 30
0.0
  9
$UCSYDIR
 10
0.0
 20
1.0
 30
0.0
  9
$PUCSNAME
  2

  9
$PUCSORG
 10
0.0
 20
0.0
 30
0.0
  9
$PUCSXDIR
 10
1.0
 20
0.0
 30
0.0
  9
$PUCSYDIR
 10
0.0
 20
1.0
 30
0.0
  9
$USERI1
 70
     0
  9
$USERI2
 70
     0
  9
$USERI3
 70
     0
  9
$USERI4
 70
     0
  9
$USERI5
 70
     0
  9
$USERR1
 40
20.0
  9
$USERR2
 40
0.0
  9
$USERR3
 40
0.0
  9
$USERR4
 40
0.0
  9
$USERR5
 40
0.0
  9
$WORLDVIEW
 70
     1
  9
$SHADEDGE
 70
     3
  9
$SHADEDIF
 70
    70
  9
$TILEMODE
 70
     1
  9
$MAXACTVP
 70
    48
  9
$PINSBASE
 10
0.0
 20
0.0
 30
0.0
  9
$PLIMCHECK
 70
     0
  9
$PEXTMIN
 10
-100000000000000000000.0
 20
-100000000000000000000.0
 30
-100000000000000000000.0
  9
$PEXTMAX
 10
100000000000000000000.0
 20
100000000000000000000.0
 30
100000000000000000000.0
  9
$PLIMMIN
 10
0.0
 20
0.0
  9
$PLIMMAX
 10
12.0
 20
9.0
  9
$UNITMODE
 70
     0
  9
$VISRETAIN
 70
     0
  9
$PLINEGEN
 70
     0
  9
$PSLTSCALE
 70
     0
  9
$TREEDEPTH
 70
  3020
  9
$ATTDIA
 70
     0
  9
$ATTREQ
 70
     1
  9
$BLIPMODE
 70
     1
  9
$COORDS
 70
     1
  9
$DRAGMODE
 70
     2
  9
$OSMODE
 70
     0
  9
$HANDLING
 70
     0
  9
$HANDSEED
  5
F2FE
  0
ENDSEC
  0
SECTION
  2
TABLES
  0
TABLE
  2
LTYPE
 70
     2
  0
LTYPE
  2
CONTINUOUS
 70
     0
  3
実線
 72
    65
 73
     0
 40
0.0
  0
LTYPE
  2
DASHDOT
 70
     0
  3
____ _ ____ _ ____ _ ____ _ ____ _ ____ _ ____
 72
    65
 73
     4
 40
5.5
 49
4.0
 49
-0.6
 49
0.3
 49
-0.6
  0
ENDTAB
  0
TABLE
  2
LAYER
 70
    12
  0
LAYER
  2
0
 70
     0
 62
     7
  6
CONTINUOUS
  0
LAYER
  2
BASIS
 70
     0
 62
     6
  6
DASHDOT
  0
LAYER
  2
OUTLINE
 70
     0
 62
     3
  6
CONTINUOUS
  0
LAYER
  2
DETAIL
 70
     0
 62
     5
  6
CONTINUOUS
  0
LAYER
  2
SIZE
 70
     0
 62
    30
  6
CONTINUOUS
  0
LAYER
  2
ARRANGE
 70
     0
 62
     1
  6
CONTINUOUS
  0
LAYER
  2
DEFPOINTS
 70
     0
 62
     7
  6
CONTINUOUS
  0
LAYER
  2
ETC
 70
     0
 62
    61
  6
CONTINUOUS
  0
LAYER
  2
FIX
 70
    64
 62
    11
  6
CONTINUOUS
  0
LAYER
  2
NOTE
 70
    64
 62
     4
  6
CONTINUOUS
  0
LAYER
  2
SERVICESPACE
 70
    64
 62
     2
  6
DASHDOT
  0
LAYER
  2
SYMBOLLINE
 70
    64
 62
    15
  6
CONTINUOUS
  0
ENDTAB
  0
TABLE
  2
STYLE
 70
     1
  0
STYLE
  2
STANDARD
 70
     0
 40
64.0
 41
0.9
 50
0.0
 71
     0
 42
64.0
  3
SIMPLEX.shx
  4
BIGFONT.shx
  0
ENDTAB
  0
TABLE
  2
APPID
 70
    19
  0
APPID
  2
ACAD
 70
     0
  0
APPID
  2
AUTOCAD_POSTSCRIPT_FIGURE
 70
     0
  0
APPID
  2
ACAD_EXEMPT_FROM_CAD_STANDARDS
 70
     0
  0
APPID
  2
ACAD_PSEXT
 70
     0
  0
APPID
  2
ACAUTHENVIRON
 70
     0
  0
APPID
  2
GENIUS_GENOENT_13
 70
     0
  0
APPID
  2
GENIUS_GENCFG_13
 70
     0
  0
APPID
  2
GENIUS_GENCFG0_13
 70
     0
  0
APPID
  2
GENIUS_GENCFG1_13
 70
     0
  0
APPID
  2
GENIUS_GENCFG2_13
 70
     0
  0
APPID
  2
GENIUS_GENCFG3_13
 70
     0
  0
APPID
  2
GENIUS_GENCFG4_13
 70
     0
  0
APPID
  2
GENIUS_GEVCFG0_13
 70
     0
  0
APPID
  2
CONTENTBLOCKICON
 70
     0
  0
APPID
  2
CONTENTBLOCKDESCRIPTION
 70
     0
  0
APPID
  2
ACAD_NAV_VCDISPLAY
 70
     0
  0
APPID
  2
ACAD_MLEADERVER
 70
     0
  0
APPID
  2
ACAD_DSTYLE_DIMRADIAL_EXTENSION
 70
     0
  0
APPID
  2
ACADANNOMONITORALERTICONDISABLE
 70
     0
  0
ENDTAB
  0
TABLE
  2
DIMSTYLE
 70
     1
  0
DIMSTYLE
  2
STANDARD
 70
     0
  3

  4

  5
_ORIGIN
  6

  7

 40
1.0
 41
12.0
 42
20.0
 43
200.0
 44
20.0
 45
0.0
 46
0.0
 47
0.0
 48
0.0
140
64.0
141
0.09
142
0.0
143
25.399999999999999
144
1.0
145
0.0
146
1.0
147
25.0
 71
     0
 72
     0
 73
     0
 74
     0
 75
     0
 76
     0
 77
     1
 78
     8
170
     0
171
     2
172
     1
173
     0
174
     1
175
     0
176
     7
177
     7
178
     7
  0
ENDTAB
  0
TABLE
  2
VIEW
 70
     1
  0
VIEW
  2
ALL
 70
     0
 40
4282.6198079999986
 10
0.0
 20
41.309904000000003
 41
5940.0
 11
0.0
 21
0.0
 31
1.0
 12
0.0
 22
0.0
 32
0.0
 42
50.0
 43
0.0
 44
0.0
 50
0.0
 71
     0
  0
ENDTAB
  0
TABLE
  2
UCS
 70
     0
  0
ENDTAB
  0
TABLE
  2
VPORT
 70
     1
  0
VPORT
  2
*ACTIVE
 70
     0
 10
0.0
 20
0.0
 11
1.0
 21
1.0
 12
412.89375252908582
 22
9.9030461133556855
 13
0.0
 23
0.0
 14
1.0
 24
1.0
 15
0.0
 25
0.0
 16
0.0
 26
0.0
 36
1.0
 17
0.0
 27
0.0
 37
0.0
 40
1750.735862255483
 41
2.421994884910486
 42
50.0
 43
0.0
 44
0.0
 50
0.0
 51
0.0
 71
     0
 72
  1000
 73
     1
 74
     3
 75
     0
 76
     0
 77
     0
 78
     0
  0
ENDTAB
  0
ENDSEC
  0
SECTION
  2
BLOCKS
  0
BLOCK
  8
0
  2
_ORIGIN
 70
     0
 10
0.0
 20
0.0
 30
0.0
  3
_ORIGIN
  1
_ORIGIN
  0
CIRCLE
  8
0
  6
CONTINUOUS
 62
     7
 10
0.0
 20
0.0
 30
0.0
 40
0.5
  0
LINE
  8
0
  6
CONTINUOUS
 62
     7
 10
0.0
 20
0.0
 30
0.0
 11
-1.0
 21
0.0
 31
0.0
  0
ENDBLK
  8
0
  0
ENDSEC
  0
SECTION
  2
ENTITIES
  0
POINT
  8
ARRANGE
  6
CONTINUOUS
 62
     1
 10
0.0
 20
0.0
 30
0.0
  0
CIRCLE
  8
ARRANGE
  6
CONTINUOUS
 62
     1
 10
0.0
 20
0.0
 30
0.0
 40
40.0
  0
LINE
  8
DETAIL
  6
CONTINUOUS
 62
     5
 10
-60.0
 20
304.00000000000159
 30
0.0
 11
-60.0
 21
305.00000000000159
 31
0.0
  0
LINE
  8
DETAIL
  6
CONTINUOUS
 62
     5
 10
-60.0
 20
304.00000000000159
 30
0.0
 11
-60.0
 21
280.00000000000159
 31
0.0
  0
LINE
  8
DETAIL
  6
CONTINUOUS
 62
     5
 10
-60.0
 20
280.00000000000159
 30
0.0
 11
-60.0
 21
279.00000000000159
 31
0.0
  0
LINE
  8
DETAIL
  6
CONTINUOUS
 62
     5
 10
-35.0
 20
188.50000000000159
 30
0.0
 11
-35.0
 21
189.50000000000159
 31
0.0
  0
LINE
  8
DETAIL
  6
CONTINUOUS
 62
     5
 10
-35.0
 20
188.50000000000159
 30
0.0
 11
-35.0
 21
164.50000000000159
 31
0.0
  0
LINE
  8
DETAIL
  6
CONTINUOUS
 62
     5
 10
-35.0
 20
164.50000000000159
 30
0.0
 11
-35.0
 21
163.50000000000159
 31
0.0
  0
LINE
  8
DETAIL
  6
CONTINUOUS
 62
     5
 10
439.03281682489978
 20
29.196502372001561
 30
0.0
 11
317.80937911320052
 21
20.71973384000162
 31
0.0
  0
LINE
  8
DETAIL
  6
CONTINUOUS
 62
     5
 10
314.81673356830021
 20
20.510467677701659
 30
0.0
 11
196.5
 21
12.23695569970155
 31
0.0
  0
LINE
  8
DETAIL
  6
CONTINUOUS
 62
     5
 10
193.5
 20
12.027175263901681
 30
0.0
 11
160.68718556470051
 21
9.7326797596015524
 31
0.0
  0
LINE
  8
DETAIL
  6
CONTINUOUS
 62
     5
 10
157.69460593600019
 20
9.5234182066015194
 30
0.0
 11
157.22097262649999
 21
9.4902985393016763
 31
0.0
  0
LINE
  8
DETAIL
  6
CONTINUOUS
 62
     5
 10
438.8235474037001
 20
32.189194522801607
 30
0.0
 11
317.60623930450038
 21
23.712854615001589
 31
0.0
  0
LINE
  8
DETAIL
  6
CONTINUOUS
 62
     5
 10
314.61349384850018
 20
23.50358146630154
 30
0.0
 11
196.5
 21
15.24428139400155
 31
0.0
  0
LINE
  8
DETAIL
  6
CONTINUOUS
 62
     5
 10
193.5
 20
15.034500958101519
 30
0.0
 11
160.48318315290001
 21
12.725740215501469
 31
0.0
  0
LINE
  8
DETAIL
  6
CONTINUOUS
 62
     5
 10
157.4903574077002
 20
12.516461452401501
 30
0.0
 11
157.01170320530039
 21
12.48299069000157
 31
0.0
  0
LINE
  8
DETAIL
  6
CONTINUOUS
 62
     5
 10
440.67651350320011
 20
26.952930204601589
 30
0.0
 11
443.67091789850019
 21
27.136075823201541
 31
0.0
  0
LINE
  8
DETAIL
  6
CONTINUOUS
 62
     5
 10
196.4946981364001
 20
9.00000000000162
 30
0.0
 11
193.50530186349991
 21
9.00000000000162
 31
0.0
  0
LINE
  8
DETAIL
  6
CONTINUOUS
 62
     5
 10
26.95293020460031
 20
440.67651350320159
 30
0.0
 11
27.136075823200368
 21
443.67091789850161
 31
0.0
  0
LINE
  8
DETAIL
  6
CONTINUOUS
 62
     5
 10
29.196502372000399
 20
439.0328168249016
 30
0.0
 11
20.719733840000121
 21
317.80937911320149
 31
0.0
  0
LINE
  8
DETAIL
  6
CONTINUOUS
 62
     5
 10
20.510467677700031
 20
314.81673356830152
 30
0.0
 11
9.7326797596001597
 21
160.68718556470171
 31
0.0
  0
LINE
  8
DETAIL
  6
CONTINUOUS
 62
     5
 10
9.5234182066001267
 20
157.69460593600161
 30
0.0
 11
9.4902985393000563
 21
157.22097262650169
 31
0.0
  0
LINE
  8
DETAIL
  6
CONTINUOUS
 62
     5
 10
433.57588359180039
 20
74.927986543901653
 30
0.0
 11
313.89930778510012
 21
53.82577727040146
 31
0.0
  0
LINE
  8
DETAIL
  6
CONTINUOUS
 62
     5
 10
310.94505680459997
 20
53.304863114701483
 30
0.0
 11
196.5
 21
33.125111791301627
 31
0.0
  0
LINE
  8
DETAIL
  6
CONTINUOUS
 62
     5
 10
193.5
 20
32.596130849201607
 30
0.0
 11
158.80705069270061
 21
26.478827846001561
 31
0.0
  0
LINE
  8
DETAIL
  6
CONTINUOUS
 62
     5
 10
155.85209006380049
 20
25.957788560201639
 30
0.0
 11
155.3676933658999
 21
25.87237635300156
 31
0.0
  0
LINE
  8
DETAIL
  6
CONTINUOUS
 62
     5
 10
433.0549390588003
 20
77.882409802901549
 30
0.0
 11
313.38665041170037
 21
56.781661779201642
 31
0.0
  0
LINE
  8
DETAIL
  6
CONTINUOUS
 62
     5
 10
310.43239943119988
 20
56.260747623601468
 30
0.0
 11
196.5
 21
36.171391627001547
 31
0.0
  0
LINE
  8
DETAIL
  6
CONTINUOUS
 62
     5
 10
193.5
 20
35.642410684901527
 30
0.0
 11
158.2683157295005
 21
29.430114172201481
 31
0.0
  0
LINE
  8
DETAIL
  6
CONTINUOUS
 62
     5
 10
155.31418636340001
 20
28.9092214604016
 30
0.0
 11
154.8467488329002
 21
28.826799612001569
 31
0.0
  0
LINE
  8
DETAIL
  6
CONTINUOUS
 62
     5
 10
196.4946981364001
 20
39.00000000000162
 30
0.0
 11
193.50530186349991
 21
39.00000000000162
 31
0.0
  0
LINE
  8
DETAIL
  6
CONTINUOUS
 62
     5
 10
35.0
 20
188.50000000000159
 30
0.0
 11
35.0
 21
189.50000000000159
 31
0.0
  0
LINE
  8
DETAIL
  6
CONTINUOUS
 62
     5
 10
35.0
 20
188.50000000000159
 30
0.0
 11
35.0
 21
164.50000000000159
 31
0.0
  0
LINE
  8
DETAIL
  6
CONTINUOUS
 62
     5
 10
35.0
 20
164.50000000000159
 30
0.0
 11
35.0
 21
163.50000000000159
 31
0.0
  0
LINE
  8
DETAIL
  6
CONTINUOUS
 62
     5
 10
32.18919452279988
 20
438.82354740370158
 30
0.0
 11
23.7128546150002
 21
317.60623930450151
 31
0.0
  0
LINE
  8
DETAIL
  6
CONTINUOUS
 62
     5
 10
23.503581466300151
 20
314.61349384850149
 30
0.0
 11
12.72574021550008
 21
160.4831831529016
 31
0.0
  0
LINE
  8
DETAIL
  6
CONTINUOUS
 62
     5
 10
12.51646145240011
 20
157.49035740770159
 30
0.0
 11
12.48299069000041
 21
157.0117032053015
 31
0.0
  0
LINE
  8
DETAIL
  6
CONTINUOUS
 62
     5
 10
425.39559213480061
 20
112.43149110560149
 30
0.0
 11
308.01538139540031
 21
80.979558430601656
 31
0.0
  0
LINE
  8
DETAIL
  6
CONTINUOUS
 62
     5
 10
305.11778333980061
 20
80.20314937160154
 30
0.0
 11
155.88392355399989
 21
40.216057158601558
 31
0.0
  0
LINE
  8
DETAIL
  6
CONTINUOUS
 62
     5
 10
152.98597928449999
 20
39.43955533190163
 30
0.0
 11
152.52154620810009
 21
39.315110864201671
 31
0.0
  0
LINE
  8
DETAIL
  6
CONTINUOUS
 62
     5
 10
424.6191349995006
 20
115.32926858450151
 30
0.0
 11
307.24127242080021
 21
83.877965097301541
 31
0.0
  0
LINE
  8
DETAIL
  6
CONTINUOUS
 62
     5
 10
304.34367436520012
 20
83.101556038301652
 30
0.0
 11
155.10102431650009
 21
43.112108481401521
 31
0.0
  0
LINE
  8
DETAIL
  6
CONTINUOUS
 62
     5
 10
152.2033810721
 20
42.335687314101527
 30
0.0
 11
151.74508907280011
 21
42.212888343001538
 31
0.0
  0
LINE
  8
DETAIL
  6
CONTINUOUS
 62
     5
 10
60.0
 20
304.00000000000159
 30
0.0
 11
60.0
 21
305.00000000000159
 31
0.0
  0
LINE
  8
DETAIL
  6
CONTINUOUS
 62
     5
 10
60.0
 20
304.00000000000159
 30
0.0
 11
60.0
 21
280.00000000000159
 31
0.0
  0
LINE
  8
DETAIL
  6
CONTINUOUS
 62
     5
 10
60.0
 20
280.00000000000159
 30
0.0
 11
60.0
 21
279.00000000000159
 31
0.0
  0
LINE
  8
DETAIL
  6
CONTINUOUS
 62
     5
 10
74.927986543900261
 20
433.57588359180158
 30
0.0
 11
53.825777270400067
 21
313.89930778510148
 31
0.0
  0
LINE
  8
DETAIL
  6
CONTINUOUS
 62
     5
 10
53.304863114700311
 20
310.94505680460162
 30
0.0
 11
26.478827846000058
 21
158.80705069270161
 31
0.0
  0
LINE
  8
DETAIL
  6
CONTINUOUS
 62
     5
 10
25.957788560200239
 20
155.8520900638016
 30
0.0
 11
25.872376353000622
 21
155.36769336590149
 31
0.0
  0
LINE
  8
DETAIL
  6
CONTINUOUS
 62
     5
 10
77.882409802899929
 20
433.05493905880161
 30
0.0
 11
56.781661779200483
 21
313.38665041170162
 31
0.0
  0
LINE
  8
DETAIL
  6
CONTINUOUS
 62
     5
 10
56.260747623600309
 20
310.43239943120159
 30
0.0
 11
29.430114172199861
 21
158.26831572950161
 31
0.0
  0
LINE
  8
DETAIL
  6
CONTINUOUS
 62
     5
 10
28.9092214604002
 20
155.31418636340149
 30
0.0
 11
28.82679961200029
 21
154.8467488329016
 31
0.0
  0
LINE
  8
DETAIL
  6
CONTINUOUS
 62
     5
 10
80.049038105600175
 20
135.64900109600151
 30
0.0
 11
77.450961894300235
 21
137.14900109600151
 31
0.0
  0
LINE
  8
DETAIL
  6
CONTINUOUS
 62
     5
 10
91.567016791700553
 20
128.15608232090159
 30
0.0
 11
89.109560658800092
 21
129.87681163000161
 31
0.0
  0
LINE
  8
DETAIL
  6
CONTINUOUS
 62
     5
 10
102.3881151903001
 20
119.6878183767016
 30
0.0
 11
100.0899818609
 21
121.61618120570159
 31
0.0
  0
LINE
  8
DETAIL
  6
CONTINUOUS
 62
     5
 10
112.42997820860001
 20
110.30865786510169
 30
0.0
 11
110.3086578651
 21
112.4299782086016
 31
0.0
  0
LINE
  8
DETAIL
  6
CONTINUOUS
 62
     5
 10
121.6161812057003
 20
100.0899818609016
 30
0.0
 11
119.68781837670031
 21
102.38811519030151
 31
0.0
  0
LINE
  8
DETAIL
  6
CONTINUOUS
 62
     5
 10
112.4314911055999
 20
425.39559213480152
 30
0.0
 11
80.979558430600264
 21
308.0153813954015
 31
0.0
  0
LINE
  8
DETAIL
  6
CONTINUOUS
 62
     5
 10
80.203149371600375
 20
305.11778333980158
 30
0.0
 11
40.216057158600051
 21
155.88392355400151
 31
0.0
  0
LINE
  8
DETAIL
  6
CONTINUOUS
 62
     5
 10
39.43955533190001
 20
152.98597928450161
 30
0.0
 11
39.315110864200513
 21
152.5215462081016
 31
0.0
  0
LINE
  8
DETAIL
  6
CONTINUOUS
 62
     5
 10
115.3292685845004
 20
424.61913499950151
 30
0.0
 11
83.877965097300148
 21
307.24127242080158
 31
0.0
  0
LINE
  8
DETAIL
  6
CONTINUOUS
 62
     5
 10
83.101556038300259
 20
304.34367436520148
 30
0.0
 11
43.112108481400362
 21
155.10102431650151
 31
0.0
  0
LINE
  8
DETAIL
  6
CONTINUOUS
 62
     5
 10
42.335687314200193
 20
152.20338107210159
 30
0.0
 11
42.212888343000493
 21
151.74508907280159
 31
0.0
  0
LINE
  8
DETAIL
  6
CONTINUOUS
 62
     5
 10
55.277711504900253
 20
147.48855755870159
 30
0.0
 11
52.458633642600027
 21
148.5146179887015
 31
0.0
  0
LINE
  8
DETAIL
  6
CONTINUOUS
 62
     5
 10
67.921837904700169
 20
142.10954906560161
 30
0.0
 11
65.2029145436004
 21
143.37740385080161
 31
0.0
  0
LINE
  8
DETAIL
  6
CONTINUOUS
 62
     5
 10
129.87681163000019
 20
89.109560658801598
 30
0.0
 11
128.1560823209002
 21
91.567016791701604
 31
0.0
  0
LINE
  8
DETAIL
  6
CONTINUOUS
 62
     5
 10
137.14900109600009
 20
77.450961894301628
 30
0.0
 11
135.64900109600009
 21
80.049038105601568
 31
0.0
  0
LINE
  8
DETAIL
  6
CONTINUOUS
 62
     5
 10
143.37740385080039
 20
65.202914543601565
 30
0.0
 11
142.10954906559979
 21
67.921837904701562
 31
0.0
  0
LINE
  8
DETAIL
  6
CONTINUOUS
 62
     5
 10
149.0793241320998
 20
413.97778336070161
 30
0.0
 11
107.51778005760021
 21
299.78837949860161
 31
0.0
  0
LINE
  8
DETAIL
  6
CONTINUOUS
 62
     5
 10
106.4917827761001
 20
296.96947513510162
 30
0.0
 11
53.647099585000433
 21
151.77990132930159
 31
0.0
  0
LINE
  8
DETAIL
  6
CONTINUOUS
 62
     5
 10
52.621074013100042
 20
148.96091923860149
 30
0.0
 11
52.458633642600027
 21
148.5146179887015
 31
0.0
  0
LINE
  8
DETAIL
  6
CONTINUOUS
 62
     5
 10
151.89840199439999
 20
412.95172293080162
 30
0.0
 11
110.33564272469989
 21
298.75898034700151
 31
0.0
  0
LINE
  8
DETAIL
  6
CONTINUOUS
 62
     5
 10
109.3096454432002
 20
295.94007598350152
 30
0.0
 11
56.46779317940036
 21
150.7582800867016
 31
0.0
  0
LINE
  8
DETAIL
  6
CONTINUOUS
 62
     5
 10
55.44169210759992
 20
147.93909056170151
 30
0.0
 11
55.277711504900253
 21
147.48855755870159
 31
0.0
  0
LINE
  8
DETAIL
  6
CONTINUOUS
 62
     5
 10
28.82679961200029
 20
154.8467488329016
 30
0.0
 11
25.872376353000622
 21
155.36769336590149
 31
0.0
  0
LINE
  8
DETAIL
  6
CONTINUOUS
 62
     5
 10
42.212888343000493
 20
151.74508907280159
 30
0.0
 11
39.315110864200513
 21
152.5215462081016
 31
0.0
  0
LINE
  8
DETAIL
  6
CONTINUOUS
 62
     5
 10
148.51461798870011
 20
52.458633642601541
 30
0.0
 11
147.48855755880049
 21
55.277711504901653
 31
0.0
  0
LINE
  8
DETAIL
  6
CONTINUOUS
 62
     5
 10
184.59257348529991
 20
399.40935368870157
 30
0.0
 11
133.23877152280011
 21
289.28076998570162
 31
0.0
  0
LINE
  8
DETAIL
  6
CONTINUOUS
 62
     5
 10
131.97098925020049
 20
286.56200212830151
 30
0.0
 11
66.671078312300324
 21
146.52589121330149
 31
0.0
  0
LINE
  8
DETAIL
  6
CONTINUOUS
 62
     5
 10
65.40334108370007
 20
143.8072199533016
 30
0.0
 11
65.2029145436004
 21
143.37740385080161
 31
0.0
  0
LINE
  8
DETAIL
  6
CONTINUOUS
 62
     5
 10
187.31149684640059
 20
398.14149890350149
 30
0.0
 11
135.9536643694
 21
288.00427173420161
 31
0.0
  0
LINE
  8
DETAIL
  6
CONTINUOUS
 62
     5
 10
134.68588209679999
 20
285.2855038768015
 30
0.0
 11
69.396813856500103
 21
145.27264520200151
 31
0.0
  0
LINE
  8
DETAIL
  6
CONTINUOUS
 62
     5
 10
68.128758322800422
 20
142.5532913343016
 30
0.0
 11
67.921837904700169
 21
142.10954906560161
 31
0.0
  0
LINE
  8
DETAIL
  6
CONTINUOUS
 62
     5
 10
12.48299069000041
 20
157.0117032053015
 30
0.0
 11
9.4902985393000563
 21
157.22097262650169
 31
0.0
  0
LINE
  8
DETAIL
  6
CONTINUOUS
 62
     5
 10
152.52154620810009
 20
39.315110864201671
 30
0.0
 11
151.74508907280011
 21
42.212888343001538
 31
0.0
  0
LINE
  8
DETAIL
  6
CONTINUOUS
 62
     5
 10
155.3676933658999
 20
25.87237635300156
 30
0.0
 11
154.8467488329002
 21
28.826799612001569
 31
0.0
  0
LINE
  8
DETAIL
  6
CONTINUOUS
 62
     5
 10
157.22097262649999
 20
9.4902985393016763
 30
0.0
 11
157.01170320530039
 21
12.48299069000157
 31
0.0
  0
LINE
  8
DETAIL
  6
CONTINUOUS
 62
     5
 10
218.70096189430021
 20
381.80117766510159
 30
0.0
 11
157.94706071180011
 21
276.57233405900161
 31
0.0
  0
LINE
  8
DETAIL
  6
CONTINUOUS
 62
     5
 10
156.44713400650019
 20
273.97438479790151
 30
0.0
 11
79.190150211500168
 21
140.16136362540149
 31
0.0
  0
LINE
  8
DETAIL
  6
CONTINUOUS
 62
     5
 10
77.690328255800523
 20
137.5635957958016
 30
0.0
 11
77.450961894300235
 21
137.14900109600151
 31
0.0
  0
LINE
  8
DETAIL
  6
CONTINUOUS
 62
     5
 10
221.2990381056002
 20
380.30117766510159
 30
0.0
 11
160.5373763719999
 21
275.05889239020149
 31
0.0
  0
LINE
  8
DETAIL
  6
CONTINUOUS
 62
     5
 10
159.03744966680009
 20
272.46094312910162
 30
0.0
 11
81.790739699400092
 21
138.66571674800161
 31
0.0
  0
LINE
  8
DETAIL
  6
CONTINUOUS
 62
     5
 10
80.290917743699993
 20
136.0679489184015
 30
0.0
 11
80.049038105600175
 21
135.64900109600151
 31
0.0
  0
LINE
  8
DETAIL
  6
CONTINUOUS
 62
     5
 10
-35.0
 20
163.50000000000159
 30
0.0
 11
9.9293709056000807
 21
163.50000000000159
 31
0.0
  0
LINE
  8
DETAIL
  6
CONTINUOUS
 62
     5
 10
12.93669659980014
 20
163.50000000000159
 30
0.0
 11
27.30632142800005
 21
163.50000000000159
 31
0.0
  0
LINE
  8
DETAIL
  6
CONTINUOUS
 62
     5
 10
30.35260126360026
 20
163.50000000000159
 30
0.0
 11
35.0
 21
163.50000000000159
 31
0.0
  0
LINE
  8
DETAIL
  6
CONTINUOUS
 62
     5
 10
-35.0
 20
164.50000000000159
 30
0.0
 11
9.9992977175002125
 21
164.50000000000159
 31
0.0
  0
LINE
  8
DETAIL
  6
CONTINUOUS
 62
     5
 10
13.006623411800319
 20
164.50000000000159
 30
0.0
 11
27.482648408699792
 21
164.50000000000159
 31
0.0
  0
LINE
  8
DETAIL
  6
CONTINUOUS
 62
     5
 10
30.528928244300001
 20
164.50000000000159
 30
0.0
 11
35.0
 21
164.50000000000159
 31
0.0
  0
LINE
  8
DETAIL
  6
CONTINUOUS
 62
     5
 10
251.1449039280005
 20
361.28726414160161
 30
0.0
 11
181.4519200332002
 21
261.75536810840151
 31
0.0
  0
LINE
  8
DETAIL
  6
CONTINUOUS
 62
     5
 10
179.73110043179989
 20
259.29778302470152
 30
0.0
 11
91.110228210100104
 21
132.7340610056016
 31
0.0
  0
LINE
  8
DETAIL
  6
CONTINUOUS
 62
     5
 10
89.38969145550027
 20
130.27687986890149
 30
0.0
 11
89.109560658800092
 21
129.87681163000161
 31
0.0
  0
LINE
  8
DETAIL
  6
CONTINUOUS
 62
     5
 10
253.60236006090011
 20
359.56653483260152
 30
0.0
 11
183.8999776477003
 21
260.02121632410149
 31
0.0
  0
LINE
  8
DETAIL
  6
CONTINUOUS
 62
     5
 10
182.17931123910009
 20
257.56385002230149
 30
0.0
 11
93.560716790000242
 21
131.00338099960149
 31
0.0
  0
LINE
  8
DETAIL
  6
CONTINUOUS
 62
     5
 10
91.840180035300364
 20
128.54619986290169
 30
0.0
 11
91.567016791700553
 21
128.15608232090159
 31
0.0
  0
LINE
  8
DETAIL
  6
CONTINUOUS
 62
     5
 10
-35.0
 20
188.50000000000159
 30
0.0
 11
11.677541204200219
 21
188.50000000000159
 31
0.0
  0
LINE
  8
DETAIL
  6
CONTINUOUS
 62
     5
 10
14.684866898400291
 20
188.50000000000159
 30
0.0
 11
31.71449594570004
 21
188.50000000000159
 31
0.0
  0
LINE
  8
DETAIL
  6
CONTINUOUS
 62
     5
 10
34.760775781300246
 20
188.50000000000159
 30
0.0
 11
35.0
 21
188.50000000000159
 31
0.0
  0
LINE
  8
DETAIL
  6
CONTINUOUS
 62
     5
 10
-35.0
 20
189.50000000000159
 30
0.0
 11
11.74746801610036
 21
189.50000000000159
 31
0.0
  0
LINE
  8
DETAIL
  6
CONTINUOUS
 62
     5
 10
14.75479371040001
 20
189.50000000000159
 30
0.0
 11
31.890822926400229
 21
189.50000000000159
 31
0.0
  0
LINE
  8
DETAIL
  6
CONTINUOUS
 62
     5
 10
34.937102761999988
 20
189.50000000000159
 30
0.0
 11
35.0
 21
189.50000000000159
 31
0.0
  0
LINE
  8
DETAIL
  6
CONTINUOUS
 62
     5
 10
193.5
 20
39.00000000000162
 30
0.0
 11
193.5
 21
9.00000000000162
 31
0.0
  0
LINE
  8
DETAIL
  6
CONTINUOUS
 62
     5
 10
281.67748159739989
 20
338.0237363868016
 30
0.0
 11
203.57106902880011
 21
244.9401386037016
 31
0.0
  0
LINE
  8
DETAIL
  6
CONTINUOUS
 62
     5
 10
201.64265944360019
 20
242.6419495525015
 30
0.0
 11
102.3301519428001
 21
124.2859119489015
 31
0.0
  0
LINE
  8
DETAIL
  6
CONTINUOUS
 62
     5
 10
100.40158638940009
 20
121.9875370220016
 30
0.0
 11
100.0899818609
 21
121.61618120570159
 31
0.0
  0
LINE
  8
DETAIL
  6
CONTINUOUS
 62
     5
 10
283.97561492670047
 20
336.09537355780151
 30
0.0
 11
205.86393613359999
 21
243.00549973250159
 31
0.0
  0
LINE
  8
DETAIL
  6
CONTINUOUS
 62
     5
 10
203.93561238640001
 20
240.70741297920159
 30
0.0
 11
104.62096143300001
 21
122.3488209082016
 31
0.0
  0
LINE
  8
DETAIL
  6
CONTINUOUS
 62
     5
 10
102.6927381009
 20
120.05085382480161
 30
0.0
 11
102.3881151903001
 21
119.6878183767016
 31
0.0
  0
LINE
  8
DETAIL
  6
CONTINUOUS
 62
     5
 10
196.5
 20
39.00000000000162
 30
0.0
 11
196.5
 21
9.00000000000162
 31
0.0
  0
LINE
  8
DETAIL
  6
CONTINUOUS
 62
     5
 10
310.06632355030018
 20
312.18764389380158
 30
0.0
 11
224.1410146799999
 21
226.26233502360151
 31
0.0
  0
LINE
  8
DETAIL
  6
CONTINUOUS
 62
     5
 10
222.01969433640031
 20
224.14101468000149
 30
0.0
 11
112.7670916160005
 21
114.8884119596015
 31
0.0
  0
LINE
  8
DETAIL
  6
CONTINUOUS
 62
     5
 10
110.6457712724
 20
112.76709161600159
 30
0.0
 11
110.3086578651
 21
112.4299782086016
 31
0.0
  0
LINE
  8
DETAIL
  6
CONTINUOUS
 62
     5
 10
312.18764389380021
 20
310.0663235503016
 30
0.0
 11
226.2623350236004
 21
224.14101468000149
 31
0.0
  0
LINE
  8
DETAIL
  6
CONTINUOUS
 62
     5
 10
224.1410146799999
 20
222.0196943364015
 30
0.0
 11
114.88841195960001
 21
112.76709161600159
 31
0.0
  0
LINE
  8
DETAIL
  6
CONTINUOUS
 62
     5
 10
112.7670916160005
 20
110.6457712724016
 30
0.0
 11
112.42997820860001
 21
110.30865786510169
 31
0.0
  0
LINE
  8
DETAIL
  6
CONTINUOUS
 62
     5
 10
336.09537355779997
 20
283.97561492670161
 30
0.0
 11
243.00549973250011
 21
205.86393613360161
 31
0.0
  0
LINE
  8
DETAIL
  6
CONTINUOUS
 62
     5
 10
240.70741297919989
 20
203.9356123864016
 30
0.0
 11
122.3488209082002
 21
104.6209614330016
 31
0.0
  0
LINE
  8
DETAIL
  6
CONTINUOUS
 62
     5
 10
120.0508538248005
 20
102.69273810090159
 30
0.0
 11
119.68781837670031
 21
102.38811519030151
 31
0.0
  0
LINE
  8
DETAIL
  6
CONTINUOUS
 62
     5
 10
338.02373638680001
 20
281.67748159740148
 30
0.0
 11
244.94013860369981
 21
203.5710690288015
 31
0.0
  0
LINE
  8
DETAIL
  6
CONTINUOUS
 62
     5
 10
242.64194955250011
 20
201.64265944360159
 30
0.0
 11
124.28591194890031
 21
102.33015194280161
 31
0.0
  0
LINE
  8
DETAIL
  6
CONTINUOUS
 62
     5
 10
121.9875370220002
 20
100.4015863894015
 30
0.0
 11
121.6161812057003
 21
100.0899818609016
 31
0.0
  0
LINE
  8
DETAIL
  6
CONTINUOUS
 62
     5
 10
-60.0
 20
279.00000000000159
 30
0.0
 11
18.00591768510003
 21
279.00000000000159
 31
0.0
  0
LINE
  8
DETAIL
  6
CONTINUOUS
 62
     5
 10
21.013243379300089
 20
279.00000000000159
 30
0.0
 11
47.672087699800159
 21
279.00000000000159
 31
0.0
  0
LINE
  8
DETAIL
  6
CONTINUOUS
 62
     5
 10
50.718367535399921
 20
279.00000000000159
 30
0.0
 11
60.0
 21
279.00000000000159
 31
0.0
  0
LINE
  8
DETAIL
  6
CONTINUOUS
 62
     5
 10
-60.0
 20
280.00000000000159
 30
0.0
 11
18.075844497000158
 21
280.00000000000159
 31
0.0
  0
LINE
  8
DETAIL
  6
CONTINUOUS
 62
     5
 10
21.083170191300269
 20
280.00000000000159
 30
0.0
 11
47.848414680500348
 21
280.00000000000159
 31
0.0
  0
LINE
  8
DETAIL
  6
CONTINUOUS
 62
     5
 10
50.894694516200161
 20
280.00000000000159
 30
0.0
 11
60.0
 21
280.00000000000159
 31
0.0
  0
LINE
  8
DETAIL
  6
CONTINUOUS
 62
     5
 10
359.56653483260021
 20
253.60236006090159
 30
0.0
 11
260.02121632410041
 21
183.8999776477016
 31
0.0
  0
LINE
  8
DETAIL
  6
CONTINUOUS
 62
     5
 10
257.56385002230041
 20
182.17931123910151
 30
0.0
 11
131.0033809996003
 21
93.560716790001635
 31
0.0
  0
LINE
  8
DETAIL
  6
CONTINUOUS
 62
     5
 10
128.54619986290029
 20
91.840180035301529
 30
0.0
 11
128.1560823209002
 21
91.567016791701604
 31
0.0
  0
LINE
  8
DETAIL
  6
CONTINUOUS
 62
     5
 10
361.28726414160019
 20
251.14490392800161
 30
0.0
 11
261.75536810839998
 21
181.45192003320159
 31
0.0
  0
LINE
  8
DETAIL
  6
CONTINUOUS
 62
     5
 10
259.29778302469998
 20
179.73110043180159
 30
0.0
 11
132.7340610055999
 21
91.11022821010161
 31
0.0
  0
LINE
  8
DETAIL
  6
CONTINUOUS
 62
     5
 10
130.27687986890029
 20
89.389691455501548
 30
0.0
 11
129.87681163000019
 21
89.109560658801598
 31
0.0
  0
LINE
  8
DETAIL
  6
CONTINUOUS
 62
     5
 10
-60.0
 20
304.00000000000159
 30
0.0
 11
19.75408798370017
 21
304.00000000000159
 31
0.0
  0
LINE
  8
DETAIL
  6
CONTINUOUS
 62
     5
 10
22.76141367790024
 20
304.00000000000159
 30
0.0
 11
52.080262217500149
 21
304.00000000000159
 31
0.0
  0
LINE
  8
DETAIL
  6
CONTINUOUS
 62
     5
 10
55.126542053199962
 20
304.00000000000159
 30
0.0
 11
60.0
 21
304.00000000000159
 31
0.0
  0
LINE
  8
DETAIL
  6
CONTINUOUS
 62
     5
 10
-60.0
 20
305.00000000000159
 30
0.0
 11
19.824014795600309
 21
305.00000000000159
 31
0.0
  0
LINE
  8
DETAIL
  6
CONTINUOUS
 62
     5
 10
22.831340489899961
 20
305.00000000000159
 30
0.0
 11
52.256589198200338
 21
305.00000000000159
 31
0.0
  0
LINE
  8
DETAIL
  6
CONTINUOUS
 62
     5
 10
55.302869033900613
 20
305.00000000000159
 30
0.0
 11
60.0
 21
305.00000000000159
 31
0.0
  0
LINE
  8
DETAIL
  6
CONTINUOUS
 62
     5
 10
380.30117766510011
 20
221.2990381056016
 30
0.0
 11
275.05889239020053
 21
160.53737637200149
 31
0.0
  0
LINE
  8
DETAIL
  6
CONTINUOUS
 62
     5
 10
272.46094312910009
 20
159.03744966680159
 30
0.0
 11
138.66571674800019
 21
81.790739699401485
 31
0.0
  0
LINE
  8
DETAIL
  6
CONTINUOUS
 62
     5
 10
136.06794891840039
 20
80.290917743701613
 30
0.0
 11
135.64900109600009
 21
80.049038105601568
 31
0.0
  0
LINE
  8
DETAIL
  6
CONTINUOUS
 62
     5
 10
381.80117766510011
 20
218.7009618943016
 30
0.0
 11
276.57233405900018
 21
157.94706071180161
 31
0.0
  0
LINE
  8
DETAIL
  6
CONTINUOUS
 62
     5
 10
273.97438479790031
 20
156.44713400650161
 30
0.0
 11
140.16136362540061
 21
79.19015021150156
 31
0.0
  0
LINE
  8
DETAIL
  6
CONTINUOUS
 62
     5
 10
137.56359579580021
 20
77.690328255801575
 30
0.0
 11
137.14900109600009
 21
77.450961894301628
 31
0.0
  0
LINE
  8
DETAIL
  6
CONTINUOUS
 62
     5
 10
398.14149890350018
 20
187.3114968464015
 30
0.0
 11
288.0042717342003
 21
135.95366436940151
 31
0.0
  0
LINE
  8
DETAIL
  6
CONTINUOUS
 62
     5
 10
285.28550387680019
 20
134.68588209680161
 30
0.0
 11
145.2726452020006
 21
69.396813856501495
 31
0.0
  0
LINE
  8
DETAIL
  6
CONTINUOUS
 62
     5
 10
142.55329133430001
 20
68.128758322801588
 30
0.0
 11
142.10954906559979
 21
67.921837904701562
 31
0.0
  0
LINE
  8
DETAIL
  6
CONTINUOUS
 62
     5
 10
399.40935368870032
 20
184.5925734853015
 30
0.0
 11
289.28076998570032
 21
133.2387715228015
 31
0.0
  0
LINE
  8
DETAIL
  6
CONTINUOUS
 62
     5
 10
286.56200212830032
 20
131.9709892502016
 30
0.0
 11
146.52589121330041
 21
66.671078312301489
 31
0.0
  0
LINE
  8
DETAIL
  6
CONTINUOUS
 62
     5
 10
143.80721995330029
 20
65.403341083701577
 30
0.0
 11
143.37740385080039
 21
65.202914543601565
 31
0.0
  0
LINE
  8
DETAIL
  6
CONTINUOUS
 62
     5
 10
412.95172293080032
 20
151.89840199440161
 30
0.0
 11
298.75898034699998
 21
110.3356427247016
 31
0.0
  0
LINE
  8
DETAIL
  6
CONTINUOUS
 62
     5
 10
295.94007598350032
 20
109.3096454432016
 30
0.0
 11
150.7582800867003
 21
56.467793179401532
 31
0.0
  0
LINE
  8
DETAIL
  6
CONTINUOUS
 62
     5
 10
147.93909056170011
 20
55.44169210760154
 30
0.0
 11
147.48855755880049
 21
55.277711504901653
 31
0.0
  0
LINE
  8
DETAIL
  6
CONTINUOUS
 62
     5
 10
413.97778336070041
 20
149.07932413210159
 30
0.0
 11
299.78837949860008
 21
107.5177800576016
 31
0.0
  0
LINE
  8
DETAIL
  6
CONTINUOUS
 62
     5
 10
296.96947513510031
 20
106.4917827761016
 30
0.0
 11
151.7799013293002
 21
53.647099585001598
 31
0.0
  0
LINE
  8
DETAIL
  6
CONTINUOUS
 62
     5
 10
148.96091923860061
 20
52.621074013101662
 30
0.0
 11
148.51461798870011
 21
52.458633642601541
 31
0.0
  0
CIRCLE
  8
DETAIL
  6
CONTINUOUS
 62
     5
 10
-22.5
 20
176.50000000000159
 30
0.0
 40
2.5
  0
ARC
  8
DETAIL
  6
CONTINUOUS
 62
     5
 10
0.0
 20
0.00000000000162
 30
0.0
 40
444.5
 50
3.4999999999970899
 51
86.499999999990507
  0
ARC
  8
DETAIL
  6
CONTINUOUS
 62
     5
 10
0.0
 20
0.00000000000162
 30
0.0
 40
441.5
 50
3.4999999999970899
 51
86.499999999990507
  0
ARC
  8
DETAIL
  6
CONTINUOUS
 62
     5
 10
0.000192008459635
 20
0.0000800237229726
 30
0.0
 40
318.49980764421002
 50
0.2499857551740099
 51
90.245325084167618
  0
ARC
  8
DETAIL
  6
CONTINUOUS
 62
     5
 10
-0.0000000000004547
 20
0.0000000000011653
 30
0.0
 40
315.50000000000051
 50
0.2500000000045395
 51
90.249999999991559
  0
ARC
  8
DETAIL
  6
CONTINUOUS
 62
     5
 10
0.0000000000004547
 20
0.0000000000019043
 30
0.0
 40
160.99999999999949
 50
0.5999999999935317
 51
90.600000000032722
  0
ARC
  8
DETAIL
  6
CONTINUOUS
 62
     5
 10
-0.0000000000004547
 20
0.0000000000013927
 30
0.0
 40
158.00000000000031
 50
0.5999999999935317
 51
90.600000000032722
  0
CIRCLE
  8
DETAIL
  6
CONTINUOUS
 62
     5
 10
22.5
 20
176.50000000000159
 30
0.0
 40
2.5
  0
CIRCLE
  8
DETAIL
  6
CONTINUOUS
 62
     5
 10
-20.0
 20
292.00000000000159
 30
0.0
 40
3.0
  0
CIRCLE
  8
DETAIL
  6
CONTINUOUS
 62
     5
 10
-40.0
 20
292.00000000000159
 30
0.0
 40
2.5
  0
CIRCLE
  8
DETAIL
  6
CONTINUOUS
 62
     5
 10
40.0
 20
292.00000000000159
 30
0.0
 40
2.5
  0
ARC
  8
DETAIL
  6
CONTINUOUS
 62
     5
 10
30.692848447400142
 20
438.92818211430148
 30
0.0
 40
1.5
 50
356.00000000000352
 51
176.0000000000035
  0
ARC
  8
DETAIL
  6
CONTINUOUS
 62
     5
 10
76.405198173400095
 20
433.31541132530151
 30
0.0
 40
1.5
 50
349.99999999999449
 51
169.99999999999449
  0
ARC
  8
DETAIL
  6
CONTINUOUS
 62
     5
 10
113.8803798450999
 20
425.00736356710149
 30
0.0
 40
1.5
 50
345.00000000000563
 51
165.0000000000056
  0
ARC
  8
DETAIL
  6
CONTINUOUS
 62
     5
 10
150.48886306330041
 20
413.46475314580152
 30
0.0
 40
1.5
 50
340.00000000000011
 51
160.00000000000011
  0
ARC
  8
DETAIL
  6
CONTINUOUS
 62
     5
 10
185.9520351659003
 20
398.7754262961015
 30
0.0
 40
1.5
 50
334.99999999999511
 51
154.99999999999511
  0
ARC
  8
DETAIL
  6
CONTINUOUS
 62
     5
 10
438.9281821143004
 20
30.692848447401531
 30
0.0
 40
1.5
 50
274.00000000000949
 51
94.000000000009521
  0
ARC
  8
DETAIL
  6
CONTINUOUS
 62
     5
 10
433.31541132530037
 20
76.405198173401487
 30
0.0
 40
1.5
 50
280.00000000000512
 51
100.000000000005
  0
ARC
  8
DETAIL
  6
CONTINUOUS
 62
     5
 10
425.00736356709967
 20
113.8803798451015
 30
0.0
 40
1.5
 50
284.99999999999437
 51
104.9999999999945
  0
ARC
  8
DETAIL
  6
CONTINUOUS
 62
     5
 10
413.46475314580039
 20
150.48886306330161
 30
0.0
 40
1.5
 50
289.99999999998983
 51
109.9999999999898
  0
ARC
  8
DETAIL
  6
CONTINUOUS
 62
     5
 10
398.7754262961007
 20
185.95203516590149
 30
0.0
 40
1.5
 50
295.00000000000671
 51
115.00000000000669
  0
ARC
  8
DETAIL
  6
CONTINUOUS
 62
     5
 10
381.05117766510011
 20
220.00000000000159
 30
0.0
 40
1.5
 50
299.99999999999972
 51
119.9999999999997
  0
ARC
  8
DETAIL
  6
CONTINUOUS
 62
     5
 10
360.42689948709989
 20
252.37363199440159
 30
0.0
 40
1.5
 50
305.00000000001268
 51
125.0000000000127
  0
ARC
  8
DETAIL
  6
CONTINUOUS
 62
     5
 10
220.0
 20
381.05117766510159
 30
0.0
 40
1.5
 50
330.00000000000409
 51
150.00000000000409
  0
ARC
  8
DETAIL
  6
CONTINUOUS
 62
     5
 10
337.05955497230019
 20
282.82654826200161
 30
0.0
 40
1.5
 50
309.99999999998738
 51
129.99999999998741
  0
ARC
  8
DETAIL
  6
CONTINUOUS
 62
     5
 10
252.37363199440011
 20
360.42689948710148
 30
0.0
 40
1.5
 50
325.0000000000141
 51
145.0000000000141
  0
ARC
  8
DETAIL
  6
CONTINUOUS
 62
     5
 10
311.1269837220002
 20
311.12698372200163
 30
0.0
 40
1.5
 50
315.00000000000921
 51
135.00000000000921
  0
ARC
  8
DETAIL
  6
CONTINUOUS
 62
     5
 10
282.82654826200002
 20
337.0595549723015
 30
0.0
 40
1.5
 50
319.99999999999858
 51
139.99999999999869
  0
LINE
  8
DETAIL
  6
CONTINUOUS
 62
     5
 10
304.0
 20
60.00000000000162
 30
0.0
 11
305.0
 21
60.00000000000162
 31
0.0
  0
LINE
  8
DETAIL
  6
CONTINUOUS
 62
     5
 10
304.0
 20
60.00000000000162
 30
0.0
 11
280.0
 21
60.00000000000162
 31
0.0
  0
LINE
  8
DETAIL
  6
CONTINUOUS
 62
     5
 10
280.0
 20
60.00000000000162
 30
0.0
 11
279.0
 21
60.00000000000162
 31
0.0
  0
LINE
  8
DETAIL
  6
CONTINUOUS
 62
     5
 10
188.5
 20
35.00000000000162
 30
0.0
 11
189.5
 21
35.00000000000162
 31
0.0
  0
LINE
  8
DETAIL
  6
CONTINUOUS
 62
     5
 10
188.5
 20
35.00000000000162
 30
0.0
 11
164.5
 21
35.00000000000162
 31
0.0
  0
LINE
  8
DETAIL
  6
CONTINUOUS
 62
     5
 10
164.5
 20
35.00000000000162
 30
0.0
 11
163.5
 21
35.00000000000162
 31
0.0
  0
LINE
  8
DETAIL
  6
CONTINUOUS
 62
     5
 10
29.19650237199949
 20
-439.03281682489819
 30
0.0
 11
20.719733839999211
 21
-317.80937911319978
 31
0.0
  0
LINE
  8
DETAIL
  6
CONTINUOUS
 62
     5
 10
20.510467677699129
 20
-314.81673356829953
 30
0.0
 11
12.23695569969914
 21
-196.49999999999841
 31
0.0
  0
LINE
  8
DETAIL
  6
CONTINUOUS
 62
     5
 10
12.027175263900061
 20
-193.49999999999841
 30
0.0
 11
9.732679759599705
 21
-160.68718556469889
 31
0.0
  0
LINE
  8
DETAIL
  6
CONTINUOUS
 62
     5
 10
9.523418206599672
 20
-157.69460593599911
 30
0.0
 11
9.4902985393000563
 21
-157.2209726264993
 31
0.0
  0
LINE
  8
DETAIL
  6
CONTINUOUS
 62
     5
 10
32.18919452279988
 20
-438.82354740369942
 30
0.0
 11
23.712854614999738
 21
-317.6062393044997
 31
0.0
  0
LINE
  8
DETAIL
  6
CONTINUOUS
 62
     5
 10
23.503581466299689
 20
-314.6134938484995
 30
0.0
 11
15.2442813939997
 21
-196.49999999999841
 31
0.0
  0
LINE
  8
DETAIL
  6
CONTINUOUS
 62
     5
 10
15.03450095809967
 20
-193.49999999999841
 30
0.0
 11
12.725740215499171
 21
-160.4831831528993
 31
0.0
  0
LINE
  8
DETAIL
  6
CONTINUOUS
 62
     5
 10
12.5164614523992
 20
-157.49035740769909
 30
0.0
 11
12.4829906899995
 21
-157.01170320529869
 31
0.0
  0
LINE
  8
DETAIL
  6
CONTINUOUS
 62
     5
 10
26.952930204599401
 20
-440.67651350319852
 30
0.0
 11
27.136075823199459
 21
-443.6709178984986
 31
0.0
  0
LINE
  8
DETAIL
  6
CONTINUOUS
 62
     5
 10
9.0
 20
-196.49469813639939
 30
0.0
 11
9.0
 21
-193.5053018634992
 31
0.0
  0
LINE
  8
DETAIL
  6
CONTINUOUS
 62
     5
 10
440.6765135031992
 20
-26.9529302045996
 30
0.0
 11
443.67091789849928
 21
-27.136075823198748
 31
0.0
  0
LINE
  8
DETAIL
  6
CONTINUOUS
 62
     5
 10
439.03281682489978
 20
-29.196502371998779
 30
0.0
 11
317.80937911319961
 21
-20.719733839998501
 31
0.0
  0
LINE
  8
DETAIL
  6
CONTINUOUS
 62
     5
 10
314.81673356829918
 20
-20.510467677699321
 30
0.0
 11
160.6871855646996
 21
-9.7326797595989945
 31
0.0
  0
LINE
  8
DETAIL
  6
CONTINUOUS
 62
     5
 10
157.69460593599979
 20
-9.5234182065989614
 30
0.0
 11
157.22097262649999
 21
-9.4902985392984363
 31
0.0
  0
LINE
  8
DETAIL
  6
CONTINUOUS
 62
     5
 10
74.927986543899351
 20
-433.57588359179891
 30
0.0
 11
53.825777270399158
 21
-313.89930778509938
 31
0.0
  0
LINE
  8
DETAIL
  6
CONTINUOUS
 62
     5
 10
53.304863114699401
 20
-310.94505680459878
 30
0.0
 11
33.125111791299787
 21
-196.49999999999841
 31
0.0
  0
LINE
  8
DETAIL
  6
CONTINUOUS
 62
     5
 10
32.596130849199653
 20
-193.49999999999841
 30
0.0
 11
26.478827845999149
 21
-158.8070506926999
 31
0.0
  0
LINE
  8
DETAIL
  6
CONTINUOUS
 62
     5
 10
25.957788560199329
 20
-155.85209006379969
 30
0.0
 11
25.872376352999709
 21
-155.36769336589921
 31
0.0
  0
LINE
  8
DETAIL
  6
CONTINUOUS
 62
     5
 10
77.882409802899929
 20
-433.05493905879871
 30
0.0
 11
56.781661779199567
 21
-313.38665041169969
 31
0.0
  0
LINE
  8
DETAIL
  6
CONTINUOUS
 62
     5
 10
56.260747623598952
 20
-310.43239943119829
 30
0.0
 11
36.171391626999139
 21
-196.49999999999841
 31
0.0
  0
LINE
  8
DETAIL
  6
CONTINUOUS
 62
     5
 10
35.642410684898998
 20
-193.49999999999841
 30
0.0
 11
29.430114172198959
 21
-158.26831572949979
 31
0.0
  0
LINE
  8
DETAIL
  6
CONTINUOUS
 62
     5
 10
28.909221460399749
 20
-155.3141863633993
 30
0.0
 11
28.82679961199938
 21
-154.84674883289901
 31
0.0
  0
LINE
  8
DETAIL
  6
CONTINUOUS
 62
     5
 10
39.0
 20
-196.49469813639939
 30
0.0
 11
39.0
 21
-193.5053018634992
 31
0.0
  0
LINE
  8
DETAIL
  6
CONTINUOUS
 62
     5
 10
188.5
 20
-34.99999999999838
 30
0.0
 11
189.5
 21
-34.99999999999838
 31
0.0
  0
LINE
  8
DETAIL
  6
CONTINUOUS
 62
     5
 10
188.5
 20
-34.99999999999838
 30
0.0
 11
164.5
 21
-34.99999999999838
 31
0.0
  0
LINE
  8
DETAIL
  6
CONTINUOUS
 62
     5
 10
164.5
 20
-34.99999999999838
 30
0.0
 11
163.5
 21
-34.99999999999838
 31
0.0
  0
LINE
  8
DETAIL
  6
CONTINUOUS
 62
     5
 10
438.82354740369919
 20
-32.18919452279826
 30
0.0
 11
317.60623930449952
 21
-23.712854614999031
 31
0.0
  0
LINE
  8
DETAIL
  6
CONTINUOUS
 62
     5
 10
314.61349384849927
 20
-23.503581466298979
 30
0.0
 11
160.48318315290001
 21
-12.72574021549937
 31
0.0
  0
LINE
  8
DETAIL
  6
CONTINUOUS
 62
     5
 10
157.4903574076998
 20
-12.51646145239849
 30
0.0
 11
157.01170320529951
 21
-12.482990689999699
 31
0.0
  0
LINE
  8
DETAIL
  6
CONTINUOUS
 62
     5
 10
112.43149110559899
 20
-425.39559213479902
 30
0.0
 11
80.979558430599354
 21
-308.01538139539872
 31
0.0
  0
LINE
  8
DETAIL
  6
CONTINUOUS
 62
     5
 10
80.203149371599466
 20
-305.11778333979993
 30
0.0
 11
40.216057158599142
 21
-155.8839235539983
 31
0.0
  0
LINE
  8
DETAIL
  6
CONTINUOUS
 62
     5
 10
39.439555331899101
 20
-152.9859792844984
 30
0.0
 11
39.315110864199603
 21
-152.5215462080989
 31
0.0
  0
LINE
  8
DETAIL
  6
CONTINUOUS
 62
     5
 10
115.329268584499
 20
-424.61913499949901
 30
0.0
 11
83.877965097299239
 21
-307.24127242079908
 31
0.0
  0
LINE
  8
DETAIL
  6
CONTINUOUS
 62
     5
 10
83.10155603829935
 20
-304.34367436519852
 30
0.0
 11
43.112108481399453
 21
-155.1010243164985
 31
0.0
  0
LINE
  8
DETAIL
  6
CONTINUOUS
 62
     5
 10
42.335687314099232
 20
-152.20338107209881
 30
0.0
 11
42.212888342999577
 21
-151.74508907279889
 31
0.0
  0
LINE
  8
DETAIL
  6
CONTINUOUS
 62
     5
 10
304.0
 20
-59.99999999999838
 30
0.0
 11
305.0
 21
-59.99999999999838
 31
0.0
  0
LINE
  8
DETAIL
  6
CONTINUOUS
 62
     5
 10
304.0
 20
-59.99999999999838
 30
0.0
 11
280.0
 21
-59.99999999999838
 31
0.0
  0
LINE
  8
DETAIL
  6
CONTINUOUS
 62
     5
 10
280.0
 20
-59.99999999999838
 30
0.0
 11
279.0
 21
-59.99999999999838
 31
0.0
  0
LINE
  8
DETAIL
  6
CONTINUOUS
 62
     5
 10
433.57588359179948
 20
-74.927986543898641
 30
0.0
 11
313.89930778509921
 21
-53.825777270398447
 31
0.0
  0
LINE
  8
DETAIL
  6
CONTINUOUS
 62
     5
 10
310.94505680459952
 20
-53.3048631146996
 30
0.0
 11
158.8070506926997
 21
-26.478827845998438
 31
0.0
  0
LINE
  8
DETAIL
  6
CONTINUOUS
 62
     5
 10
155.85209006379961
 20
-25.957788560199528
 30
0.0
 11
155.3676933658999
 21
-25.872376352999911
 31
0.0
  0
LINE
  8
DETAIL
  6
CONTINUOUS
 62
     5
 10
433.05493905879939
 20
-77.882409802898309
 30
0.0
 11
313.38665041169952
 21
-56.781661779199773
 31
0.0
  0
LINE
  8
DETAIL
  6
CONTINUOUS
 62
     5
 10
310.43239943119988
 20
-56.260747623599137
 30
0.0
 11
158.26831572949959
 21
-29.430114172199151
 31
0.0
  0
LINE
  8
DETAIL
  6
CONTINUOUS
 62
     5
 10
155.3141863633991
 20
-28.909221460399039
 30
0.0
 11
154.84674883289969
 21
-28.826799611999579
 31
0.0
  0
LINE
  8
DETAIL
  6
CONTINUOUS
 62
     5
 10
135.64900109599969
 20
-80.04903810559901
 30
0.0
 11
137.14900109599969
 21
-77.450961894299525
 31
0.0
  0
LINE
  8
DETAIL
  6
CONTINUOUS
 62
     5
 10
128.15608232089929
 20
-91.567016791699842
 30
0.0
 11
129.87681162999979
 21
-89.109560658798927
 31
0.0
  0
LINE
  8
DETAIL
  6
CONTINUOUS
 62
     5
 10
119.6878183766994
 20
-102.388115190299
 30
0.0
 11
121.6161812056998
 21
-100.0899818608989
 31
0.0
  0
LINE
  8
DETAIL
  6
CONTINUOUS
 62
     5
 10
110.3086578651
 20
-112.4299782085984
 30
0.0
 11
112.42997820860001
 21
-110.3086578650984
 31
0.0
  0
LINE
  8
DETAIL
  6
CONTINUOUS
 62
     5
 10
100.0899818608996
 20
-121.61618120569911
 30
0.0
 11
102.3881151902997
 21
-119.6878183766987
 31
0.0
  0
LINE
  8
DETAIL
  6
CONTINUOUS
 62
     5
 10
425.3955921347997
 20
-112.43149110559921
 30
0.0
 11
308.01538139539929
 21
-80.979558430599553
 31
0.0
  0
LINE
  8
DETAIL
  6
CONTINUOUS
 62
     5
 10
305.11778333979959
 20
-80.203149371598755
 30
0.0
 11
155.88392355399989
 21
-40.216057158599341
 31
0.0
  0
LINE
  8
DETAIL
  6
CONTINUOUS
 62
     5
 10
152.98597928449999
 20
-39.4395553318993
 30
0.0
 11
152.52154620809961
 21
-39.315110864199802
 31
0.0
  0
LINE
  8
DETAIL
  6
CONTINUOUS
 62
     5
 10
424.61913499949969
 20
-115.3292685844992
 30
0.0
 11
307.24127242079982
 21
-83.877965097299438
 31
0.0
  0
LINE
  8
DETAIL
  6
CONTINUOUS
 62
     5
 10
304.34367436519909
 20
-83.101556038298639
 30
0.0
 11
155.10102431649921
 21
-43.112108481398742
 31
0.0
  0
LINE
  8
DETAIL
  6
CONTINUOUS
 62
     5
 10
152.20338107209949
 20
-42.335687314198573
 30
0.0
 11
151.7450890727996
 21
-42.212888342999783
 31
0.0
  0
LINE
  8
DETAIL
  6
CONTINUOUS
 62
     5
 10
147.48855755869951
 20
-55.277711504899543
 30
0.0
 11
148.51461798869971
 21
-52.458633642598407
 31
0.0
  0
LINE
  8
DETAIL
  6
CONTINUOUS
 62
     5
 10
142.10954906559979
 20
-67.921837904699004
 30
0.0
 11
143.37740385079999
 21
-65.202914543599235
 31
0.0
  0
LINE
  8
DETAIL
  6
CONTINUOUS
 62
     5
 10
89.109560658799637
 20
-129.87681162999911
 30
0.0
 11
91.567016791699643
 21
-128.15608232089849
 31
0.0
  0
LINE
  8
DETAIL
  6
CONTINUOUS
 62
     5
 10
77.450961894299326
 20
-137.14900109599901
 30
0.0
 11
80.04903810559972
 21
-135.64900109599901
 31
0.0
  0
LINE
  8
DETAIL
  6
CONTINUOUS
 62
     5
 10
65.202914543599036
 20
-143.37740385079931
 30
0.0
 11
67.921837904699714
 21
-142.10954906559911
 31
0.0
  0
LINE
  8
DETAIL
  6
CONTINUOUS
 62
     5
 10
413.9777833606995
 20
-149.07932413209909
 30
0.0
 11
299.78837949859923
 21
-107.5177800575986
 31
0.0
  0
LINE
  8
DETAIL
  6
CONTINUOUS
 62
     5
 10
296.96947513509991
 20
-106.4917827760985
 30
0.0
 11
151.77990132929969
 21
-53.647099584999722
 31
0.0
  0
LINE
  8
DETAIL
  6
CONTINUOUS
 62
     5
 10
148.9609192385997
 20
-52.621074013099332
 30
0.0
 11
148.51461798869971
 21
-52.458633642598407
 31
0.0
  0
LINE
  8
DETAIL
  6
CONTINUOUS
 62
     5
 10
412.95172293079941
 20
-151.8984019943984
 30
0.0
 11
298.75898034699912
 21
-110.3356427246983
 31
0.0
  0
LINE
  8
DETAIL
  6
CONTINUOUS
 62
     5
 10
295.94007598349981
 20
-109.3096454431991
 30
0.0
 11
150.75828008669939
 21
-56.467793179399649
 31
0.0
  0
LINE
  8
DETAIL
  6
CONTINUOUS
 62
     5
 10
147.9390905616992
 20
-55.441692107599209
 30
0.0
 11
147.48855755869951
 21
-55.277711504899543
 31
0.0
  0
LINE
  8
DETAIL
  6
CONTINUOUS
 62
     5
 10
154.84674883289969
 20
-28.826799611999579
 30
0.0
 11
155.3676933658999
 21
-25.872376352999911
 31
0.0
  0
LINE
  8
DETAIL
  6
CONTINUOUS
 62
     5
 10
151.7450890727996
 20
-42.212888342999783
 30
0.0
 11
152.52154620809961
 21
-39.315110864199802
 31
0.0
  0
LINE
  8
DETAIL
  6
CONTINUOUS
 62
     5
 10
52.458633642599118
 20
-148.514617988699
 30
0.0
 11
55.277711504899337
 21
-147.48855755879981
 31
0.0
  0
LINE
  8
DETAIL
  6
CONTINUOUS
 62
     5
 10
399.40935368869941
 20
-184.5925734852992
 30
0.0
 11
289.28076998569941
 21
-133.23877152279891
 31
0.0
  0
LINE
  8
DETAIL
  6
CONTINUOUS
 62
     5
 10
286.56200212829941
 20
-131.97098925019981
 30
0.0
 11
146.5258912132995
 21
-66.671078312299159
 31
0.0
  0
LINE
  8
DETAIL
  6
CONTINUOUS
 62
     5
 10
143.80721995329989
 20
-65.40334108369845
 30
0.0
 11
143.37740385079999
 21
-65.202914543599235
 31
0.0
  0
LINE
  8
DETAIL
  6
CONTINUOUS
 62
     5
 10
398.14149890349933
 20
-187.3114968463999
 30
0.0
 11
288.00427173419939
 21
-135.95366436939929
 31
0.0
  0
LINE
  8
DETAIL
  6
CONTINUOUS
 62
     5
 10
285.28550387679928
 20
-134.6858820967993
 30
0.0
 11
145.27264520199969
 21
-69.396813856498937
 31
0.0
  0
LINE
  8
DETAIL
  6
CONTINUOUS
 62
     5
 10
142.5532913342995
 20
-68.128758322798802
 30
0.0
 11
142.10954906559979
 21
-67.921837904699004
 31
0.0
  0
LINE
  8
DETAIL
  6
CONTINUOUS
 62
     5
 10
157.01170320529951
 20
-12.482990689999699
 30
0.0
 11
157.22097262649999
 21
-9.4902985392984363
 31
0.0
  0
LINE
  8
DETAIL
  6
CONTINUOUS
 62
     5
 10
39.315110864199603
 20
-152.5215462080989
 30
0.0
 11
42.212888342999577
 21
-151.74508907279889
 31
0.0
  0
LINE
  8
DETAIL
  6
CONTINUOUS
 62
     5
 10
25.872376352999709
 20
-155.36769336589921
 30
0.0
 11
28.82679961199938
 21
-154.84674883289901
 31
0.0
  0
LINE
  8
DETAIL
  6
CONTINUOUS
 62
     5
 10
9.4902985393000563
 20
-157.2209726264993
 30
0.0
 11
12.4829906899995
 21
-157.01170320529869
 31
0.0
  0
LINE
  8
DETAIL
  6
CONTINUOUS
 62
     5
 10
381.8011776650992
 20
-218.7009618942995
 30
0.0
 11
276.57233405899927
 21
-157.94706071179851
 31
0.0
  0
LINE
  8
DETAIL
  6
CONTINUOUS
 62
     5
 10
273.9743847978998
 20
-156.44713400649951
 30
0.0
 11
140.16136362539959
 21
-79.190150211499002
 31
0.0
  0
LINE
  8
DETAIL
  6
CONTINUOUS
 62
     5
 10
137.5635957957993
 20
-77.690328255799812
 30
0.0
 11
137.14900109599969
 21
-77.450961894299525
 31
0.0
  0
LINE
  8
DETAIL
  6
CONTINUOUS
 62
     5
 10
380.3011776650992
 20
-221.29903810559901
 30
0.0
 11
275.05889239019962
 21
-160.53737637199831
 31
0.0
  0
LINE
  8
DETAIL
  6
CONTINUOUS
 62
     5
 10
272.46094312909918
 20
-159.03744966679929
 30
0.0
 11
138.6657167479998
 21
-81.790739699398927
 31
0.0
  0
LINE
  8
DETAIL
  6
CONTINUOUS
 62
     5
 10
136.06794891839951
 20
-80.290917743698827
 30
0.0
 11
135.64900109599969
 21
-80.04903810559901
 31
0.0
  0
LINE
  8
DETAIL
  6
CONTINUOUS
 62
     5
 10
163.5
 20
35.00000000000162
 30
0.0
 11
163.5
 21
-9.9293709055984607
 31
0.0
  0
LINE
  8
DETAIL
  6
CONTINUOUS
 62
     5
 10
163.5
 20
-12.93669659979898
 30
0.0
 11
163.5
 21
-27.30632142799934
 31
0.0
  0
LINE
  8
DETAIL
  6
CONTINUOUS
 62
     5
 10
163.5
 20
-30.352601263599549
 30
0.0
 11
163.5
 21
-34.99999999999838
 31
0.0
  0
LINE
  8
DETAIL
  6
CONTINUOUS
 62
     5
 10
164.5
 20
35.00000000000162
 30
0.0
 11
164.5
 21
-9.9992977174990472
 31
0.0
  0
LINE
  8
DETAIL
  6
CONTINUOUS
 62
     5
 10
164.5
 20
-13.006623411798699
 30
0.0
 11
164.5
 21
-27.482648408699081
 31
0.0
  0
LINE
  8
DETAIL
  6
CONTINUOUS
 62
     5
 10
164.5
 20
-30.528928244299291
 30
0.0
 11
164.5
 21
-34.99999999999838
 31
0.0
  0
LINE
  8
DETAIL
  6
CONTINUOUS
 62
     5
 10
361.28726414159968
 20
-251.14490392799979
 30
0.0
 11
261.75536810839913
 21
-181.451920033199
 31
0.0
  0
LINE
  8
DETAIL
  6
CONTINUOUS
 62
     5
 10
259.29778302469907
 20
-179.73110043179821
 30
0.0
 11
132.7340610055999
 21
-91.110228210098484
 31
0.0
  0
LINE
  8
DETAIL
  6
CONTINUOUS
 62
     5
 10
130.27687986889941
 20
-89.389691455499104
 30
0.0
 11
129.87681162999979
 21
-89.109560658798927
 31
0.0
  0
LINE
  8
DETAIL
  6
CONTINUOUS
 62
     5
 10
359.56653483259919
 20
-253.60236006089889
 30
0.0
 11
260.02121632409938
 21
-183.89997764769959
 31
0.0
  0
LINE
  8
DETAIL
  6
CONTINUOUS
 62
     5
 10
257.56385002229939
 20
-182.17931123909901
 30
0.0
 11
131.00338099959939
 21
-93.560716789999077
 31
0.0
  0
LINE
  8
DETAIL
  6
CONTINUOUS
 62
     5
 10
128.54619986289981
 20
-91.840180035298744
 30
0.0
 11
128.15608232089929
 21
-91.567016791699842
 31
0.0
  0
LINE
  8
DETAIL
  6
CONTINUOUS
 62
     5
 10
188.5
 20
35.00000000000162
 30
0.0
 11
188.5
 21
-11.677541204199059
 31
0.0
  0
LINE
  8
DETAIL
  6
CONTINUOUS
 62
     5
 10
188.5
 20
-14.684866898398671
 30
0.0
 11
188.5
 21
-31.71449594569842
 31
0.0
  0
LINE
  8
DETAIL
  6
CONTINUOUS
 62
     5
 10
188.5
 20
-34.760775781298634
 30
0.0
 11
188.5
 21
-34.99999999999838
 31
0.0
  0
LINE
  8
DETAIL
  6
CONTINUOUS
 62
     5
 10
189.5
 20
35.00000000000162
 30
0.0
 11
189.5
 21
-11.747468016099649
 31
0.0
  0
LINE
  8
DETAIL
  6
CONTINUOUS
 62
     5
 10
189.5
 20
-14.7547937103993
 30
0.0
 11
189.5
 21
-31.890822926399071
 31
0.0
  0
LINE
  8
DETAIL
  6
CONTINUOUS
 62
     5
 10
189.5
 20
-34.937102761998368
 30
0.0
 11
189.5
 21
-34.99999999999838
 31
0.0
  0
LINE
  8
DETAIL
  6
CONTINUOUS
 62
     5
 10
39.0
 20
-193.49999999999841
 30
0.0
 11
9.0
 21
-193.49999999999841
 31
0.0
  0
LINE
  8
DETAIL
  6
CONTINUOUS
 62
     5
 10
338.02373638680001
 20
-281.67748159739881
 30
0.0
 11
244.94013860369981
 21
-203.571069028799
 31
0.0
  0
LINE
  8
DETAIL
  6
CONTINUOUS
 62
     5
 10
242.64194955249971
 20
-201.64265944359909
 30
0.0
 11
124.2859119488994
 21
-102.33015194279891
 31
0.0
  0
LINE
  8
DETAIL
  6
CONTINUOUS
 62
     5
 10
121.9875370219997
 20
-100.4015863893985
 30
0.0
 11
121.6161812056998
 21
-100.0899818608989
 31
0.0
  0
LINE
  8
DETAIL
  6
CONTINUOUS
 62
     5
 10
336.09537355779958
 20
-283.97561492669979
 30
0.0
 11
243.0054997324996
 21
-205.86393613359931
 31
0.0
  0
LINE
  8
DETAIL
  6
CONTINUOUS
 62
     5
 10
240.70741297919989
 20
-203.9356123863983
 30
0.0
 11
122.3488209081997
 21
-104.6209614329984
 31
0.0
  0
LINE
  8
DETAIL
  6
CONTINUOUS
 62
     5
 10
120.0508538247996
 20
-102.69273810089931
 30
0.0
 11
119.6878183766994
 21
-102.388115190299
 31
0.0
  0
LINE
  8
DETAIL
  6
CONTINUOUS
 62
     5
 10
39.0
 20
-196.49999999999841
 30
0.0
 11
9.0
 21
-196.49999999999841
 31
0.0
  0
LINE
  8
DETAIL
  6
CONTINUOUS
 62
     5
 10
312.18764389379982
 20
-310.0663235502991
 30
0.0
 11
226.26233502359989
 21
-224.14101467999919
 31
0.0
  0
LINE
  8
DETAIL
  6
CONTINUOUS
 62
     5
 10
224.1410146799999
 20
-222.0196943363992
 30
0.0
 11
114.88841195959959
 21
-112.76709161599889
 31
0.0
  0
LINE
  8
DETAIL
  6
CONTINUOUS
 62
     5
 10
112.7670916159996
 20
-110.6457712723988
 30
0.0
 11
112.42997820860001
 21
-110.3086578650984
 31
0.0
  0
LINE
  8
DETAIL
  6
CONTINUOUS
 62
     5
 10
310.06632355029978
 20
-312.18764389379908
 30
0.0
 11
224.1410146799999
 21
-226.26233502359921
 31
0.0
  0
LINE
  8
DETAIL
  6
CONTINUOUS
 62
     5
 10
222.01969433639991
 20
-224.14101467999919
 30
0.0
 11
112.7670916159996
 21
-114.8884119595989
 31
0.0
  0
LINE
  8
DETAIL
  6
CONTINUOUS
 62
     5
 10
110.6457712723995
 20
-112.76709161599889
 30
0.0
 11
110.3086578651
 21
-112.4299782085984
 31
0.0
  0
LINE
  8
DETAIL
  6
CONTINUOUS
 62
     5
 10
283.97561492669962
 20
-336.09537355779889
 30
0.0
 11
205.86393613359999
 21
-243.00549973249889
 31
0.0
  0
LINE
  8
DETAIL
  6
CONTINUOUS
 62
     5
 10
203.93561238640001
 20
-240.7074129791983
 30
0.0
 11
104.6209614329991
 21
-122.348820908199
 31
0.0
  0
LINE
  8
DETAIL
  6
CONTINUOUS
 62
     5
 10
102.69273810089911
 20
-120.0508538247998
 30
0.0
 11
102.3881151902997
 21
-119.6878183766987
 31
0.0
  0
LINE
  8
DETAIL
  6
CONTINUOUS
 62
     5
 10
281.67748159739949
 20
-338.02373638679842
 30
0.0
 11
203.57106902879971
 21
-244.9401386036991
 31
0.0
  0
LINE
  8
DETAIL
  6
CONTINUOUS
 62
     5
 10
201.6426594435998
 20
-242.641949552499
 30
0.0
 11
102.3301519427996
 21
-124.2859119488987
 31
0.0
  0
LINE
  8
DETAIL
  6
CONTINUOUS
 62
     5
 10
100.4015863893992
 20
-121.987537021999
 30
0.0
 11
100.0899818608996
 21
-121.61618120569911
 31
0.0
  0
LINE
  8
DETAIL
  6
CONTINUOUS
 62
     5
 10
279.0
 20
60.00000000000162
 30
0.0
 11
279.0
 21
-18.00591768509932
 31
0.0
  0
LINE
  8
DETAIL
  6
CONTINUOUS
 62
     5
 10
279.0
 20
-21.013243379298931
 30
0.0
 11
279.0
 21
-47.672087699798993
 31
0.0
  0
LINE
  8
DETAIL
  6
CONTINUOUS
 62
     5
 10
279.0
 20
-50.71836753539921
 30
0.0
 11
279.0
 21
-59.99999999999838
 31
0.0
  0
LINE
  8
DETAIL
  6
CONTINUOUS
 62
     5
 10
280.0
 20
60.00000000000162
 30
0.0
 11
280.0
 21
-18.075844496999
 31
0.0
  0
LINE
  8
DETAIL
  6
CONTINUOUS
 62
     5
 10
280.0
 20
-21.083170191299558
 30
0.0
 11
280.0
 21
-47.848414680498728
 31
0.0
  0
LINE
  8
DETAIL
  6
CONTINUOUS
 62
     5
 10
280.0
 20
-50.894694516199003
 30
0.0
 11
280.0
 21
-59.99999999999838
 31
0.0
  0
LINE
  8
DETAIL
  6
CONTINUOUS
 62
     5
 10
253.6023600608996
 20
-359.56653483259862
 30
0.0
 11
183.89997764769939
 21
-260.02121632409973
 31
0.0
  0
LINE
  8
DETAIL
  6
CONTINUOUS
 62
     5
 10
182.17931123909969
 20
-257.56385002229968
 30
0.0
 11
93.560716789999788
 21
-131.00338099959859
 31
0.0
  0
LINE
  8
DETAIL
  6
CONTINUOUS
 62
     5
 10
91.840180035299454
 20
-128.5461998628991
 30
0.0
 11
91.567016791699643
 21
-128.15608232089849
 31
0.0
  0
LINE
  8
DETAIL
  6
CONTINUOUS
 62
     5
 10
251.14490392799959
 20
-361.28726414159911
 30
0.0
 11
181.45192003319971
 21
-261.75536810839941
 31
0.0
  0
LINE
  8
DETAIL
  6
CONTINUOUS
 62
     5
 10
179.73110043179989
 20
-259.29778302469839
 30
0.0
 11
91.110228210099194
 21
-132.73406100559819
 31
0.0
  0
LINE
  8
DETAIL
  6
CONTINUOUS
 62
     5
 10
89.389691455499815
 20
-130.27687986889961
 30
0.0
 11
89.109560658799637
 21
-129.87681162999911
 31
0.0
  0
LINE
  8
DETAIL
  6
CONTINUOUS
 62
     5
 10
304.0
 20
60.00000000000162
 30
0.0
 11
304.0
 21
-19.754087983699009
 31
0.0
  0
LINE
  8
DETAIL
  6
CONTINUOUS
 62
     5
 10
304.0
 20
-22.76141367789953
 30
0.0
 11
304.0
 21
-52.080262217498984
 31
0.0
  0
LINE
  8
DETAIL
  6
CONTINUOUS
 62
     5
 10
304.0
 20
-55.126542053198342
 30
0.0
 11
304.0
 21
-59.99999999999838
 31
0.0
  0
LINE
  8
DETAIL
  6
CONTINUOUS
 62
     5
 10
305.0
 20
60.00000000000162
 30
0.0
 11
305.0
 21
-19.824014795598689
 31
0.0
  0
LINE
  8
DETAIL
  6
CONTINUOUS
 62
     5
 10
305.0
 20
-22.831340489898341
 30
0.0
 11
305.0
 21
-52.256589198199627
 31
0.0
  0
LINE
  8
DETAIL
  6
CONTINUOUS
 62
     5
 10
305.0
 20
-55.302869033899903
 30
0.0
 11
305.0
 21
-59.99999999999838
 31
0.0
  0
LINE
  8
DETAIL
  6
CONTINUOUS
 62
     5
 10
221.29903810559969
 20
-380.30117766509852
 30
0.0
 11
160.5373763719999
 21
-275.05889239019979
 31
0.0
  0
LINE
  8
DETAIL
  6
CONTINUOUS
 62
     5
 10
159.03744966679909
 20
-272.46094312909941
 30
0.0
 11
81.790739699399637
 21
-138.66571674799911
 31
0.0
  0
LINE
  8
DETAIL
  6
CONTINUOUS
 62
     5
 10
80.290917743699538
 20
-136.06794891839871
 30
0.0
 11
80.04903810559972
 21
-135.64900109599901
 31
0.0
  0
LINE
  8
DETAIL
  6
CONTINUOUS
 62
     5
 10
218.7009618942993
 20
-381.80117766509852
 30
0.0
 11
157.9470607117992
 21
-276.57233405899962
 31
0.0
  0
LINE
  8
DETAIL
  6
CONTINUOUS
 62
     5
 10
156.44713400649931
 20
-273.97438479789912
 30
0.0
 11
79.190150211499713
 21
-140.16136362539891
 31
0.0
  0
LINE
  8
DETAIL
  6
CONTINUOUS
 62
     5
 10
77.690328255799614
 20
-137.56359579579859
 30
0.0
 11
77.450961894299326
 21
-137.14900109599901
 31
0.0
  0
LINE
  8
DETAIL
  6
CONTINUOUS
 62
     5
 10
187.31149684639971
 20
-398.14149890349859
 30
0.0
 11
135.95366436939909
 21
-288.00427173419871
 31
0.0
  0
LINE
  8
DETAIL
  6
CONTINUOUS
 62
     5
 10
134.68588209679911
 20
-285.28550387679962
 30
0.0
 11
69.396813856499648
 21
-145.27264520199989
 31
0.0
  0
LINE
  8
DETAIL
  6
CONTINUOUS
 62
     5
 10
68.128758322799513
 20
-142.55329133429879
 30
0.0
 11
67.921837904699714
 21
-142.10954906559911
 31
0.0
  0
LINE
  8
DETAIL
  6
CONTINUOUS
 62
     5
 10
184.592573485299
 20
-399.40935368869958
 30
0.0
 11
133.23877152279971
 21
-289.28076998569873
 31
0.0
  0
LINE
  8
DETAIL
  6
CONTINUOUS
 62
     5
 10
131.97098925019961
 20
-286.56200212829958
 30
0.0
 11
66.671078312299869
 21
-146.5258912132997
 31
0.0
  0
LINE
  8
DETAIL
  6
CONTINUOUS
 62
     5
 10
65.403341083699161
 20
-143.80721995329921
 30
0.0
 11
65.202914543599036
 21
-143.37740385079931
 31
0.0
  0
LINE
  8
DETAIL
  6
CONTINUOUS
 62
     5
 10
151.89840199439911
 20
-412.95172293079872
 30
0.0
 11
110.33564272469989
 21
-298.75898034699838
 31
0.0
  0
LINE
  8
DETAIL
  6
CONTINUOUS
 62
     5
 10
109.3096454431998
 20
-295.94007598349913
 30
0.0
 11
56.46779317939945
 21
-150.7582800866987
 31
0.0
  0
LINE
  8
DETAIL
  6
CONTINUOUS
 62
     5
 10
55.44169210759901
 20
-147.93909056169849
 30
0.0
 11
55.277711504899337
 21
-147.48855755879981
 31
0.0
  0
LINE
  8
DETAIL
  6
CONTINUOUS
 62
     5
 10
149.0793241320998
 20
-413.97778336069882
 30
0.0
 11
107.5177800575993
 21
-299.7883794985994
 31
0.0
  0
LINE
  8
DETAIL
  6
CONTINUOUS
 62
     5
 10
106.4917827760992
 20
-296.96947513509917
 30
0.0
 11
53.647099584999523
 21
-151.77990132929901
 31
0.0
  0
LINE
  8
DETAIL
  6
CONTINUOUS
 62
     5
 10
52.621074013099133
 20
-148.9609192385999
 30
0.0
 11
52.458633642599118
 21
-148.514617988699
 31
0.0
  0
CIRCLE
  8
DETAIL
  6
CONTINUOUS
 62
     5
 10
176.5
 20
22.50000000000162
 30
0.0
 40
2.5
  0
ARC
  8
DETAIL
  6
CONTINUOUS
 62
     5
 10
0.0
 20
0.00000000000162
 30
0.0
 40
444.5
 50
273.4999999999834
 51
356.49999999998988
  0
ARC
  8
DETAIL
  6
CONTINUOUS
 62
     5
 10
0.0
 20
0.00000000000162
 30
0.0
 40
441.5
 50
273.4999999999834
 51
356.49999999998988
  0
ARC
  8
DETAIL
  6
CONTINUOUS
 62
     5
 10
-0.000000000003638
 20
0.0000000000045759
 30
0.0
 40
318.50000000000358
 50
269.75000000000841
 51
0.2500000000045395
  0
ARC
  8
DETAIL
  6
CONTINUOUS
 62
     5
 10
0.0000000000013642
 20
0.0000000000010516
 30
0.0
 40
315.49999999999801
 50
269.75000000000841
 51
0.2500000000045395
  0
ARC
  8
DETAIL
  6
CONTINUOUS
 62
     5
 10
-0.0000000000004547
 20
0.0000000000021885
 30
0.0
 40
160.9999999999996
 50
269.39999999996718
 51
0.5999999999935317
  0
ARC
  8
DETAIL
  6
CONTINUOUS
 62
     5
 10
-0.0000000000004547
 20
0.0000000000020748
 30
0.0
 40
158.00000000000031
 50
269.39999999996718
 51
0.5999999999935317
  0
CIRCLE
  8
DETAIL
  6
CONTINUOUS
 62
     5
 10
176.5
 20
-22.49999999999838
 30
0.0
 40
2.5
  0
CIRCLE
  8
DETAIL
  6
CONTINUOUS
 62
     5
 10
292.0
 20
20.00000000000162
 30
0.0
 40
3.0
  0
CIRCLE
  8
DETAIL
  6
CONTINUOUS
 62
     5
 10
292.0
 20
40.00000000000162
 30
0.0
 40
2.5
  0
CIRCLE
  8
DETAIL
  6
CONTINUOUS
 62
     5
 10
292.0
 20
-39.99999999999838
 30
0.0
 40
2.5
  0
ARC
  8
DETAIL
  6
CONTINUOUS
 62
     5
 10
438.92818211429949
 20
-30.692848447399431
 30
0.0
 40
1.5
 50
266.0000000000166
 51
86.000000000016598
  0
ARC
  8
DETAIL
  6
CONTINUOUS
 62
     5
 10
433.31541132529952
 20
-76.405198173399384
 30
0.0
 40
1.5
 50
259.99999999999488
 51
79.999999999994984
  0
ARC
  8
DETAIL
  6
CONTINUOUS
 62
     5
 10
425.00736356709967
 20
-113.8803798450992
 30
0.0
 40
1.5
 50
255.0000000000056
 51
75.000000000005542
  0
ARC
  8
DETAIL
  6
CONTINUOUS
 62
     5
 10
413.46475314579948
 20
-150.4888630632997
 30
0.0
 40
1.5
 50
250.0000000000102
 51
70.000000000010203
  0
ARC
  8
DETAIL
  6
CONTINUOUS
 62
     5
 10
398.77542629609979
 20
-185.95203516589959
 30
0.0
 40
1.5
 50
245.0000000000218
 51
65.000000000021814
  0
ARC
  8
DETAIL
  6
CONTINUOUS
 62
     5
 10
30.692848447399228
 20
-438.92818211429972
 30
0.0
 40
1.5
 50
184.00000000000949
 51
4.0000000000095079
  0
ARC
  8
DETAIL
  6
CONTINUOUS
 62
     5
 10
76.405198173399185
 20
-433.31541132529878
 30
0.0
 40
1.5
 50
190.00000000000551
 51
10.0000000000055
  0
ARC
  8
DETAIL
  6
CONTINUOUS
 62
     5
 10
113.880379845099
 20
-425.00736356709808
 30
0.0
 40
1.5
 50
194.9999999999944
 51
14.999999999994451
  0
ARC
  8
DETAIL
  6
CONTINUOUS
 62
     5
 10
150.4888630632995
 20
-413.4647531457997
 30
0.0
 40
1.5
 50
200.0
 51
19.99999999999995
  0
ARC
  8
DETAIL
  6
CONTINUOUS
 62
     5
 10
185.95203516589939
 20
-398.77542629609911
 30
0.0
 40
1.5
 50
205.00000000000489
 51
25.00000000000486
  0
ARC
  8
DETAIL
  6
CONTINUOUS
 62
     5
 10
220.0
 20
-381.05117766509852
 30
0.0
 40
1.5
 50
210.00000000000429
 51
30.000000000004331
  0
ARC
  8
DETAIL
  6
CONTINUOUS
 62
     5
 10
252.37363199439909
 20
-360.42689948709841
 30
0.0
 40
1.5
 50
215.0000000000168
 51
35.00000000001684
  0
ARC
  8
DETAIL
  6
CONTINUOUS
 62
     5
 10
381.0511776650992
 20
-219.99999999999841
 30
0.0
 40
1.5
 50
239.9999999999994
 51
60.000000000000277
  0
ARC
  8
DETAIL
  6
CONTINUOUS
 62
     5
 10
282.82654826199911
 20
-337.05955497229871
 30
0.0
 40
1.5
 50
219.99999999996339
 51
39.999999999963393
  0
ARC
  8
DETAIL
  6
CONTINUOUS
 62
     5
 10
360.42689948709989
 20
-252.37363199439841
 30
0.0
 40
1.5
 50
235.00000000001981
 51
55.000000000019853
  0
ARC
  8
DETAIL
  6
CONTINUOUS
 62
     5
 10
311.12698372199969
 20
-311.12698372199912
 30
0.0
 40
1.5
 50
224.99999999999079
 51
44.999999999990777
  0
ARC
  8
DETAIL
  6
CONTINUOUS
 62
     5
 10
337.05955497229928
 20
-282.82654826199928
 30
0.0
 40
1.5
 50
229.99999999997911
 51
49.99999999997906
  0
LINE
  8
DETAIL
  6
CONTINUOUS
 62
     5
 10
60.0
 20
-303.99999999999829
 30
0.0
 11
60.0
 21
-304.99999999999829
 31
0.0
  0
LINE
  8
DETAIL
  6
CONTINUOUS
 62
     5
 10
60.0
 20
-303.99999999999829
 30
0.0
 11
60.0
 21
-279.99999999999829
 31
0.0
  0
LINE
  8
DETAIL
  6
CONTINUOUS
 62
     5
 10
60.0
 20
-279.99999999999829
 30
0.0
 11
60.0
 21
-278.99999999999829
 31
0.0
  0
LINE
  8
DETAIL
  6
CONTINUOUS
 62
     5
 10
35.0
 20
-188.49999999999829
 30
0.0
 11
35.0
 21
-189.49999999999829
 31
0.0
  0
LINE
  8
DETAIL
  6
CONTINUOUS
 62
     5
 10
35.0
 20
-188.49999999999829
 30
0.0
 11
35.0
 21
-164.49999999999829
 31
0.0
  0
LINE
  8
DETAIL
  6
CONTINUOUS
 62
     5
 10
35.0
 20
-164.49999999999829
 30
0.0
 11
35.0
 21
-163.49999999999829
 31
0.0
  0
LINE
  8
DETAIL
  6
CONTINUOUS
 62
     5
 10
-439.03281682489978
 20
-29.196502371998211
 30
0.0
 11
-317.80937911320052
 21
-20.71973383999827
 31
0.0
  0
LINE
  8
DETAIL
  6
CONTINUOUS
 62
     5
 10
-314.81673356830021
 20
-20.510467677698301
 30
0.0
 11
-196.5
 21
-12.2369556996982
 31
0.0
  0
LINE
  8
DETAIL
  6
CONTINUOUS
 62
     5
 10
-193.5
 20
-12.02717526389833
 30
0.0
 11
-160.68718556470051
 21
-9.7326797595981986
 31
0.0
  0
LINE
  8
DETAIL
  6
CONTINUOUS
 62
     5
 10
-157.69460593599979
 20
-9.5234182065981656
 30
0.0
 11
-157.22097262649999
 21
-9.4902985392983226
 31
0.0
  0
LINE
  8
DETAIL
  6
CONTINUOUS
 62
     5
 10
-438.8235474037001
 20
-32.18919452279826
 30
0.0
 11
-317.60623930450038
 21
-23.712854614998239
 31
0.0
  0
LINE
  8
DETAIL
  6
CONTINUOUS
 62
     5
 10
-314.61349384850018
 20
-23.50358146629819
 30
0.0
 11
-196.5
 21
-15.24428139399819
 31
0.0
  0
LINE
  8
DETAIL
  6
CONTINUOUS
 62
     5
 10
-193.5
 20
-15.03450095809816
 30
0.0
 11
-160.48318315290001
 21
-12.725740215498121
 31
0.0
  0
LINE
  8
DETAIL
  6
CONTINUOUS
 62
     5
 10
-157.4903574076998
 20
-12.516461452398151
 30
0.0
 11
-157.01170320530039
 21
-12.482990689998219
 31
0.0
  0
LINE
  8
DETAIL
  6
CONTINUOUS
 62
     5
 10
-440.67651350320011
 20
-26.952930204598228
 30
0.0
 11
-443.67091789850019
 21
-27.13607582319818
 31
0.0
  0
LINE
  8
DETAIL
  6
CONTINUOUS
 62
     5
 10
-196.4946981364001
 20
-8.9999999999982663
 30
0.0
 11
-193.50530186349991
 21
-8.9999999999982663
 31
0.0
  0
LINE
  8
DETAIL
  6
CONTINUOUS
 62
     5
 10
-26.95293020460031
 20
-440.67651350319852
 30
0.0
 11
-27.136075823200368
 21
-443.67091789849809
 31
0.0
  0
LINE
  8
DETAIL
  6
CONTINUOUS
 62
     5
 10
-29.196502372000399
 20
-439.03281682489819
 30
0.0
 11
-20.719733840000121
 21
-317.80937911319842
 31
0.0
  0
LINE
  8
DETAIL
  6
CONTINUOUS
 62
     5
 10
-20.510467677700031
 20
-314.81673356829822
 30
0.0
 11
-9.732679759599705
 21
-160.68718556469841
 31
0.0
  0
LINE
  8
DETAIL
  6
CONTINUOUS
 62
     5
 10
-9.523418206599672
 20
-157.6946059359984
 30
0.0
 11
-9.4902985393000563
 21
-157.22097262649839
 31
0.0
  0
LINE
  8
DETAIL
  6
CONTINUOUS
 62
     5
 10
-433.57588359180039
 20
-74.927986543898299
 30
0.0
 11
-313.89930778510012
 21
-53.825777270398113
 31
0.0
  0
LINE
  8
DETAIL
  6
CONTINUOUS
 62
     5
 10
-310.94505680459952
 20
-53.304863114698122
 30
0.0
 11
-196.5
 21
-33.125111791298281
 31
0.0
  0
LINE
  8
DETAIL
  6
CONTINUOUS
 62
     5
 10
-193.5
 20
-32.596130849198261
 30
0.0
 11
-158.80705069270061
 21
-26.478827845998211
 31
0.0
  0
LINE
  8
DETAIL
  6
CONTINUOUS
 62
     5
 10
-155.85209006380049
 20
-25.957788560198281
 30
0.0
 11
-155.3676933658999
 21
-25.872376352998199
 31
0.0
  0
LINE
  8
DETAIL
  6
CONTINUOUS
 62
     5
 10
-433.0549390588003
 20
-77.882409802898195
 30
0.0
 11
-313.38665041170037
 21
-56.781661779198288
 31
0.0
  0
LINE
  8
DETAIL
  6
CONTINUOUS
 62
     5
 10
-310.43239943119988
 20
-56.260747623598121
 30
0.0
 11
-196.5
 21
-36.171391626998201
 31
0.0
  0
LINE
  8
DETAIL
  6
CONTINUOUS
 62
     5
 10
-193.5
 20
-35.642410684898181
 30
0.0
 11
-158.2683157295005
 21
-29.430114172198131
 31
0.0
  0
LINE
  8
DETAIL
  6
CONTINUOUS
 62
     5
 10
-155.31418636340001
 20
-28.909221460398239
 30
0.0
 11
-154.8467488329006
 21
-28.826799611998212
 31
0.0
  0
LINE
  8
DETAIL
  6
CONTINUOUS
 62
     5
 10
-196.4946981364001
 20
-38.999999999998273
 30
0.0
 11
-193.50530186349991
 21
-38.999999999998273
 31
0.0
  0
LINE
  8
DETAIL
  6
CONTINUOUS
 62
     5
 10
-35.0
 20
-188.49999999999829
 30
0.0
 11
-35.0
 21
-189.49999999999829
 31
0.0
  0
LINE
  8
DETAIL
  6
CONTINUOUS
 62
     5
 10
-35.0
 20
-188.49999999999829
 30
0.0
 11
-35.0
 21
-164.49999999999829
 31
0.0
  0
LINE
  8
DETAIL
  6
CONTINUOUS
 62
     5
 10
-35.0
 20
-164.49999999999829
 30
0.0
 11
-35.0
 21
-163.49999999999829
 31
0.0
  0
LINE
  8
DETAIL
  6
CONTINUOUS
 62
     5
 10
-32.18919452279988
 20
-438.82354740369851
 30
0.0
 11
-23.712854614999738
 21
-317.60623930449822
 31
0.0
  0
LINE
  8
DETAIL
  6
CONTINUOUS
 62
     5
 10
-23.503581466300599
 20
-314.61349384849831
 30
0.0
 11
-12.72574021550008
 21
-160.48318315289839
 31
0.0
  0
LINE
  8
DETAIL
  6
CONTINUOUS
 62
     5
 10
-12.51646145240011
 20
-157.49035740769841
 30
0.0
 11
-12.48299069000041
 21
-157.01170320529829
 31
0.0
  0
LINE
  8
DETAIL
  6
CONTINUOUS
 62
     5
 10
-425.39559213480061
 20
-112.4314911055982
 30
0.0
 11
-308.01538139540031
 21
-80.979558430598303
 31
0.0
  0
LINE
  8
DETAIL
  6
CONTINUOUS
 62
     5
 10
-305.11778333980061
 20
-80.203149371598187
 30
0.0
 11
-155.88392355399989
 21
-40.216057158598197
 31
0.0
  0
LINE
  8
DETAIL
  6
CONTINUOUS
 62
     5
 10
-152.98597928449999
 20
-39.439555331898283
 30
0.0
 11
-152.52154620809961
 21
-39.315110864198317
 31
0.0
  0
LINE
  8
DETAIL
  6
CONTINUOUS
 62
     5
 10
-424.6191349995006
 20
-115.32926858449819
 30
0.0
 11
-307.24127242080073
 21
-83.877965097298187
 31
0.0
  0
LINE
  8
DETAIL
  6
CONTINUOUS
 62
     5
 10
-304.34367436520012
 20
-83.101556038298298
 30
0.0
 11
-155.10102431650009
 21
-43.112108481398167
 31
0.0
  0
LINE
  8
DETAIL
  6
CONTINUOUS
 62
     5
 10
-152.20338107210051
 20
-42.33568731409818
 30
0.0
 11
-151.7450890727996
 21
-42.212888342998177
 31
0.0
  0
LINE
  8
DETAIL
  6
CONTINUOUS
 62
     5
 10
-60.0
 20
-303.99999999999829
 30
0.0
 11
-60.0
 21
-304.99999999999829
 31
0.0
  0
LINE
  8
DETAIL
  6
CONTINUOUS
 62
     5
 10
-60.0
 20
-303.99999999999829
 30
0.0
 11
-60.0
 21
-279.99999999999829
 31
0.0
  0
LINE
  8
DETAIL
  6
CONTINUOUS
 62
     5
 10
-60.0
 20
-279.99999999999829
 30
0.0
 11
-60.0
 21
-278.99999999999829
 31
0.0
  0
LINE
  8
DETAIL
  6
CONTINUOUS
 62
     5
 10
-74.927986543900261
 20
-433.5758835917984
 30
0.0
 11
-53.825777270400067
 21
-313.89930778509842
 31
0.0
  0
LINE
  8
DETAIL
  6
CONTINUOUS
 62
     5
 10
-53.304863114700311
 20
-310.94505680459832
 30
0.0
 11
-26.478827846000058
 21
-158.80705069269831
 31
0.0
  0
LINE
  8
DETAIL
  6
CONTINUOUS
 62
     5
 10
-25.957788560200239
 20
-155.85209006379841
 30
0.0
 11
-25.872376353000622
 21
-155.36769336589819
 31
0.0
  0
LINE
  8
DETAIL
  6
CONTINUOUS
 62
     5
 10
-77.882409802899929
 20
-433.05493905879831
 30
0.0
 11
-56.781661779200483
 21
-313.38665041169833
 31
0.0
  0
LINE
  8
DETAIL
  6
CONTINUOUS
 62
     5
 10
-56.260747623600757
 20
-310.43239943119841
 30
0.0
 11
-29.430114172199861
 21
-158.26831572949831
 31
0.0
  0
LINE
  8
DETAIL
  6
CONTINUOUS
 62
     5
 10
-28.909221460400659
 20
-155.31418636339831
 30
0.0
 11
-28.82679961200029
 21
-154.8467488328983
 31
0.0
  0
LINE
  8
DETAIL
  6
CONTINUOUS
 62
     5
 10
-80.04903810560063
 20
-135.6490010959983
 30
0.0
 11
-77.450961894300235
 21
-137.1490010959983
 31
0.0
  0
LINE
  8
DETAIL
  6
CONTINUOUS
 62
     5
 10
-91.567016791700553
 20
-128.15608232089821
 30
0.0
 11
-89.109560658800547
 21
-129.87681162999829
 31
0.0
  0
LINE
  8
DETAIL
  6
CONTINUOUS
 62
     5
 10
-102.3881151903006
 20
-119.6878183766982
 30
0.0
 11
-100.0899818608996
 21
-121.6161812056982
 31
0.0
  0
LINE
  8
DETAIL
  6
CONTINUOUS
 62
     5
 10
-112.42997820860001
 20
-110.3086578650983
 30
0.0
 11
-110.3086578651
 21
-112.4299782085983
 31
0.0
  0
LINE
  8
DETAIL
  6
CONTINUOUS
 62
     5
 10
-121.6161812056998
 20
-100.08998186089831
 30
0.0
 11
-119.68781837670031
 21
-102.38811519029819
 31
0.0
  0
LINE
  8
DETAIL
  6
CONTINUOUS
 62
     5
 10
-112.4314911055999
 20
-425.39559213479811
 30
0.0
 11
-80.979558430600264
 21
-308.01538139539832
 31
0.0
  0
LINE
  8
DETAIL
  6
CONTINUOUS
 62
     5
 10
-80.203149371600375
 20
-305.11778333979839
 30
0.0
 11
-40.216057158600051
 21
-155.8839235539983
 31
0.0
  0
LINE
  8
DETAIL
  6
CONTINUOUS
 62
     5
 10
-39.43955533190001
 20
-152.9859792844984
 30
0.0
 11
-39.315110864200513
 21
-152.5215462080983
 31
0.0
  0
LINE
  8
DETAIL
  6
CONTINUOUS
 62
     5
 10
-115.3292685845008
 20
-424.6191349994981
 30
0.0
 11
-83.877965097300148
 21
-307.24127242079828
 31
0.0
  0
LINE
  8
DETAIL
  6
CONTINUOUS
 62
     5
 10
-83.101556038300259
 20
-304.34367436519841
 30
0.0
 11
-43.112108481400362
 21
-155.1010243164983
 31
0.0
  0
LINE
  8
DETAIL
  6
CONTINUOUS
 62
     5
 10
-42.335687314200193
 20
-152.20338107209841
 30
0.0
 11
-42.212888343000493
 21
-151.74508907279829
 31
0.0
  0
LINE
  8
DETAIL
  6
CONTINUOUS
 62
     5
 10
-55.277711504900253
 20
-147.4885575586984
 30
0.0
 11
-52.458633642600027
 21
-148.51461798869829
 31
0.0
  0
LINE
  8
DETAIL
  6
CONTINUOUS
 62
     5
 10
-67.921837904699714
 20
-142.10954906559829
 30
0.0
 11
-65.202914543600855
 21
-143.37740385079829
 31
0.0
  0
LINE
  8
DETAIL
  6
CONTINUOUS
 62
     5
 10
-129.87681162999979
 20
-89.109560658798245
 30
0.0
 11
-128.1560823209002
 21
-91.567016791698251
 31
0.0
  0
LINE
  8
DETAIL
  6
CONTINUOUS
 62
     5
 10
-137.1490010960006
 20
-77.450961894298274
 30
0.0
 11
-135.6490010960006
 21
-80.049038105598214
 31
0.0
  0
LINE
  8
DETAIL
  6
CONTINUOUS
 62
     5
 10
-143.37740385079999
 20
-65.202914543598212
 30
0.0
 11
-142.10954906559979
 21
-67.921837904698208
 31
0.0
  0
LINE
  8
DETAIL
  6
CONTINUOUS
 62
     5
 10
-149.0793241320998
 20
-413.97778336069842
 30
0.0
 11
-107.51778005760021
 21
-299.78837949859837
 31
0.0
  0
LINE
  8
DETAIL
  6
CONTINUOUS
 62
     5
 10
-106.4917827761001
 20
-296.96947513509838
 30
0.0
 11
-53.647099585000433
 21
-151.7799013292983
 31
0.0
  0
LINE
  8
DETAIL
  6
CONTINUOUS
 62
     5
 10
-52.621074013100042
 20
-148.96091923859831
 30
0.0
 11
-52.458633642600027
 21
-148.51461798869829
 31
0.0
  0
LINE
  8
DETAIL
  6
CONTINUOUS
 62
     5
 10
-151.89840199439999
 20
-412.95172293079833
 30
0.0
 11
-110.33564272469989
 21
-298.75898034699833
 31
0.0
  0
LINE
  8
DETAIL
  6
CONTINUOUS
 62
     5
 10
-109.3096454431998
 20
-295.94007598349828
 30
0.0
 11
-56.46779317940036
 21
-150.75828008669839
 31
0.0
  0
LINE
  8
DETAIL
  6
CONTINUOUS
 62
     5
 10
-55.44169210759992
 20
-147.93909056169829
 30
0.0
 11
-55.277711504900253
 21
-147.4885575586984
 31
0.0
  0
LINE
  8
DETAIL
  6
CONTINUOUS
 62
     5
 10
-28.82679961200029
 20
-154.8467488328983
 30
0.0
 11
-25.872376353000622
 21
-155.36769336589819
 31
0.0
  0
LINE
  8
DETAIL
  6
CONTINUOUS
 62
     5
 10
-42.212888343000493
 20
-151.74508907279829
 30
0.0
 11
-39.315110864200513
 21
-152.5215462080983
 31
0.0
  0
LINE
  8
DETAIL
  6
CONTINUOUS
 62
     5
 10
-148.51461798869971
 20
-52.458633642598187
 30
0.0
 11
-147.48855755880049
 21
-55.277711504898292
 31
0.0
  0
LINE
  8
DETAIL
  6
CONTINUOUS
 62
     5
 10
-184.59257348529991
 20
-399.40935368869827
 30
0.0
 11
-133.23877152279971
 21
-289.28076998569838
 31
0.0
  0
LINE
  8
DETAIL
  6
CONTINUOUS
 62
     5
 10
-131.97098925020049
 20
-286.56200212829827
 30
0.0
 11
-66.671078312299869
 21
-146.52589121329831
 31
0.0
  0
LINE
  8
DETAIL
  6
CONTINUOUS
 62
     5
 10
-65.40334108370007
 20
-143.80721995329839
 30
0.0
 11
-65.202914543600855
 21
-143.37740385079829
 31
0.0
  0
LINE
  8
DETAIL
  6
CONTINUOUS
 62
     5
 10
-187.31149684640059
 20
-398.14149890349807
 30
0.0
 11
-135.9536643694
 21
-288.00427173419843
 31
0.0
  0
LINE
  8
DETAIL
  6
CONTINUOUS
 62
     5
 10
-134.68588209679999
 20
-285.28550387679832
 30
0.0
 11
-69.396813856499648
 21
-145.2726452019983
 31
0.0
  0
LINE
  8
DETAIL
  6
CONTINUOUS
 62
     5
 10
-68.128758322800422
 20
-142.55329133429831
 30
0.0
 11
-67.921837904699714
 21
-142.10954906559829
 31
0.0
  0
LINE
  8
DETAIL
  6
CONTINUOUS
 62
     5
 10
-12.48299069000041
 20
-157.01170320529829
 30
0.0
 11
-9.4902985393000563
 21
-157.22097262649839
 31
0.0
  0
LINE
  8
DETAIL
  6
CONTINUOUS
 62
     5
 10
-152.52154620809961
 20
-39.315110864198317
 30
0.0
 11
-151.7450890727996
 21
-42.212888342998177
 31
0.0
  0
LINE
  8
DETAIL
  6
CONTINUOUS
 62
     5
 10
-155.3676933658999
 20
-25.872376352998199
 30
0.0
 11
-154.8467488329006
 21
-28.826799611998212
 31
0.0
  0
LINE
  8
DETAIL
  6
CONTINUOUS
 62
     5
 10
-157.22097262649999
 20
-9.4902985392983226
 30
0.0
 11
-157.01170320530039
 21
-12.482990689998219
 31
0.0
  0
LINE
  8
DETAIL
  6
CONTINUOUS
 62
     5
 10
-218.70096189430021
 20
-381.80117766509852
 30
0.0
 11
-157.94706071180011
 21
-276.57233405899831
 31
0.0
  0
LINE
  8
DETAIL
  6
CONTINUOUS
 62
     5
 10
-156.44713400650019
 20
-273.97438479789832
 30
0.0
 11
-79.190150211499713
 21
-140.16136362539831
 31
0.0
  0
LINE
  8
DETAIL
  6
CONTINUOUS
 62
     5
 10
-77.690328255800523
 20
-137.56359579579839
 30
0.0
 11
-77.450961894300235
 21
-137.1490010959983
 31
0.0
  0
LINE
  8
DETAIL
  6
CONTINUOUS
 62
     5
 10
-221.2990381056006
 20
-380.30117766509852
 30
0.0
 11
-160.5373763719999
 21
-275.05889239019842
 31
0.0
  0
LINE
  8
DETAIL
  6
CONTINUOUS
 62
     5
 10
-159.03744966680009
 20
-272.46094312909838
 30
0.0
 11
-81.790739699399637
 21
-138.6657167479984
 31
0.0
  0
LINE
  8
DETAIL
  6
CONTINUOUS
 62
     5
 10
-80.290917743699538
 20
-136.06794891839829
 30
0.0
 11
-80.04903810560063
 21
-135.6490010959983
 31
0.0
  0
LINE
  8
DETAIL
  6
CONTINUOUS
 62
     5
 10
35.0
 20
-163.49999999999829
 30
0.0
 11
-9.9293709056000807
 21
-163.49999999999829
 31
0.0
  0
LINE
  8
DETAIL
  6
CONTINUOUS
 62
     5
 10
-12.93669659979969
 20
-163.49999999999829
 30
0.0
 11
-27.30632142800005
 21
-163.49999999999829
 31
0.0
  0
LINE
  8
DETAIL
  6
CONTINUOUS
 62
     5
 10
-30.35260126360026
 20
-163.49999999999829
 30
0.0
 11
-35.0
 21
-163.49999999999829
 31
0.0
  0
LINE
  8
DETAIL
  6
CONTINUOUS
 62
     5
 10
35.0
 20
-164.49999999999829
 30
0.0
 11
-9.9992977175006672
 21
-164.49999999999829
 31
0.0
  0
LINE
  8
DETAIL
  6
CONTINUOUS
 62
     5
 10
-13.006623411800319
 20
-164.49999999999829
 30
0.0
 11
-27.482648408699792
 21
-164.49999999999829
 31
0.0
  0
LINE
  8
DETAIL
  6
CONTINUOUS
 62
     5
 10
-30.528928244300001
 20
-164.49999999999829
 30
0.0
 11
-35.0
 21
-164.49999999999829
 31
0.0
  0
LINE
  8
DETAIL
  6
CONTINUOUS
 62
     5
 10
-251.1449039280005
 20
-361.28726414159809
 30
0.0
 11
-181.45192003319971
 21
-261.75536810839827
 31
0.0
  0
LINE
  8
DETAIL
  6
CONTINUOUS
 62
     5
 10
-179.73110043179989
 20
-259.29778302469828
 30
0.0
 11
-91.110228210100104
 21
-132.73406100559819
 31
0.0
  0
LINE
  8
DETAIL
  6
CONTINUOUS
 62
     5
 10
-89.389691455500724
 20
-130.27687986889811
 30
0.0
 11
-89.109560658800547
 21
-129.87681162999829
 31
0.0
  0
LINE
  8
DETAIL
  6
CONTINUOUS
 62
     5
 10
-253.60236006090051
 20
-359.56653483259811
 30
0.0
 11
-183.8999776477003
 21
-260.02121632409819
 31
0.0
  0
LINE
  8
DETAIL
  6
CONTINUOUS
 62
     5
 10
-182.1793112391006
 20
-257.5638500222982
 30
0.0
 11
-93.560716789999788
 21
-131.00338099959819
 31
0.0
  0
LINE
  8
DETAIL
  6
CONTINUOUS
 62
     5
 10
-91.840180035300364
 20
-128.54619986289831
 30
0.0
 11
-91.567016791700553
 21
-128.15608232089821
 31
0.0
  0
LINE
  8
DETAIL
  6
CONTINUOUS
 62
     5
 10
35.0
 20
-188.49999999999829
 30
0.0
 11
-11.677541204200679
 21
-188.49999999999829
 31
0.0
  0
LINE
  8
DETAIL
  6
CONTINUOUS
 62
     5
 10
-14.684866898400291
 20
-188.49999999999829
 30
0.0
 11
-31.71449594570004
 21
-188.49999999999829
 31
0.0
  0
LINE
  8
DETAIL
  6
CONTINUOUS
 62
     5
 10
-34.760775781300246
 20
-188.49999999999829
 30
0.0
 11
-35.0
 21
-188.49999999999829
 31
0.0
  0
LINE
  8
DETAIL
  6
CONTINUOUS
 62
     5
 10
35.0
 20
-189.49999999999829
 30
0.0
 11
-11.74746801610036
 21
-189.49999999999829
 31
0.0
  0
LINE
  8
DETAIL
  6
CONTINUOUS
 62
     5
 10
-14.75479371040001
 20
-189.49999999999829
 30
0.0
 11
-31.890822926399778
 21
-189.49999999999829
 31
0.0
  0
LINE
  8
DETAIL
  6
CONTINUOUS
 62
     5
 10
-34.937102761999988
 20
-189.49999999999829
 30
0.0
 11
-35.0
 21
-189.49999999999829
 31
0.0
  0
LINE
  8
DETAIL
  6
CONTINUOUS
 62
     5
 10
-193.5
 20
-38.999999999998273
 30
0.0
 11
-193.5
 21
-8.9999999999982663
 31
0.0
  0
LINE
  8
DETAIL
  6
CONTINUOUS
 62
     5
 10
-281.6774815974004
 20
-338.0237363867983
 30
0.0
 11
-203.57106902879971
 21
-244.9401386036983
 31
0.0
  0
LINE
  8
DETAIL
  6
CONTINUOUS
 62
     5
 10
-201.6426594435998
 20
-242.6419495524982
 30
0.0
 11
-102.3301519428005
 21
-124.2859119488981
 31
0.0
  0
LINE
  8
DETAIL
  6
CONTINUOUS
 62
     5
 10
-100.40158638940009
 20
-121.98753702199819
 30
0.0
 11
-100.0899818608996
 21
-121.6161812056982
 31
0.0
  0
LINE
  8
DETAIL
  6
CONTINUOUS
 62
     5
 10
-283.97561492670047
 20
-336.09537355779833
 30
0.0
 11
-205.86393613359999
 21
-243.00549973249841
 31
0.0
  0
LINE
  8
DETAIL
  6
CONTINUOUS
 62
     5
 10
-203.93561238640001
 20
-240.70741297919821
 30
0.0
 11
-104.62096143300001
 21
-122.34882090819821
 31
0.0
  0
LINE
  8
DETAIL
  6
CONTINUOUS
 62
     5
 10
-102.6927381009
 20
-120.0508538247983
 30
0.0
 11
-102.3881151903006
 21
-119.6878183766982
 31
0.0
  0
LINE
  8
DETAIL
  6
CONTINUOUS
 62
     5
 10
-196.5
 20
-38.999999999998273
 30
0.0
 11
-196.5
 21
-8.9999999999982663
 31
0.0
  0
LINE
  8
DETAIL
  6
CONTINUOUS
 62
     5
 10
-310.06632355029978
 20
-312.18764389379828
 30
0.0
 11
-224.1410146799999
 21
-226.26233502359821
 31
0.0
  0
LINE
  8
DETAIL
  6
CONTINUOUS
 62
     5
 10
-222.01969433640079
 20
-224.14101467999819
 30
0.0
 11
-112.7670916160005
 21
-114.8884119595982
 31
0.0
  0
LINE
  8
DETAIL
  6
CONTINUOUS
 62
     5
 10
-110.64577127240049
 20
-112.7670916159983
 30
0.0
 11
-110.3086578651
 21
-112.4299782085983
 31
0.0
  0
LINE
  8
DETAIL
  6
CONTINUOUS
 62
     5
 10
-312.18764389379982
 20
-310.06632355029831
 30
0.0
 11
-226.2623350236008
 21
-224.14101467999819
 31
0.0
  0
LINE
  8
DETAIL
  6
CONTINUOUS
 62
     5
 10
-224.1410146799999
 20
-222.01969433639809
 30
0.0
 11
-114.8884119596005
 21
-112.7670916159983
 31
0.0
  0
LINE
  8
DETAIL
  6
CONTINUOUS
 62
     5
 10
-112.7670916160005
 20
-110.64577127239831
 30
0.0
 11
-112.42997820860001
 21
-110.3086578650983
 31
0.0
  0
LINE
  8
DETAIL
  6
CONTINUOUS
 62
     5
 10
-336.09537355780049
 20
-283.97561492669831
 30
0.0
 11
-243.00549973250051
 21
-205.8639361335982
 31
0.0
  0
LINE
  8
DETAIL
  6
CONTINUOUS
 62
     5
 10
-240.70741297919989
 20
-203.93561238639819
 30
0.0
 11
-122.34882090820069
 21
-104.6209614329982
 31
0.0
  0
LINE
  8
DETAIL
  6
CONTINUOUS
 62
     5
 10
-120.0508538248005
 20
-102.6927381008983
 30
0.0
 11
-119.68781837670031
 21
-102.38811519029819
 31
0.0
  0
LINE
  8
DETAIL
  6
CONTINUOUS
 62
     5
 10
-338.02373638680001
 20
-281.67748159739818
 30
0.0
 11
-244.94013860369981
 21
-203.57106902879821
 31
0.0
  0
LINE
  8
DETAIL
  6
CONTINUOUS
 62
     5
 10
-242.64194955250059
 20
-201.64265944359829
 30
0.0
 11
-124.28591194890031
 21
-102.3301519427982
 31
0.0
  0
LINE
  8
DETAIL
  6
CONTINUOUS
 62
     5
 10
-121.9875370219997
 20
-100.4015863893981
 30
0.0
 11
-121.6161812056998
 21
-100.08998186089831
 31
0.0
  0
LINE
  8
DETAIL
  6
CONTINUOUS
 62
     5
 10
60.0
 20
-278.99999999999829
 30
0.0
 11
-18.00591768510003
 21
-278.99999999999829
 31
0.0
  0
LINE
  8
DETAIL
  6
CONTINUOUS
 62
     5
 10
-21.013243379300551
 20
-278.99999999999829
 30
0.0
 11
-47.672087699800613
 21
-278.99999999999829
 31
0.0
  0
LINE
  8
DETAIL
  6
CONTINUOUS
 62
     5
 10
-50.718367535399921
 20
-278.99999999999829
 30
0.0
 11
-60.0
 21
-278.99999999999829
 31
0.0
  0
LINE
  8
DETAIL
  6
CONTINUOUS
 62
     5
 10
60.0
 20
-279.99999999999829
 30
0.0
 11
-18.075844496999711
 21
-279.99999999999829
 31
0.0
  0
LINE
  8
DETAIL
  6
CONTINUOUS
 62
     5
 10
-21.083170191300269
 20
-279.99999999999829
 30
0.0
 11
-47.848414680500348
 21
-279.99999999999829
 31
0.0
  0
LINE
  8
DETAIL
  6
CONTINUOUS
 62
     5
 10
-50.894694516200623
 20
-279.99999999999829
 30
0.0
 11
-60.0
 21
-279.99999999999829
 31
0.0
  0
LINE
  8
DETAIL
  6
CONTINUOUS
 62
     5
 10
-359.56653483260021
 20
-253.60236006089821
 30
0.0
 11
-260.02121632410041
 21
-183.89997764769839
 31
0.0
  0
LINE
  8
DETAIL
  6
CONTINUOUS
 62
     5
 10
-257.56385002230041
 20
-182.17931123909821
 30
0.0
 11
-131.0033809996003
 21
-93.560716789998281
 31
0.0
  0
LINE
  8
DETAIL
  6
CONTINUOUS
 62
     5
 10
-128.54619986289981
 20
-91.840180035298175
 30
0.0
 11
-128.1560823209002
 21
-91.567016791698251
 31
0.0
  0
LINE
  8
DETAIL
  6
CONTINUOUS
 62
     5
 10
-361.28726414159968
 20
-251.1449039279982
 30
0.0
 11
-261.75536810839998
 21
-181.45192003319821
 31
0.0
  0
LINE
  8
DETAIL
  6
CONTINUOUS
 62
     5
 10
-259.29778302469998
 20
-179.73110043179841
 30
0.0
 11
-132.7340610055999
 21
-91.110228210098256
 31
0.0
  0
LINE
  8
DETAIL
  6
CONTINUOUS
 62
     5
 10
-130.27687986890029
 20
-89.389691455498195
 30
0.0
 11
-129.87681162999979
 21
-89.109560658798245
 31
0.0
  0
LINE
  8
DETAIL
  6
CONTINUOUS
 62
     5
 10
60.0
 20
-303.99999999999829
 30
0.0
 11
-19.754087983699719
 21
-303.99999999999829
 31
0.0
  0
LINE
  8
DETAIL
  6
CONTINUOUS
 62
     5
 10
-22.76141367790024
 20
-303.99999999999829
 30
0.0
 11
-52.080262217499687
 21
-303.99999999999829
 31
0.0
  0
LINE
  8
DETAIL
  6
CONTINUOUS
 62
     5
 10
-55.126542053199962
 20
-303.99999999999829
 30
0.0
 11
-60.0
 21
-303.99999999999829
 31
0.0
  0
LINE
  8
DETAIL
  6
CONTINUOUS
 62
     5
 10
60.0
 20
-304.99999999999829
 30
0.0
 11
-19.824014795600309
 21
-304.99999999999829
 31
0.0
  0
LINE
  8
DETAIL
  6
CONTINUOUS
 62
     5
 10
-22.831340489899961
 20
-304.99999999999829
 30
0.0
 11
-52.256589198200338
 21
-304.99999999999829
 31
0.0
  0
LINE
  8
DETAIL
  6
CONTINUOUS
 62
     5
 10
-55.302869033900613
 20
-304.99999999999829
 30
0.0
 11
-60.0
 21
-304.99999999999829
 31
0.0
  0
LINE
  8
DETAIL
  6
CONTINUOUS
 62
     5
 10
-380.30117766510011
 20
-221.29903810559821
 30
0.0
 11
-275.05889239020053
 21
-160.53737637199819
 31
0.0
  0
LINE
  8
DETAIL
  6
CONTINUOUS
 62
     5
 10
-272.46094312910009
 20
-159.03744966679821
 30
0.0
 11
-138.6657167480007
 21
-81.790739699398131
 31
0.0
  0
LINE
  8
DETAIL
  6
CONTINUOUS
 62
     5
 10
-136.06794891840039
 20
-80.290917743698259
 30
0.0
 11
-135.6490010960006
 21
-80.049038105598214
 31
0.0
  0
LINE
  8
DETAIL
  6
CONTINUOUS
 62
     5
 10
-381.80117766510011
 20
-218.7009618942983
 30
0.0
 11
-276.57233405900018
 21
-157.9470607117982
 31
0.0
  0
LINE
  8
DETAIL
  6
CONTINUOUS
 62
     5
 10
-273.97438479790071
 20
-156.4471340064982
 30
0.0
 11
-140.16136362540061
 21
-79.190150211498207
 31
0.0
  0
LINE
  8
DETAIL
  6
CONTINUOUS
 62
     5
 10
-137.56359579580021
 20
-77.690328255798221
 30
0.0
 11
-137.1490010960006
 21
-77.450961894298274
 31
0.0
  0
LINE
  8
DETAIL
  6
CONTINUOUS
 62
     5
 10
-398.14149890350018
 20
-187.3114968463982
 30
0.0
 11
-288.0042717342003
 21
-135.95366436939821
 31
0.0
  0
LINE
  8
DETAIL
  6
CONTINUOUS
 62
     5
 10
-285.28550387680019
 20
-134.68588209679831
 30
0.0
 11
-145.2726452020006
 21
-69.396813856498142
 31
0.0
  0
LINE
  8
DETAIL
  6
CONTINUOUS
 62
     5
 10
-142.5532913342995
 20
-68.128758322798234
 30
0.0
 11
-142.10954906559979
 21
-67.921837904698208
 31
0.0
  0
LINE
  8
DETAIL
  6
CONTINUOUS
 62
     5
 10
-399.40935368870032
 20
-184.5925734852982
 30
0.0
 11
-289.28076998570032
 21
-133.23877152279809
 31
0.0
  0
LINE
  8
DETAIL
  6
CONTINUOUS
 62
     5
 10
-286.56200212830032
 20
-131.97098925019819
 30
0.0
 11
-146.52589121330041
 21
-66.671078312298135
 31
0.0
  0
LINE
  8
DETAIL
  6
CONTINUOUS
 62
     5
 10
-143.80721995329989
 20
-65.403341083698223
 30
0.0
 11
-143.37740385079999
 21
-65.202914543598212
 31
0.0
  0
LINE
  8
DETAIL
  6
CONTINUOUS
 62
     5
 10
-412.95172293080032
 20
-151.8984019943982
 30
0.0
 11
-298.75898034699998
 21
-110.3356427246982
 31
0.0
  0
LINE
  8
DETAIL
  6
CONTINUOUS
 62
     5
 10
-295.94007598350072
 20
-109.30964544319831
 30
0.0
 11
-150.7582800867003
 21
-56.467793179398171
 31
0.0
  0
LINE
  8
DETAIL
  6
CONTINUOUS
 62
     5
 10
-147.93909056170011
 20
-55.441692107598193
 30
0.0
 11
-147.48855755880049
 21
-55.277711504898292
 31
0.0
  0
LINE
  8
DETAIL
  6
CONTINUOUS
 62
     5
 10
-413.97778336070041
 20
-149.07932413209821
 30
0.0
 11
-299.78837949860008
 21
-107.5177800575983
 31
0.0
  0
LINE
  8
DETAIL
  6
CONTINUOUS
 62
     5
 10
-296.96947513509991
 20
-106.4917827760982
 30
0.0
 11
-151.7799013293006
 21
-53.647099584998237
 31
0.0
  0
LINE
  8
DETAIL
  6
CONTINUOUS
 62
     5
 10
-148.96091923860061
 20
-52.621074013098308
 30
0.0
 11
-148.51461798869971
 21
-52.458633642598187
 31
0.0
  0
CIRCLE
  8
DETAIL
  6
CONTINUOUS
 62
     5
 10
22.5
 20
-176.49999999999829
 30
0.0
 40
2.5
  0
ARC
  8
DETAIL
  6
CONTINUOUS
 62
     5
 10
0.0
 20
0.00000000000162
 30
0.0
 40
444.5
 50
183.4999999999971
 51
266.50000000006878
  0
ARC
  8
DETAIL
  6
CONTINUOUS
 62
     5
 10
0.0
 20
0.00000000000162
 30
0.0
 40
441.5
 50
183.4999999999971
 51
266.50000000006878
  0
ARC
  8
DETAIL
  6
CONTINUOUS
 62
     5
 10
0.0
 20
0.0000000000008242
 30
0.0
 40
318.49999999999989
 50
179.7500000000085
 51
269.75000000000841
  0
ARC
  8
DETAIL
  6
CONTINUOUS
 62
     5
 10
-0.0000000000013642
 20
0.0000000000018474
 30
0.0
 40
315.49999999999869
 50
179.7500000000085
 51
269.75000000000841
  0
ARC
  8
DETAIL
  6
CONTINUOUS
 62
     5
 10
-0.0000000000009095
 20
0.00000000000162
 30
0.0
 40
160.99999999999889
 50
179.39999999999341
 51
269.39999999996718
  0
ARC
  8
DETAIL
  6
CONTINUOUS
 62
     5
 10
-0.0000000000004547
 20
0.0000000000010516
 30
0.0
 40
157.9999999999994
 50
179.39999999999341
 51
269.39999999996718
  0
CIRCLE
  8
DETAIL
  6
CONTINUOUS
 62
     5
 10
-22.5
 20
-176.49999999999829
 30
0.0
 40
2.5
  0
CIRCLE
  8
DETAIL
  6
CONTINUOUS
 62
     5
 10
20.0
 20
-291.99999999999829
 30
0.0
 40
3.0
  0
CIRCLE
  8
DETAIL
  6
CONTINUOUS
 62
     5
 10
40.0
 20
-291.99999999999829
 30
0.0
 40
2.5
  0
CIRCLE
  8
DETAIL
  6
CONTINUOUS
 62
     5
 10
-40.0
 20
-291.99999999999829
 30
0.0
 40
2.5
  0
ARC
  8
DETAIL
  6
CONTINUOUS
 62
     5
 10
-30.692848447400142
 20
-438.92818211429841
 30
0.0
 40
1.5
 50
176.0000000000035
 51
356.00000000000352
  0
ARC
  8
DETAIL
  6
CONTINUOUS
 62
     5
 10
-76.405198173400095
 20
-433.31541132529833
 30
0.0
 40
1.5
 50
169.99999999998329
 51
349.99999999998317
  0
ARC
  8
DETAIL
  6
CONTINUOUS
 62
     5
 10
-113.8803798450999
 20
-425.00736356709808
 30
0.0
 40
1.5
 50
165.0000000000056
 51
345.00000000000563
  0
ARC
  8
DETAIL
  6
CONTINUOUS
 62
     5
 10
-150.48886306330041
 20
-413.46475314579828
 30
0.0
 40
1.5
 50
160.0000000000108
 51
340.00000000001069
  0
ARC
  8
DETAIL
  6
CONTINUOUS
 62
     5
 10
-185.9520351659003
 20
-398.7754262960982
 30
0.0
 40
1.5
 50
154.9999999999863
 51
334.9999999999863
  0
ARC
  8
DETAIL
  6
CONTINUOUS
 62
     5
 10
-438.9281821143004
 20
-30.69284844739818
 30
0.0
 40
1.5
 50
93.999999999983402
 51
273.9999999999834
  0
ARC
  8
DETAIL
  6
CONTINUOUS
 62
     5
 10
-433.31541132530037
 20
-76.405198173398134
 30
0.0
 40
1.5
 50
100.00000000005799
 51
280.00000000005798
  0
ARC
  8
DETAIL
  6
CONTINUOUS
 62
     5
 10
-425.00736356709967
 20
-113.8803798450982
 30
0.0
 40
1.5
 50
104.9999999999945
 51
284.99999999999437
  0
ARC
  8
DETAIL
  6
CONTINUOUS
 62
     5
 10
-413.46475314580039
 20
-150.4888630632982
 30
0.0
 40
1.5
 50
109.9999999999898
 51
289.99999999998983
  0
ARC
  8
DETAIL
  6
CONTINUOUS
 62
     5
 10
-398.7754262961007
 20
-185.9520351658982
 30
0.0
 40
1.5
 50
114.9999999999782
 51
294.99999999997817
  0
ARC
  8
DETAIL
  6
CONTINUOUS
 62
     5
 10
-381.05117766510011
 20
-219.99999999999829
 30
0.0
 40
1.5
 50
119.9999999999997
 51
299.99999999999972
  0
ARC
  8
DETAIL
  6
CONTINUOUS
 62
     5
 10
-360.42689948709989
 20
-252.37363199439821
 30
0.0
 40
1.5
 50
124.9999999999802
 51
304.99999999998022
  0
ARC
  8
DETAIL
  6
CONTINUOUS
 62
     5
 10
-220.0
 20
-381.05117766509852
 30
0.0
 40
1.5
 50
149.99999999997419
 51
329.99999999997419
  0
ARC
  8
DETAIL
  6
CONTINUOUS
 62
     5
 10
-337.05955497230019
 20
-282.82654826199831
 30
0.0
 40
1.5
 50
129.99999999998639
 51
309.9999999999863
  0
ARC
  8
DETAIL
  6
CONTINUOUS
 62
     5
 10
-252.37363199440011
 20
-360.42689948709841
 30
0.0
 40
1.5
 50
144.99999999999119
 51
324.99999999999119
  0
ARC
  8
DETAIL
  6
CONTINUOUS
 62
     5
 10
-311.12698372200072
 20
-311.12698372199827
 30
0.0
 40
1.5
 50
135.00000000000921
 51
315.00000000000921
  0
ARC
  8
DETAIL
  6
CONTINUOUS
 62
     5
 10
-282.82654826200002
 20
-337.05955497229832
 30
0.0
 40
1.5
 50
139.9999999999682
 51
319.99999999996822
  0
LINE
  8
DETAIL
  6
CONTINUOUS
 62
     5
 10
-304.0
 20
-59.999999999998273
 30
0.0
 11
-305.0
 21
-59.999999999998273
 31
0.0
  0
LINE
  8
DETAIL
  6
CONTINUOUS
 62
     5
 10
-304.0
 20
-59.999999999998273
 30
0.0
 11
-280.0
 21
-59.999999999998273
 31
0.0
  0
LINE
  8
DETAIL
  6
CONTINUOUS
 62
     5
 10
-280.0
 20
-59.999999999998273
 30
0.0
 11
-279.0
 21
-59.999999999998273
 31
0.0
  0
LINE
  8
DETAIL
  6
CONTINUOUS
 62
     5
 10
-188.5
 20
-34.999999999998273
 30
0.0
 11
-189.5
 21
-34.999999999998273
 31
0.0
  0
LINE
  8
DETAIL
  6
CONTINUOUS
 62
     5
 10
-188.5
 20
-34.999999999998273
 30
0.0
 11
-164.5
 21
-34.999999999998273
 31
0.0
  0
LINE
  8
DETAIL
  6
CONTINUOUS
 62
     5
 10
-164.5
 20
-34.999999999998273
 30
0.0
 11
-163.5
 21
-34.999999999998273
 31
0.0
  0
LINE
  8
DETAIL
  6
CONTINUOUS
 62
     5
 10
-29.19650237199949
 20
439.03281682490149
 30
0.0
 11
-20.719733839999211
 21
317.80937911320302
 31
0.0
  0
LINE
  8
DETAIL
  6
CONTINUOUS
 62
     5
 10
-20.510467677699129
 20
314.81673356830271
 30
0.0
 11
-12.23695569969914
 21
196.50000000000159
 31
0.0
  0
LINE
  8
DETAIL
  6
CONTINUOUS
 62
     5
 10
-12.027175263900061
 20
193.50000000000159
 30
0.0
 11
-9.732679759599705
 21
160.68718556470211
 31
0.0
  0
LINE
  8
DETAIL
  6
CONTINUOUS
 62
     5
 10
-9.523418206599672
 20
157.69460593600229
 30
0.0
 11
-9.4902985393000563
 21
157.2209726265026
 31
0.0
  0
LINE
  8
DETAIL
  6
CONTINUOUS
 62
     5
 10
-32.18919452279988
 20
438.82354740370272
 30
0.0
 11
-23.712854614999738
 21
317.60623930450288
 31
0.0
  0
LINE
  8
DETAIL
  6
CONTINUOUS
 62
     5
 10
-23.503581466299689
 20
314.61349384850269
 30
0.0
 11
-15.2442813939997
 21
196.50000000000159
 31
0.0
  0
LINE
  8
DETAIL
  6
CONTINUOUS
 62
     5
 10
-15.03450095809967
 20
193.50000000000159
 30
0.0
 11
-12.725740215499171
 21
160.48318315290251
 31
0.0
  0
LINE
  8
DETAIL
  6
CONTINUOUS
 62
     5
 10
-12.5164614523992
 20
157.49035740770231
 30
0.0
 11
-12.4829906899995
 21
157.01170320530201
 31
0.0
  0
LINE
  8
DETAIL
  6
CONTINUOUS
 62
     5
 10
-26.952930204599401
 20
440.67651350320182
 30
0.0
 11
-27.136075823199459
 21
443.6709178985019
 31
0.0
  0
LINE
  8
DETAIL
  6
CONTINUOUS
 62
     5
 10
-9.0
 20
196.4946981364026
 30
0.0
 11
-9.0
 21
193.50530186350241
 31
0.0
  0
LINE
  8
DETAIL
  6
CONTINUOUS
 62
     5
 10
-440.6765135031992
 20
26.95293020460295
 30
0.0
 11
-443.67091789849928
 21
27.136075823202109
 31
0.0
  0
LINE
  8
DETAIL
  6
CONTINUOUS
 62
     5
 10
-439.03281682489978
 20
29.196502372002129
 30
0.0
 11
-317.80937911319961
 21
20.719733840001851
 31
0.0
  0
LINE
  8
DETAIL
  6
CONTINUOUS
 62
     5
 10
-314.81673356829918
 20
20.510467677702682
 30
0.0
 11
-160.6871855646996
 21
9.7326797596023482
 31
0.0
  0
LINE
  8
DETAIL
  6
CONTINUOUS
 62
     5
 10
-157.69460593599979
 20
9.5234182066023152
 30
0.0
 11
-157.22097262649999
 21
9.49029853930179
 31
0.0
  0
LINE
  8
DETAIL
  6
CONTINUOUS
 62
     5
 10
-74.927986543899351
 20
433.57588359180221
 30
0.0
 11
-53.825777270399158
 21
313.89930778510262
 31
0.0
  0
LINE
  8
DETAIL
  6
CONTINUOUS
 62
     5
 10
-53.304863114699401
 20
310.94505680460202
 30
0.0
 11
-33.125111791299787
 21
196.50000000000159
 31
0.0
  0
LINE
  8
DETAIL
  6
CONTINUOUS
 62
     5
 10
-32.596130849199653
 20
193.50000000000159
 30
0.0
 11
-26.478827845999149
 21
158.80705069270309
 31
0.0
  0
LINE
  8
DETAIL
  6
CONTINUOUS
 62
     5
 10
-25.957788560199329
 20
155.85209006380299
 30
0.0
 11
-25.872376352999709
 21
155.3676933659024
 31
0.0
  0
LINE
  8
DETAIL
  6
CONTINUOUS
 62
     5
 10
-77.882409802899929
 20
433.05493905880201
 30
0.0
 11
-56.781661779199567
 21
313.38665041170287
 31
0.0
  0
LINE
  8
DETAIL
  6
CONTINUOUS
 62
     5
 10
-56.260747623598952
 20
310.43239943120147
 30
0.0
 11
-36.171391626999139
 21
196.50000000000159
 31
0.0
  0
LINE
  8
DETAIL
  6
CONTINUOUS
 62
     5
 10
-35.642410684898998
 20
193.50000000000159
 30
0.0
 11
-29.430114172198959
 21
158.268315729503
 31
0.0
  0
LINE
  8
DETAIL
  6
CONTINUOUS
 62
     5
 10
-28.909221460399749
 20
155.3141863634026
 30
0.0
 11
-28.82679961199938
 21
154.84674883290231
 31
0.0
  0
LINE
  8
DETAIL
  6
CONTINUOUS
 62
     5
 10
-39.0
 20
196.4946981364026
 30
0.0
 11
-39.0
 21
193.50530186350241
 31
0.0
  0
LINE
  8
DETAIL
  6
CONTINUOUS
 62
     5
 10
-188.5
 20
35.000000000001727
 30
0.0
 11
-189.5
 21
35.000000000001727
 31
0.0
  0
LINE
  8
DETAIL
  6
CONTINUOUS
 62
     5
 10
-188.5
 20
35.000000000001727
 30
0.0
 11
-164.5
 21
35.000000000001727
 31
0.0
  0
LINE
  8
DETAIL
  6
CONTINUOUS
 62
     5
 10
-164.5
 20
35.000000000001727
 30
0.0
 11
-163.5
 21
35.000000000001727
 31
0.0
  0
LINE
  8
DETAIL
  6
CONTINUOUS
 62
     5
 10
-438.82354740369919
 20
32.189194522801607
 30
0.0
 11
-317.60623930449952
 21
23.712854615002389
 31
0.0
  0
LINE
  8
DETAIL
  6
CONTINUOUS
 62
     5
 10
-314.61349384849927
 20
23.503581466302339
 30
0.0
 11
-160.48318315290001
 21
12.72574021550273
 31
0.0
  0
LINE
  8
DETAIL
  6
CONTINUOUS
 62
     5
 10
-157.4903574076998
 20
12.51646145240184
 30
0.0
 11
-157.01170320529951
 21
12.482990690003049
 31
0.0
  0
LINE
  8
DETAIL
  6
CONTINUOUS
 62
     5
 10
-112.43149110559899
 20
425.39559213480231
 30
0.0
 11
-80.979558430599354
 21
308.01538139540179
 31
0.0
  0
LINE
  8
DETAIL
  6
CONTINUOUS
 62
     5
 10
-80.203149371599466
 20
305.11778333980311
 30
0.0
 11
-40.216057158599142
 21
155.88392355400151
 31
0.0
  0
LINE
  8
DETAIL
  6
CONTINUOUS
 62
     5
 10
-39.439555331899101
 20
152.98597928450161
 30
0.0
 11
-39.315110864199603
 21
152.52154620810211
 31
0.0
  0
LINE
  8
DETAIL
  6
CONTINUOUS
 62
     5
 10
-115.329268584499
 20
424.61913499950231
 30
0.0
 11
-83.877965097299239
 21
307.24127242080232
 31
0.0
  0
LINE
  8
DETAIL
  6
CONTINUOUS
 62
     5
 10
-83.10155603829935
 20
304.34367436520171
 30
0.0
 11
-43.112108481399453
 21
155.10102431650171
 31
0.0
  0
LINE
  8
DETAIL
  6
CONTINUOUS
 62
     5
 10
-42.335687314099232
 20
152.2033810721021
 30
0.0
 11
-42.212888342999577
 21
151.7450890728021
 31
0.0
  0
LINE
  8
DETAIL
  6
CONTINUOUS
 62
     5
 10
-304.0
 20
60.000000000001727
 30
0.0
 11
-305.0
 21
60.000000000001727
 31
0.0
  0
LINE
  8
DETAIL
  6
CONTINUOUS
 62
     5
 10
-304.0
 20
60.000000000001727
 30
0.0
 11
-280.0
 21
60.000000000001727
 31
0.0
  0
LINE
  8
DETAIL
  6
CONTINUOUS
 62
     5
 10
-280.0
 20
60.000000000001727
 30
0.0
 11
-279.0
 21
60.000000000001727
 31
0.0
  0
LINE
  8
DETAIL
  6
CONTINUOUS
 62
     5
 10
-433.57588359179948
 20
74.927986543901994
 30
0.0
 11
-313.89930778509921
 21
53.825777270401801
 31
0.0
  0
LINE
  8
DETAIL
  6
CONTINUOUS
 62
     5
 10
-310.94505680459952
 20
53.304863114702947
 30
0.0
 11
-158.8070506926997
 21
26.478827846001789
 31
0.0
  0
LINE
  8
DETAIL
  6
CONTINUOUS
 62
     5
 10
-155.85209006379961
 20
25.957788560202889
 30
0.0
 11
-155.3676933658999
 21
25.872376353003261
 31
0.0
  0
LINE
  8
DETAIL
  6
CONTINUOUS
 62
     5
 10
-433.05493905879939
 20
77.882409802901662
 30
0.0
 11
-313.38665041169952
 21
56.78166177920312
 31
0.0
  0
LINE
  8
DETAIL
  6
CONTINUOUS
 62
     5
 10
-310.43239943119988
 20
56.260747623602498
 30
0.0
 11
-158.26831572949959
 21
29.430114172202511
 31
0.0
  0
LINE
  8
DETAIL
  6
CONTINUOUS
 62
     5
 10
-155.3141863633991
 20
28.909221460402389
 30
0.0
 11
-154.84674883289969
 21
28.82679961200293
 31
0.0
  0
LINE
  8
DETAIL
  6
CONTINUOUS
 62
     5
 10
-135.64900109599969
 20
80.049038105602364
 30
0.0
 11
-137.14900109599969
 21
77.450961894302878
 31
0.0
  0
LINE
  8
DETAIL
  6
CONTINUOUS
 62
     5
 10
-128.15608232089929
 20
91.567016791703196
 30
0.0
 11
-129.87681162999979
 21
89.10956065880228
 31
0.0
  0
LINE
  8
DETAIL
  6
CONTINUOUS
 62
     5
 10
-119.6878183766994
 20
102.3881151903023
 30
0.0
 11
-121.6161812056998
 21
100.0899818609022
 31
0.0
  0
LINE
  8
DETAIL
  6
CONTINUOUS
 62
     5
 10
-110.3086578651
 20
112.4299782086017
 30
0.0
 11
-112.42997820860001
 21
110.30865786510179
 31
0.0
  0
LINE
  8
DETAIL
  6
CONTINUOUS
 62
     5
 10
-100.0899818608996
 20
121.6161812057025
 30
0.0
 11
-102.3881151902997
 21
119.687818376702
 31
0.0
  0
LINE
  8
DETAIL
  6
CONTINUOUS
 62
     5
 10
-425.3955921347997
 20
112.4314911056025
 30
0.0
 11
-308.01538139539929
 21
80.979558430602907
 31
0.0
  0
LINE
  8
DETAIL
  6
CONTINUOUS
 62
     5
 10
-305.11778333979959
 20
80.203149371602109
 30
0.0
 11
-155.88392355399989
 21
40.216057158602688
 31
0.0
  0
LINE
  8
DETAIL
  6
CONTINUOUS
 62
     5
 10
-152.98597928449999
 20
39.439555331902653
 30
0.0
 11
-152.52154620809961
 21
39.315110864203149
 31
0.0
  0
LINE
  8
DETAIL
  6
CONTINUOUS
 62
     5
 10
-424.61913499949969
 20
115.3292685845026
 30
0.0
 11
-307.24127242079982
 21
83.877965097302791
 31
0.0
  0
LINE
  8
DETAIL
  6
CONTINUOUS
 62
     5
 10
-304.34367436519909
 20
83.101556038301993
 30
0.0
 11
-155.10102431649921
 21
43.112108481402089
 31
0.0
  0
LINE
  8
DETAIL
  6
CONTINUOUS
 62
     5
 10
-152.20338107209949
 20
42.33568731420192
 30
0.0
 11
-151.7450890727996
 21
42.212888343003129
 31
0.0
  0
LINE
  8
DETAIL
  6
CONTINUOUS
 62
     5
 10
-147.48855755869951
 20
55.277711504902904
 30
0.0
 11
-148.51461798869971
 21
52.458633642601768
 31
0.0
  0
LINE
  8
DETAIL
  6
CONTINUOUS
 62
     5
 10
-142.10954906559979
 20
67.921837904702357
 30
0.0
 11
-143.37740385079999
 21
65.202914543602589
 31
0.0
  0
LINE
  8
DETAIL
  6
CONTINUOUS
 62
     5
 10
-89.109560658799637
 20
129.87681163000241
 30
0.0
 11
-91.567016791699643
 21
128.1560823209019
 31
0.0
  0
LINE
  8
DETAIL
  6
CONTINUOUS
 62
     5
 10
-77.450961894299326
 20
137.14900109600219
 30
0.0
 11
-80.04903810559972
 21
135.64900109600219
 31
0.0
  0
LINE
  8
DETAIL
  6
CONTINUOUS
 62
     5
 10
-65.202914543599036
 20
143.37740385080249
 30
0.0
 11
-67.921837904699714
 21
142.10954906560241
 31
0.0
  0
LINE
  8
DETAIL
  6
CONTINUOUS
 62
     5
 10
-413.9777833606995
 20
149.0793241321025
 30
0.0
 11
-299.78837949859923
 21
107.517780057602
 31
0.0
  0
LINE
  8
DETAIL
  6
CONTINUOUS
 62
     5
 10
-296.96947513509991
 20
106.4917827761018
 30
0.0
 11
-151.77990132929969
 21
53.647099585003083
 31
0.0
  0
LINE
  8
DETAIL
  6
CONTINUOUS
 62
     5
 10
-148.9609192385997
 20
52.621074013102692
 30
0.0
 11
-148.51461798869971
 21
52.458633642601768
 31
0.0
  0
LINE
  8
DETAIL
  6
CONTINUOUS
 62
     5
 10
-412.95172293079941
 20
151.89840199440181
 30
0.0
 11
-298.75898034699912
 21
110.3356427247017
 31
0.0
  0
LINE
  8
DETAIL
  6
CONTINUOUS
 62
     5
 10
-295.94007598349981
 20
109.3096454432024
 30
0.0
 11
-150.75828008669939
 21
56.467793179403003
 31
0.0
  0
LINE
  8
DETAIL
  6
CONTINUOUS
 62
     5
 10
-147.9390905616992
 20
55.441692107602563
 30
0.0
 11
-147.48855755869951
 21
55.277711504902904
 31
0.0
  0
LINE
  8
DETAIL
  6
CONTINUOUS
 62
     5
 10
-154.84674883289969
 20
28.82679961200293
 30
0.0
 11
-155.3676933658999
 21
25.872376353003261
 31
0.0
  0
LINE
  8
DETAIL
  6
CONTINUOUS
 62
     5
 10
-151.7450890727996
 20
42.212888343003129
 30
0.0
 11
-152.52154620809961
 21
39.315110864203149
 31
0.0
  0
LINE
  8
DETAIL
  6
CONTINUOUS
 62
     5
 10
-52.458633642599118
 20
148.51461798870221
 30
0.0
 11
-55.277711504899337
 21
147.488557558803
 31
0.0
  0
LINE
  8
DETAIL
  6
CONTINUOUS
 62
     5
 10
-399.40935368869941
 20
184.59257348530261
 30
0.0
 11
-289.28076998569941
 21
133.2387715228023
 31
0.0
  0
LINE
  8
DETAIL
  6
CONTINUOUS
 62
     5
 10
-286.56200212829941
 20
131.97098925020319
 30
0.0
 11
-146.5258912132995
 21
66.671078312302512
 31
0.0
  0
LINE
  8
DETAIL
  6
CONTINUOUS
 62
     5
 10
-143.80721995329989
 20
65.403341083701804
 30
0.0
 11
-143.37740385079999
 21
65.202914543602589
 31
0.0
  0
LINE
  8
DETAIL
  6
CONTINUOUS
 62
     5
 10
-398.14149890349933
 20
187.3114968464032
 30
0.0
 11
-288.00427173419939
 21
135.9536643694027
 31
0.0
  0
LINE
  8
DETAIL
  6
CONTINUOUS
 62
     5
 10
-285.28550387679928
 20
134.68588209680269
 30
0.0
 11
-145.27264520199969
 21
69.396813856502291
 31
0.0
  0
LINE
  8
DETAIL
  6
CONTINUOUS
 62
     5
 10
-142.5532913342995
 20
68.128758322802156
 30
0.0
 11
-142.10954906559979
 21
67.921837904702357
 31
0.0
  0
LINE
  8
DETAIL
  6
CONTINUOUS
 62
     5
 10
-157.01170320529951
 20
12.482990690003049
 30
0.0
 11
-157.22097262649999
 21
9.49029853930179
 31
0.0
  0
LINE
  8
DETAIL
  6
CONTINUOUS
 62
     5
 10
-39.315110864199603
 20
152.52154620810211
 30
0.0
 11
-42.212888342999577
 21
151.7450890728021
 31
0.0
  0
LINE
  8
DETAIL
  6
CONTINUOUS
 62
     5
 10
-25.872376352999709
 20
155.3676933659024
 30
0.0
 11
-28.82679961199938
 21
154.84674883290231
 31
0.0
  0
LINE
  8
DETAIL
  6
CONTINUOUS
 62
     5
 10
-9.4902985393000563
 20
157.2209726265026
 30
0.0
 11
-12.4829906899995
 21
157.01170320530201
 31
0.0
  0
LINE
  8
DETAIL
  6
CONTINUOUS
 62
     5
 10
-381.8011776650992
 20
218.70096189430291
 30
0.0
 11
-276.57233405899927
 21
157.94706071180181
 31
0.0
  0
LINE
  8
DETAIL
  6
CONTINUOUS
 62
     5
 10
-273.9743847978998
 20
156.44713400650281
 30
0.0
 11
-140.16136362539959
 21
79.190150211502356
 31
0.0
  0
LINE
  8
DETAIL
  6
CONTINUOUS
 62
     5
 10
-137.5635957957993
 20
77.690328255803166
 30
0.0
 11
-137.14900109599969
 21
77.450961894302878
 31
0.0
  0
LINE
  8
DETAIL
  6
CONTINUOUS
 62
     5
 10
-380.3011776650992
 20
221.29903810560239
 30
0.0
 11
-275.05889239019962
 21
160.53737637200169
 31
0.0
  0
LINE
  8
DETAIL
  6
CONTINUOUS
 62
     5
 10
-272.46094312909918
 20
159.0374496668027
 30
0.0
 11
-138.6657167479998
 21
81.79073969940228
 31
0.0
  0
LINE
  8
DETAIL
  6
CONTINUOUS
 62
     5
 10
-136.06794891839951
 20
80.290917743702181
 30
0.0
 11
-135.64900109599969
 21
80.049038105602364
 31
0.0
  0
LINE
  8
DETAIL
  6
CONTINUOUS
 62
     5
 10
-163.5
 20
-34.999999999998273
 30
0.0
 11
-163.5
 21
9.9293709056018145
 31
0.0
  0
LINE
  8
DETAIL
  6
CONTINUOUS
 62
     5
 10
-163.5
 20
12.93669659980233
 30
0.0
 11
-163.5
 21
27.30632142800269
 31
0.0
  0
LINE
  8
DETAIL
  6
CONTINUOUS
 62
     5
 10
-163.5
 20
30.35260126360291
 30
0.0
 11
-163.5
 21
35.000000000001727
 31
0.0
  0
LINE
  8
DETAIL
  6
CONTINUOUS
 62
     5
 10
-164.5
 20
-34.999999999998273
 30
0.0
 11
-164.5
 21
9.9992977175024009
 31
0.0
  0
LINE
  8
DETAIL
  6
CONTINUOUS
 62
     5
 10
-164.5
 20
13.00662341180205
 30
0.0
 11
-164.5
 21
27.482648408702431
 31
0.0
  0
LINE
  8
DETAIL
  6
CONTINUOUS
 62
     5
 10
-164.5
 20
30.528928244302652
 30
0.0
 11
-164.5
 21
35.000000000001727
 31
0.0
  0
LINE
  8
DETAIL
  6
CONTINUOUS
 62
     5
 10
-361.28726414159968
 20
251.1449039280032
 30
0.0
 11
-261.75536810839913
 21
181.45192003320241
 31
0.0
  0
LINE
  8
DETAIL
  6
CONTINUOUS
 62
     5
 10
-259.29778302469907
 20
179.73110043180159
 30
0.0
 11
-132.7340610055999
 21
91.110228210101837
 31
0.0
  0
LINE
  8
DETAIL
  6
CONTINUOUS
 62
     5
 10
-130.27687986889941
 20
89.389691455502458
 30
0.0
 11
-129.87681162999979
 21
89.10956065880228
 31
0.0
  0
LINE
  8
DETAIL
  6
CONTINUOUS
 62
     5
 10
-359.56653483259919
 20
253.6023600609023
 30
0.0
 11
-260.02121632409938
 21
183.899977647703
 31
0.0
  0
LINE
  8
DETAIL
  6
CONTINUOUS
 62
     5
 10
-257.56385002229939
 20
182.1793112391023
 30
0.0
 11
-131.00338099959939
 21
93.560716790002431
 31
0.0
  0
LINE
  8
DETAIL
  6
CONTINUOUS
 62
     5
 10
-128.54619986289981
 20
91.840180035302097
 30
0.0
 11
-128.15608232089929
 21
91.567016791703196
 31
0.0
  0
LINE
  8
DETAIL
  6
CONTINUOUS
 62
     5
 10
-188.5
 20
-34.999999999998273
 30
0.0
 11
-188.5
 21
11.677541204202409
 31
0.0
  0
LINE
  8
DETAIL
  6
CONTINUOUS
 62
     5
 10
-188.5
 20
14.684866898402021
 30
0.0
 11
-188.5
 21
31.714495945701771
 31
0.0
  0
LINE
  8
DETAIL
  6
CONTINUOUS
 62
     5
 10
-188.5
 20
34.760775781301987
 30
0.0
 11
-188.5
 21
35.000000000001727
 31
0.0
  0
LINE
  8
DETAIL
  6
CONTINUOUS
 62
     5
 10
-189.5
 20
-34.999999999998273
 30
0.0
 11
-189.5
 21
11.747468016102999
 31
0.0
  0
LINE
  8
DETAIL
  6
CONTINUOUS
 62
     5
 10
-189.5
 20
14.75479371040265
 30
0.0
 11
-189.5
 21
31.890822926402421
 31
0.0
  0
LINE
  8
DETAIL
  6
CONTINUOUS
 62
     5
 10
-189.5
 20
34.937102762001729
 30
0.0
 11
-189.5
 21
35.000000000001727
 31
0.0
  0
LINE
  8
DETAIL
  6
CONTINUOUS
 62
     5
 10
-39.0
 20
193.50000000000159
 30
0.0
 11
-9.0
 21
193.50000000000159
 31
0.0
  0
LINE
  8
DETAIL
  6
CONTINUOUS
 62
     5
 10
-338.02373638680001
 20
281.67748159740211
 30
0.0
 11
-244.94013860369981
 21
203.5710690288023
 31
0.0
  0
LINE
  8
DETAIL
  6
CONTINUOUS
 62
     5
 10
-242.64194955249971
 20
201.64265944360241
 30
0.0
 11
-124.2859119488994
 21
102.3301519428022
 31
0.0
  0
LINE
  8
DETAIL
  6
CONTINUOUS
 62
     5
 10
-121.9875370219997
 20
100.4015863894018
 30
0.0
 11
-121.6161812056998
 21
100.0899818609022
 31
0.0
  0
LINE
  8
DETAIL
  6
CONTINUOUS
 62
     5
 10
-336.09537355779958
 20
283.97561492670309
 30
0.0
 11
-243.0054997324996
 21
205.86393613360261
 31
0.0
  0
LINE
  8
DETAIL
  6
CONTINUOUS
 62
     5
 10
-240.70741297919989
 20
203.93561238640169
 30
0.0
 11
-122.3488209081997
 21
104.6209614330018
 31
0.0
  0
LINE
  8
DETAIL
  6
CONTINUOUS
 62
     5
 10
-120.0508538247996
 20
102.6927381009026
 30
0.0
 11
-119.6878183766994
 21
102.3881151903023
 31
0.0
  0
LINE
  8
DETAIL
  6
CONTINUOUS
 62
     5
 10
-39.0
 20
196.50000000000159
 30
0.0
 11
-9.0
 21
196.50000000000159
 31
0.0
  0
LINE
  8
DETAIL
  6
CONTINUOUS
 62
     5
 10
-312.18764389379982
 20
310.0663235503024
 30
0.0
 11
-226.26233502359989
 21
224.14101468000251
 31
0.0
  0
LINE
  8
DETAIL
  6
CONTINUOUS
 62
     5
 10
-224.1410146799999
 20
222.01969433640249
 30
0.0
 11
-114.88841195959959
 21
112.7670916160022
 31
0.0
  0
LINE
  8
DETAIL
  6
CONTINUOUS
 62
     5
 10
-112.7670916159996
 20
110.6457712724022
 30
0.0
 11
-112.42997820860001
 21
110.30865786510179
 31
0.0
  0
LINE
  8
DETAIL
  6
CONTINUOUS
 62
     5
 10
-310.06632355029978
 20
312.18764389380237
 30
0.0
 11
-224.1410146799999
 21
226.26233502360259
 31
0.0
  0
LINE
  8
DETAIL
  6
CONTINUOUS
 62
     5
 10
-222.01969433639991
 20
224.14101468000251
 30
0.0
 11
-112.7670916159996
 21
114.88841195960219
 31
0.0
  0
LINE
  8
DETAIL
  6
CONTINUOUS
 62
     5
 10
-110.6457712723995
 20
112.7670916160022
 30
0.0
 11
-110.3086578651
 21
112.4299782086017
 31
0.0
  0
LINE
  8
DETAIL
  6
CONTINUOUS
 62
     5
 10
-283.97561492669962
 20
336.09537355780219
 30
0.0
 11
-205.86393613359999
 21
243.0054997325023
 31
0.0
  0
LINE
  8
DETAIL
  6
CONTINUOUS
 62
     5
 10
-203.93561238640001
 20
240.70741297920171
 30
0.0
 11
-104.6209614329991
 21
122.3488209082024
 31
0.0
  0
LINE
  8
DETAIL
  6
CONTINUOUS
 62
     5
 10
-102.69273810089911
 20
120.0508538248031
 30
0.0
 11
-102.3881151902997
 21
119.687818376702
 31
0.0
  0
LINE
  8
DETAIL
  6
CONTINUOUS
 62
     5
 10
-281.67748159739949
 20
338.02373638680172
 30
0.0
 11
-203.57106902879971
 21
244.94013860370239
 31
0.0
  0
LINE
  8
DETAIL
  6
CONTINUOUS
 62
     5
 10
-201.6426594435998
 20
242.6419495525023
 30
0.0
 11
-102.3301519427996
 21
124.2859119489021
 31
0.0
  0
LINE
  8
DETAIL
  6
CONTINUOUS
 62
     5
 10
-100.4015863893992
 20
121.9875370220024
 30
0.0
 11
-100.0899818608996
 21
121.6161812057025
 31
0.0
  0
LINE
  8
DETAIL
  6
CONTINUOUS
 62
     5
 10
-279.0
 20
-59.999999999998273
 30
0.0
 11
-279.0
 21
18.00591768510267
 31
0.0
  0
LINE
  8
DETAIL
  6
CONTINUOUS
 62
     5
 10
-279.0
 20
21.013243379302281
 30
0.0
 11
-279.0
 21
47.672087699802347
 31
0.0
  0
LINE
  8
DETAIL
  6
CONTINUOUS
 62
     5
 10
-279.0
 20
50.718367535402557
 30
0.0
 11
-279.0
 21
60.000000000001727
 31
0.0
  0
LINE
  8
DETAIL
  6
CONTINUOUS
 62
     5
 10
-280.0
 20
-59.999999999998273
 30
0.0
 11
-280.0
 21
18.07584449700235
 31
0.0
  0
LINE
  8
DETAIL
  6
CONTINUOUS
 62
     5
 10
-280.0
 20
21.083170191302909
 30
0.0
 11
-280.0
 21
47.848414680502088
 31
0.0
  0
LINE
  8
DETAIL
  6
CONTINUOUS
 62
     5
 10
-280.0
 20
50.89469451620235
 30
0.0
 11
-280.0
 21
60.000000000001727
 31
0.0
  0
LINE
  8
DETAIL
  6
CONTINUOUS
 62
     5
 10
-253.6023600608996
 20
359.56653483260192
 30
0.0
 11
-183.89997764769939
 21
260.02121632410302
 31
0.0
  0
LINE
  8
DETAIL
  6
CONTINUOUS
 62
     5
 10
-182.17931123909969
 20
257.56385002230297
 30
0.0
 11
-93.560716789999788
 21
131.003380999602
 31
0.0
  0
LINE
  8
DETAIL
  6
CONTINUOUS
 62
     5
 10
-91.840180035299454
 20
128.54619986290251
 30
0.0
 11
-91.567016791699643
 21
128.1560823209019
 31
0.0
  0
LINE
  8
DETAIL
  6
CONTINUOUS
 62
     5
 10
-251.14490392799959
 20
361.28726414160229
 30
0.0
 11
-181.45192003319971
 21
261.75536810840259
 31
0.0
  0
LINE
  8
DETAIL
  6
CONTINUOUS
 62
     5
 10
-179.73110043179989
 20
259.29778302470169
 30
0.0
 11
-91.110228210099194
 21
132.7340610056016
 31
0.0
  0
LINE
  8
DETAIL
  6
CONTINUOUS
 62
     5
 10
-89.389691455499815
 20
130.27687986890299
 30
0.0
 11
-89.109560658799637
 21
129.87681163000241
 31
0.0
  0
LINE
  8
DETAIL
  6
CONTINUOUS
 62
     5
 10
-304.0
 20
-59.999999999998273
 30
0.0
 11
-304.0
 21
19.754087983702359
 31
0.0
  0
LINE
  8
DETAIL
  6
CONTINUOUS
 62
     5
 10
-304.0
 20
22.76141367790288
 30
0.0
 11
-304.0
 21
52.080262217502337
 31
0.0
  0
LINE
  8
DETAIL
  6
CONTINUOUS
 62
     5
 10
-304.0
 20
55.126542053201689
 30
0.0
 11
-304.0
 21
60.000000000001727
 31
0.0
  0
LINE
  8
DETAIL
  6
CONTINUOUS
 62
     5
 10
-305.0
 20
-59.999999999998273
 30
0.0
 11
-305.0
 21
19.824014795602039
 31
0.0
  0
LINE
  8
DETAIL
  6
CONTINUOUS
 62
     5
 10
-305.0
 20
22.831340489901692
 30
0.0
 11
-305.0
 21
52.256589198202988
 31
0.0
  0
LINE
  8
DETAIL
  6
CONTINUOUS
 62
     5
 10
-305.0
 20
55.302869033903249
 30
0.0
 11
-305.0
 21
60.000000000001727
 31
0.0
  0
LINE
  8
DETAIL
  6
CONTINUOUS
 62
     5
 10
-221.29903810559969
 20
380.30117766510182
 30
0.0
 11
-160.5373763719999
 21
275.05889239020308
 31
0.0
  0
LINE
  8
DETAIL
  6
CONTINUOUS
 62
     5
 10
-159.03744966679909
 20
272.4609431291027
 30
0.0
 11
-81.790739699399637
 21
138.6657167480023
 31
0.0
  0
LINE
  8
DETAIL
  6
CONTINUOUS
 62
     5
 10
-80.290917743699538
 20
136.06794891840201
 30
0.0
 11
-80.04903810559972
 21
135.64900109600219
 31
0.0
  0
LINE
  8
DETAIL
  6
CONTINUOUS
 62
     5
 10
-218.7009618942993
 20
381.80117766510182
 30
0.0
 11
-157.9470607117992
 21
276.57233405900291
 31
0.0
  0
LINE
  8
DETAIL
  6
CONTINUOUS
 62
     5
 10
-156.44713400649931
 20
273.97438479790242
 30
0.0
 11
-79.190150211499713
 21
140.1613636254022
 31
0.0
  0
LINE
  8
DETAIL
  6
CONTINUOUS
 62
     5
 10
-77.690328255799614
 20
137.5635957958018
 30
0.0
 11
-77.450961894299326
 21
137.14900109600219
 31
0.0
  0
LINE
  8
DETAIL
  6
CONTINUOUS
 62
     5
 10
-187.31149684639971
 20
398.14149890350188
 30
0.0
 11
-135.95366436939909
 21
288.00427173420201
 31
0.0
  0
LINE
  8
DETAIL
  6
CONTINUOUS
 62
     5
 10
-134.68588209679911
 20
285.28550387680292
 30
0.0
 11
-69.396813856499648
 21
145.2726452020031
 31
0.0
  0
LINE
  8
DETAIL
  6
CONTINUOUS
 62
     5
 10
-68.128758322799513
 20
142.553291334302
 30
0.0
 11
-67.921837904699714
 21
142.10954906560241
 31
0.0
  0
LINE
  8
DETAIL
  6
CONTINUOUS
 62
     5
 10
-184.592573485299
 20
399.40935368870288
 30
0.0
 11
-133.23877152279971
 21
289.28076998570202
 31
0.0
  0
LINE
  8
DETAIL
  6
CONTINUOUS
 62
     5
 10
-131.97098925019961
 20
286.56200212830288
 30
0.0
 11
-66.671078312299869
 21
146.52589121330291
 31
0.0
  0
LINE
  8
DETAIL
  6
CONTINUOUS
 62
     5
 10
-65.403341083699161
 20
143.80721995330239
 30
0.0
 11
-65.202914543599036
 21
143.37740385080249
 31
0.0
  0
LINE
  8
DETAIL
  6
CONTINUOUS
 62
     5
 10
-151.89840199439911
 20
412.95172293080202
 30
0.0
 11
-110.33564272469989
 21
298.75898034700168
 31
0.0
  0
LINE
  8
DETAIL
  6
CONTINUOUS
 62
     5
 10
-109.3096454431998
 20
295.94007598350242
 30
0.0
 11
-56.46779317939945
 21
150.75828008670189
 31
0.0
  0
LINE
  8
DETAIL
  6
CONTINUOUS
 62
     5
 10
-55.44169210759901
 20
147.93909056170179
 30
0.0
 11
-55.277711504899337
 21
147.488557558803
 31
0.0
  0
LINE
  8
DETAIL
  6
CONTINUOUS
 62
     5
 10
-149.0793241320998
 20
413.97778336070212
 30
0.0
 11
-107.5177800575993
 21
299.78837949860269
 31
0.0
  0
LINE
  8
DETAIL
  6
CONTINUOUS
 62
     5
 10
-106.4917827760992
 20
296.96947513510253
 30
0.0
 11
-53.647099584999523
 21
151.77990132930219
 31
0.0
  0
LINE
  8
DETAIL
  6
CONTINUOUS
 62
     5
 10
-52.621074013099133
 20
148.96091923860311
 30
0.0
 11
-52.458633642599118
 21
148.51461798870221
 31
0.0
  0
CIRCLE
  8
DETAIL
  6
CONTINUOUS
 62
     5
 10
-176.5
 20
-22.49999999999827
 30
0.0
 40
2.5
  0
ARC
  8
DETAIL
  6
CONTINUOUS
 62
     5
 10
0.0
 20
0.00000000000162
 30
0.0
 40
444.5
 50
93.499999999931177
 51
176.49999999998991
  0
ARC
  8
DETAIL
  6
CONTINUOUS
 62
     5
 10
0.0
 20
0.00000000000162
 30
0.0
 40
441.5
 50
93.499999999931177
 51
176.49999999998991
  0
ARC
  8
DETAIL
  6
CONTINUOUS
 62
     5
 10
0.0
 20
0.00000000000162
 30
0.0
 40
318.5
 50
90.249999999991559
 51
179.7500000000085
  0
ARC
  8
DETAIL
  6
CONTINUOUS
 62
     5
 10
0.0
 20
0.00000000000162
 30
0.0
 40
315.5
 50
90.249999999991559
 51
179.7500000000085
  0
ARC
  8
DETAIL
  6
CONTINUOUS
 62
     5
 10
0.0
 20
0.00000000000162
 30
0.0
 40
161.0
 50
90.600000000032722
 51
179.39999999999341
  0
ARC
  8
DETAIL
  6
CONTINUOUS
 62
     5
 10
0.0
 20
0.00000000000162
 30
0.0
 40
158.0
 50
90.600000000032722
 51
179.39999999999341
  0
CIRCLE
  8
DETAIL
  6
CONTINUOUS
 62
     5
 10
-176.5
 20
22.50000000000173
 30
0.0
 40
2.5
  0
CIRCLE
  8
DETAIL
  6
CONTINUOUS
 62
     5
 10
-292.0
 20
-19.99999999999827
 30
0.0
 40
3.0
  0
CIRCLE
  8
DETAIL
  6
CONTINUOUS
 62
     5
 10
-292.0
 20
-39.999999999998273
 30
0.0
 40
2.5
  0
CIRCLE
  8
DETAIL
  6
CONTINUOUS
 62
     5
 10
-292.0
 20
40.000000000001727
 30
0.0
 40
2.5
  0
ARC
  8
DETAIL
  6
CONTINUOUS
 62
     5
 10
-438.92818211429949
 20
30.692848447402781
 30
0.0
 40
1.5
 50
86.000000000016598
 51
266.0000000000166
  0
ARC
  8
DETAIL
  6
CONTINUOUS
 62
     5
 10
-433.31541132529952
 20
76.405198173402738
 30
0.0
 40
1.5
 50
79.999999999941963
 51
259.99999999994202
  0
ARC
  8
DETAIL
  6
CONTINUOUS
 62
     5
 10
-425.00736356709967
 20
113.8803798451026
 30
0.0
 40
1.5
 50
75.000000000005542
 51
255.0000000000056
  0
ARC
  8
DETAIL
  6
CONTINUOUS
 62
     5
 10
-413.46475314579948
 20
150.48886306330311
 30
0.0
 40
1.5
 50
70.000000000010203
 51
250.0000000000102
  0
ARC
  8
DETAIL
  6
CONTINUOUS
 62
     5
 10
-398.77542629609979
 20
185.95203516590291
 30
0.0
 40
1.5
 50
65.000000000021814
 51
245.0000000000218
  0
ARC
  8
DETAIL
  6
CONTINUOUS
 62
     5
 10
-30.692848447399228
 20
438.92818211430301
 30
0.0
 40
1.5
 50
4.0000000000095079
 51
184.00000000000949
  0
ARC
  8
DETAIL
  6
CONTINUOUS
 62
     5
 10
-76.405198173399185
 20
433.31541132530208
 30
0.0
 40
1.5
 50
10.000000000016721
 51
190.00000000001671
  0
ARC
  8
DETAIL
  6
CONTINUOUS
 62
     5
 10
-113.880379845099
 20
425.00736356710138
 30
0.0
 40
1.5
 50
14.999999999994451
 51
194.9999999999944
  0
ARC
  8
DETAIL
  6
CONTINUOUS
 62
     5
 10
-150.4888630632995
 20
413.464753145803
 30
0.0
 40
1.5
 50
19.999999999989239
 51
199.99999999998931
  0
ARC
  8
DETAIL
  6
CONTINUOUS
 62
     5
 10
-185.95203516589939
 20
398.77542629610241
 30
0.0
 40
1.5
 50
25.00000000001371
 51
205.0000000000137
  0
ARC
  8
DETAIL
  6
CONTINUOUS
 62
     5
 10
-220.0
 20
381.05117766510182
 30
0.0
 40
1.5
 50
30.000000000025821
 51
210.00000000002581
  0
ARC
  8
DETAIL
  6
CONTINUOUS
 62
     5
 10
-252.37363199439909
 20
360.42689948710171
 30
0.0
 40
1.5
 50
35.00000000001684
 51
215.0000000000168
  0
ARC
  8
DETAIL
  6
CONTINUOUS
 62
     5
 10
-381.0511776650992
 20
220.00000000000171
 30
0.0
 40
1.5
 50
60.000000000000277
 51
239.9999999999994
  0
ARC
  8
DETAIL
  6
CONTINUOUS
 62
     5
 10
-282.82654826199911
 20
337.05955497230201
 30
0.0
 40
1.5
 50
40.000000000001343
 51
220.00000000000131
  0
ARC
  8
DETAIL
  6
CONTINUOUS
 62
     5
 10
-360.42689948709989
 20
252.37363199440179
 30
0.0
 40
1.5
 50
55.000000000019853
 51
235.00000000001981
  0
ARC
  8
DETAIL
  6
CONTINUOUS
 62
     5
 10
-311.12698372199969
 20
311.12698372200242
 30
0.0
 40
1.5
 50
44.999999999990777
 51
224.99999999999079
  0
ARC
  8
DETAIL
  6
CONTINUOUS
 62
     5
 10
-337.05955497229928
 20
282.82654826200258
 30
0.0
 40
1.5
 50
50.000000000013671
 51
230.0000000000137
  0
LINE
  8
OUTLINE
  6
CONTINUOUS
 62
     3
 10
-60.0
 20
304.00000000000063
 30
0.0
 11
-60.0
 21
305.00000000000063
 31
0.0
  0
LINE
  8
OUTLINE
  6
CONTINUOUS
 62
     3
 10
-60.0
 20
304.00000000000063
 30
0.0
 11
-60.0
 21
280.00000000000063
 31
0.0
  0
LINE
  8
OUTLINE
  6
CONTINUOUS
 62
     3
 10
-60.0
 20
280.00000000000063
 30
0.0
 11
-60.0
 21
279.00000000000063
 31
0.0
  0
LINE
  8
OUTLINE
  6
CONTINUOUS
 62
     3
 10
-35.0
 20
188.5000000000006
 30
0.0
 11
-35.0
 21
189.5000000000006
 31
0.0
  0
LINE
  8
OUTLINE
  6
CONTINUOUS
 62
     3
 10
-35.0
 20
188.5000000000006
 30
0.0
 11
-35.0
 21
164.5000000000006
 31
0.0
  0
LINE
  8
OUTLINE
  6
CONTINUOUS
 62
     3
 10
-35.0
 20
164.5000000000006
 30
0.0
 11
-35.0
 21
163.5000000000006
 31
0.0
  0
LINE
  8
OUTLINE
  6
CONTINUOUS
 62
     3
 10
439.03281682489978
 20
29.196502372000541
 30
0.0
 11
317.80937911320052
 21
20.7197338400006
 31
0.0
  0
LINE
  8
OUTLINE
  6
CONTINUOUS
 62
     3
 10
314.81673356830021
 20
20.510467677700628
 30
0.0
 11
196.5
 21
12.23695569970053
 31
0.0
  0
LINE
  8
OUTLINE
  6
CONTINUOUS
 62
     3
 10
193.5
 20
12.027175263900659
 30
0.0
 11
160.68718556470051
 21
9.7326797596005292
 31
0.0
  0
LINE
  8
OUTLINE
  6
CONTINUOUS
 62
     3
 10
157.69460593600019
 20
9.5234182066004962
 30
0.0
 11
157.22097262649999
 21
9.4902985393006531
 31
0.0
  0
LINE
  8
OUTLINE
  6
CONTINUOUS
 62
     3
 10
438.8235474037001
 20
32.189194522800591
 30
0.0
 11
317.60623930450038
 21
23.71285461500057
 31
0.0
  0
LINE
  8
OUTLINE
  6
CONTINUOUS
 62
     3
 10
314.61349384850018
 20
23.50358146630052
 30
0.0
 11
196.5
 21
15.24428139400052
 31
0.0
  0
LINE
  8
OUTLINE
  6
CONTINUOUS
 62
     3
 10
193.5
 20
15.034500958100489
 30
0.0
 11
160.48318315290001
 21
12.72574021550045
 31
0.0
  0
LINE
  8
OUTLINE
  6
CONTINUOUS
 62
     3
 10
157.4903574077002
 20
12.516461452400479
 30
0.0
 11
157.01170320530039
 21
12.48299069000055
 31
0.0
  0
LINE
  8
OUTLINE
  6
CONTINUOUS
 62
     3
 10
440.67651350320011
 20
26.952930204600559
 30
0.0
 11
443.67091789850019
 21
27.13607582320051
 31
0.0
  0
LINE
  8
OUTLINE
  6
CONTINUOUS
 62
     3
 10
196.4946981364001
 20
9.0000000000005969
 30
0.0
 11
193.50530186349991
 21
9.0000000000005969
 31
0.0
  0
LINE
  8
OUTLINE
  6
CONTINUOUS
 62
     3
 10
26.95293020460031
 20
440.67651350320062
 30
0.0
 11
27.136075823200368
 21
443.67091789850048
 31
0.0
  0
LINE
  8
OUTLINE
  6
CONTINUOUS
 62
     3
 10
29.196502372000399
 20
439.03281682490058
 30
0.0
 11
20.719733840000121
 21
317.80937911320052
 31
0.0
  0
LINE
  8
OUTLINE
  6
CONTINUOUS
 62
     3
 10
20.510467677700031
 20
314.81673356830049
 30
0.0
 11
9.7326797596001597
 21
160.6871855647006
 31
0.0
  0
LINE
  8
OUTLINE
  6
CONTINUOUS
 62
     3
 10
9.5234182066001267
 20
157.69460593600061
 30
0.0
 11
9.4902985393000563
 21
157.22097262650061
 31
0.0
  0
LINE
  8
OUTLINE
  6
CONTINUOUS
 62
     3
 10
433.57588359180039
 20
74.92798654390063
 30
0.0
 11
313.89930778510012
 21
53.825777270400437
 31
0.0
  0
LINE
  8
OUTLINE
  6
CONTINUOUS
 62
     3
 10
310.94505680459997
 20
53.304863114700453
 30
0.0
 11
196.5
 21
33.125111791300611
 31
0.0
  0
LINE
  8
OUTLINE
  6
CONTINUOUS
 62
     3
 10
193.5
 20
32.596130849200591
 30
0.0
 11
158.80705069270061
 21
26.478827846000542
 31
0.0
  0
LINE
  8
OUTLINE
  6
CONTINUOUS
 62
     3
 10
155.85209006380049
 20
25.957788560200608
 30
0.0
 11
155.3676933658999
 21
25.872376353000529
 31
0.0
  0
LINE
  8
OUTLINE
  6
CONTINUOUS
 62
     3
 10
433.0549390588003
 20
77.882409802900526
 30
0.0
 11
313.38665041170037
 21
56.781661779200618
 31
0.0
  0
LINE
  8
OUTLINE
  6
CONTINUOUS
 62
     3
 10
310.43239943119988
 20
56.260747623600452
 30
0.0
 11
196.5
 21
36.171391627000531
 31
0.0
  0
LINE
  8
OUTLINE
  6
CONTINUOUS
 62
     3
 10
193.5
 20
35.642410684900511
 30
0.0
 11
158.2683157295005
 21
29.430114172200462
 31
0.0
  0
LINE
  8
OUTLINE
  6
CONTINUOUS
 62
     3
 10
155.31418636340001
 20
28.90922146040057
 30
0.0
 11
154.8467488329002
 21
28.826799612000539
 31
0.0
  0
LINE
  8
OUTLINE
  6
CONTINUOUS
 62
     3
 10
196.4946981364001
 20
39.000000000000597
 30
0.0
 11
193.50530186349991
 21
39.000000000000597
 31
0.0
  0
LINE
  8
OUTLINE
  6
CONTINUOUS
 62
     3
 10
35.0
 20
188.5000000000006
 30
0.0
 11
35.0
 21
189.5000000000006
 31
0.0
  0
LINE
  8
OUTLINE
  6
CONTINUOUS
 62
     3
 10
35.0
 20
188.5000000000006
 30
0.0
 11
35.0
 21
164.5000000000006
 31
0.0
  0
LINE
  8
OUTLINE
  6
CONTINUOUS
 62
     3
 10
35.0
 20
164.5000000000006
 30
0.0
 11
35.0
 21
163.5000000000006
 31
0.0
  0
LINE
  8
OUTLINE
  6
CONTINUOUS
 62
     3
 10
32.18919452279988
 20
438.82354740370062
 30
0.0
 11
23.7128546150002
 21
317.60623930450049
 31
0.0
  0
LINE
  8
OUTLINE
  6
CONTINUOUS
 62
     3
 10
23.503581466300151
 20
314.61349384850053
 30
0.0
 11
12.72574021550008
 21
160.48318315290061
 31
0.0
  0
LINE
  8
OUTLINE
  6
CONTINUOUS
 62
     3
 10
12.51646145240011
 20
157.4903574077006
 30
0.0
 11
12.48299069000041
 21
157.01170320530051
 31
0.0
  0
LINE
  8
OUTLINE
  6
CONTINUOUS
 62
     3
 10
425.39559213480061
 20
112.4314911056005
 30
0.0
 11
308.01538139540031
 21
80.979558430600633
 31
0.0
  0
LINE
  8
OUTLINE
  6
CONTINUOUS
 62
     3
 10
305.11778333980061
 20
80.203149371600517
 30
0.0
 11
155.88392355399989
 21
40.216057158600528
 31
0.0
  0
LINE
  8
OUTLINE
  6
CONTINUOUS
 62
     3
 10
152.98597928449999
 20
39.439555331900607
 30
0.0
 11
152.52154620810009
 21
39.315110864200648
 31
0.0
  0
LINE
  8
OUTLINE
  6
CONTINUOUS
 62
     3
 10
424.6191349995006
 20
115.3292685845005
 30
0.0
 11
307.24127242080021
 21
83.877965097300518
 31
0.0
  0
LINE
  8
OUTLINE
  6
CONTINUOUS
 62
     3
 10
304.34367436520012
 20
83.101556038300629
 30
0.0
 11
155.10102431650009
 21
43.112108481400497
 31
0.0
  0
LINE
  8
OUTLINE
  6
CONTINUOUS
 62
     3
 10
152.2033810721
 20
42.335687314100511
 30
0.0
 11
151.74508907280011
 21
42.212888343000508
 31
0.0
  0
LINE
  8
OUTLINE
  6
CONTINUOUS
 62
     3
 10
60.0
 20
304.00000000000063
 30
0.0
 11
60.0
 21
305.00000000000063
 31
0.0
  0
LINE
  8
OUTLINE
  6
CONTINUOUS
 62
     3
 10
60.0
 20
304.00000000000063
 30
0.0
 11
60.0
 21
280.00000000000063
 31
0.0
  0
LINE
  8
OUTLINE
  6
CONTINUOUS
 62
     3
 10
60.0
 20
280.00000000000063
 30
0.0
 11
60.0
 21
279.00000000000063
 31
0.0
  0
LINE
  8
OUTLINE
  6
CONTINUOUS
 62
     3
 10
74.927986543900261
 20
433.57588359180062
 30
0.0
 11
53.825777270400067
 21
313.89930778510052
 31
0.0
  0
LINE
  8
OUTLINE
  6
CONTINUOUS
 62
     3
 10
53.304863114700311
 20
310.94505680460048
 30
0.0
 11
26.478827846000058
 21
158.8070506927005
 31
0.0
  0
LINE
  8
OUTLINE
  6
CONTINUOUS
 62
     3
 10
25.957788560200239
 20
155.8520900638006
 30
0.0
 11
25.872376353000622
 21
155.36769336590049
 31
0.0
  0
LINE
  8
OUTLINE
  6
CONTINUOUS
 62
     3
 10
77.882409802899929
 20
433.05493905880053
 30
0.0
 11
56.781661779200483
 21
313.38665041170049
 31
0.0
  0
LINE
  8
OUTLINE
  6
CONTINUOUS
 62
     3
 10
56.260747623600309
 20
310.43239943120062
 30
0.0
 11
29.430114172199861
 21
158.2683157295005
 31
0.0
  0
LINE
  8
OUTLINE
  6
CONTINUOUS
 62
     3
 10
28.9092214604002
 20
155.31418636340049
 30
0.0
 11
28.82679961200029
 21
154.84674883290049
 31
0.0
  0
LINE
  8
OUTLINE
  6
CONTINUOUS
 62
     3
 10
80.049038105600175
 20
135.64900109600049
 30
0.0
 11
77.450961894300235
 21
137.14900109600049
 31
0.0
  0
LINE
  8
OUTLINE
  6
CONTINUOUS
 62
     3
 10
91.567016791700553
 20
128.15608232090051
 30
0.0
 11
89.109560658800092
 21
129.87681163000059
 31
0.0
  0
LINE
  8
OUTLINE
  6
CONTINUOUS
 62
     3
 10
102.3881151903001
 20
119.6878183767006
 30
0.0
 11
100.0899818609
 21
121.6161812057005
 31
0.0
  0
LINE
  8
OUTLINE
  6
CONTINUOUS
 62
     3
 10
112.42997820860001
 20
110.3086578651006
 30
0.0
 11
110.3086578651
 21
112.4299782086006
 31
0.0
  0
LINE
  8
OUTLINE
  6
CONTINUOUS
 62
     3
 10
121.6161812057003
 20
100.08998186090059
 30
0.0
 11
119.68781837670031
 21
102.3881151903005
 31
0.0
  0
LINE
  8
OUTLINE
  6
CONTINUOUS
 62
     3
 10
112.4314911055999
 20
425.39559213480049
 30
0.0
 11
80.979558430600264
 21
308.01538139540048
 31
0.0
  0
LINE
  8
OUTLINE
  6
CONTINUOUS
 62
     3
 10
80.203149371600375
 20
305.11778333980061
 30
0.0
 11
40.216057158600051
 21
155.88392355400049
 31
0.0
  0
LINE
  8
OUTLINE
  6
CONTINUOUS
 62
     3
 10
39.43955533190001
 20
152.98597928450059
 30
0.0
 11
39.315110864200513
 21
152.52154620810049
 31
0.0
  0
LINE
  8
OUTLINE
  6
CONTINUOUS
 62
     3
 10
115.3292685845004
 20
424.61913499950049
 30
0.0
 11
83.877965097300148
 21
307.24127242080061
 31
0.0
  0
LINE
  8
OUTLINE
  6
CONTINUOUS
 62
     3
 10
83.101556038300259
 20
304.34367436520051
 30
0.0
 11
43.112108481400362
 21
155.10102431650051
 31
0.0
  0
LINE
  8
OUTLINE
  6
CONTINUOUS
 62
     3
 10
42.335687314200193
 20
152.2033810721006
 30
0.0
 11
42.212888343000493
 21
151.74508907280051
 31
0.0
  0
LINE
  8
OUTLINE
  6
CONTINUOUS
 62
     3
 10
55.277711504900253
 20
147.48855755870059
 30
0.0
 11
52.458633642600027
 21
148.51461798870051
 31
0.0
  0
LINE
  8
OUTLINE
  6
CONTINUOUS
 62
     3
 10
67.921837904700169
 20
142.1095490656005
 30
0.0
 11
65.2029145436004
 21
143.37740385080059
 31
0.0
  0
LINE
  8
OUTLINE
  6
CONTINUOUS
 62
     3
 10
129.87681163000019
 20
89.109560658800575
 30
0.0
 11
128.1560823209002
 21
91.567016791700581
 31
0.0
  0
LINE
  8
OUTLINE
  6
CONTINUOUS
 62
     3
 10
137.14900109600009
 20
77.450961894300605
 30
0.0
 11
135.64900109600009
 21
80.049038105600545
 31
0.0
  0
LINE
  8
OUTLINE
  6
CONTINUOUS
 62
     3
 10
143.37740385080039
 20
65.202914543600542
 30
0.0
 11
142.10954906559979
 21
67.921837904700539
 31
0.0
  0
LINE
  8
OUTLINE
  6
CONTINUOUS
 62
     3
 10
149.0793241320998
 20
413.97778336070053
 30
0.0
 11
107.51778005760021
 21
299.78837949860048
 31
0.0
  0
LINE
  8
OUTLINE
  6
CONTINUOUS
 62
     3
 10
106.4917827761001
 20
296.96947513510048
 30
0.0
 11
53.647099585000433
 21
151.77990132930049
 31
0.0
  0
LINE
  8
OUTLINE
  6
CONTINUOUS
 62
     3
 10
52.621074013100042
 20
148.9609192386005
 30
0.0
 11
52.458633642600027
 21
148.51461798870051
 31
0.0
  0
LINE
  8
OUTLINE
  6
CONTINUOUS
 62
     3
 10
151.89840199439999
 20
412.95172293080049
 30
0.0
 11
110.33564272469989
 21
298.75898034700049
 31
0.0
  0
LINE
  8
OUTLINE
  6
CONTINUOUS
 62
     3
 10
109.3096454432002
 20
295.94007598350049
 30
0.0
 11
56.46779317940036
 21
150.75828008670061
 31
0.0
  0
LINE
  8
OUTLINE
  6
CONTINUOUS
 62
     3
 10
55.44169210759992
 20
147.93909056170051
 30
0.0
 11
55.277711504900253
 21
147.48855755870059
 31
0.0
  0
LINE
  8
OUTLINE
  6
CONTINUOUS
 62
     3
 10
28.82679961200029
 20
154.84674883290049
 30
0.0
 11
25.872376353000622
 21
155.36769336590049
 31
0.0
  0
LINE
  8
OUTLINE
  6
CONTINUOUS
 62
     3
 10
42.212888343000493
 20
151.74508907280051
 30
0.0
 11
39.315110864200513
 21
152.52154620810049
 31
0.0
  0
LINE
  8
OUTLINE
  6
CONTINUOUS
 62
     3
 10
148.51461798870011
 20
52.458633642600518
 30
0.0
 11
147.48855755880049
 21
55.277711504900623
 31
0.0
  0
LINE
  8
OUTLINE
  6
CONTINUOUS
 62
     3
 10
184.59257348529991
 20
399.40935368870049
 30
0.0
 11
133.23877152280011
 21
289.28076998570049
 31
0.0
  0
LINE
  8
OUTLINE
  6
CONTINUOUS
 62
     3
 10
131.97098925020049
 20
286.56200212830049
 30
0.0
 11
66.671078312300324
 21
146.5258912133005
 31
0.0
  0
LINE
  8
OUTLINE
  6
CONTINUOUS
 62
     3
 10
65.40334108370007
 20
143.8072199533006
 30
0.0
 11
65.2029145436004
 21
143.37740385080059
 31
0.0
  0
LINE
  8
OUTLINE
  6
CONTINUOUS
 62
     3
 10
187.31149684640059
 20
398.14149890350052
 30
0.0
 11
135.9536643694
 21
288.00427173420047
 31
0.0
  0
LINE
  8
OUTLINE
  6
CONTINUOUS
 62
     3
 10
134.68588209679999
 20
285.28550387680048
 30
0.0
 11
69.396813856500103
 21
145.27264520200049
 31
0.0
  0
LINE
  8
OUTLINE
  6
CONTINUOUS
 62
     3
 10
68.128758322800422
 20
142.55329133430061
 30
0.0
 11
67.921837904700169
 21
142.1095490656005
 31
0.0
  0
LINE
  8
OUTLINE
  6
CONTINUOUS
 62
     3
 10
12.48299069000041
 20
157.01170320530051
 30
0.0
 11
9.4902985393000563
 21
157.22097262650061
 31
0.0
  0
LINE
  8
OUTLINE
  6
CONTINUOUS
 62
     3
 10
152.52154620810009
 20
39.315110864200648
 30
0.0
 11
151.74508907280011
 21
42.212888343000508
 31
0.0
  0
LINE
  8
OUTLINE
  6
CONTINUOUS
 62
     3
 10
155.3676933658999
 20
25.872376353000529
 30
0.0
 11
154.8467488329002
 21
28.826799612000539
 31
0.0
  0
LINE
  8
OUTLINE
  6
CONTINUOUS
 62
     3
 10
157.22097262649999
 20
9.4902985393006531
 30
0.0
 11
157.01170320530039
 21
12.48299069000055
 31
0.0
  0
LINE
  8
OUTLINE
  6
CONTINUOUS
 62
     3
 10
218.70096189430021
 20
381.80117766510062
 30
0.0
 11
157.94706071180011
 21
276.57233405900058
 31
0.0
  0
LINE
  8
OUTLINE
  6
CONTINUOUS
 62
     3
 10
156.44713400650019
 20
273.97438479790048
 30
0.0
 11
79.190150211500168
 21
140.1613636254005
 31
0.0
  0
LINE
  8
OUTLINE
  6
CONTINUOUS
 62
     3
 10
77.690328255800523
 20
137.56359579580061
 30
0.0
 11
77.450961894300235
 21
137.14900109600049
 31
0.0
  0
LINE
  8
OUTLINE
  6
CONTINUOUS
 62
     3
 10
221.2990381056002
 20
380.30117766510062
 30
0.0
 11
160.5373763719999
 21
275.05889239020053
 31
0.0
  0
LINE
  8
OUTLINE
  6
CONTINUOUS
 62
     3
 10
159.03744966680009
 20
272.46094312910049
 30
0.0
 11
81.790739699400092
 21
138.66571674800059
 31
0.0
  0
LINE
  8
OUTLINE
  6
CONTINUOUS
 62
     3
 10
80.290917743699993
 20
136.0679489184005
 30
0.0
 11
80.049038105600175
 21
135.64900109600049
 31
0.0
  0
LINE
  8
OUTLINE
  6
CONTINUOUS
 62
     3
 10
-35.0
 20
163.5000000000006
 30
0.0
 11
9.9293709056000807
 21
163.5000000000006
 31
0.0
  0
LINE
  8
OUTLINE
  6
CONTINUOUS
 62
     3
 10
12.93669659980014
 20
163.5000000000006
 30
0.0
 11
27.30632142800005
 21
163.5000000000006
 31
0.0
  0
LINE
  8
OUTLINE
  6
CONTINUOUS
 62
     3
 10
30.35260126360026
 20
163.5000000000006
 30
0.0
 11
35.0
 21
163.5000000000006
 31
0.0
  0
LINE
  8
OUTLINE
  6
CONTINUOUS
 62
     3
 10
-35.0
 20
164.5000000000006
 30
0.0
 11
9.9992977175002125
 21
164.5000000000006
 31
0.0
  0
LINE
  8
OUTLINE
  6
CONTINUOUS
 62
     3
 10
13.006623411800319
 20
164.5000000000006
 30
0.0
 11
27.482648408699792
 21
164.5000000000006
 31
0.0
  0
LINE
  8
OUTLINE
  6
CONTINUOUS
 62
     3
 10
30.528928244300001
 20
164.5000000000006
 30
0.0
 11
35.0
 21
164.5000000000006
 31
0.0
  0
LINE
  8
OUTLINE
  6
CONTINUOUS
 62
     3
 10
251.1449039280005
 20
361.28726414160047
 30
0.0
 11
181.4519200332002
 21
261.75536810840049
 31
0.0
  0
LINE
  8
OUTLINE
  6
CONTINUOUS
 62
     3
 10
179.73110043179989
 20
259.29778302470049
 30
0.0
 11
91.110228210100104
 21
132.73406100560061
 31
0.0
  0
LINE
  8
OUTLINE
  6
CONTINUOUS
 62
     3
 10
89.38969145550027
 20
130.27687986890049
 30
0.0
 11
89.109560658800092
 21
129.87681163000059
 31
0.0
  0
LINE
  8
OUTLINE
  6
CONTINUOUS
 62
     3
 10
253.60236006090011
 20
359.5665348326005
 30
0.0
 11
183.8999776477003
 21
260.02121632410052
 31
0.0
  0
LINE
  8
OUTLINE
  6
CONTINUOUS
 62
     3
 10
182.17931123910009
 20
257.56385002230053
 30
0.0
 11
93.560716790000242
 21
131.00338099960049
 31
0.0
  0
LINE
  8
OUTLINE
  6
CONTINUOUS
 62
     3
 10
91.840180035300364
 20
128.54619986290061
 30
0.0
 11
91.567016791700553
 21
128.15608232090051
 31
0.0
  0
LINE
  8
OUTLINE
  6
CONTINUOUS
 62
     3
 10
-35.0
 20
188.5000000000006
 30
0.0
 11
11.677541204200219
 21
188.5000000000006
 31
0.0
  0
LINE
  8
OUTLINE
  6
CONTINUOUS
 62
     3
 10
14.684866898400291
 20
188.5000000000006
 30
0.0
 11
31.71449594570004
 21
188.5000000000006
 31
0.0
  0
LINE
  8
OUTLINE
  6
CONTINUOUS
 62
     3
 10
34.760775781300246
 20
188.5000000000006
 30
0.0
 11
35.0
 21
188.5000000000006
 31
0.0
  0
LINE
  8
OUTLINE
  6
CONTINUOUS
 62
     3
 10
-35.0
 20
189.5000000000006
 30
0.0
 11
11.74746801610036
 21
189.5000000000006
 31
0.0
  0
LINE
  8
OUTLINE
  6
CONTINUOUS
 62
     3
 10
14.75479371040001
 20
189.5000000000006
 30
0.0
 11
31.890822926400229
 21
189.5000000000006
 31
0.0
  0
LINE
  8
OUTLINE
  6
CONTINUOUS
 62
     3
 10
34.937102761999988
 20
189.5000000000006
 30
0.0
 11
35.0
 21
189.5000000000006
 31
0.0
  0
LINE
  8
OUTLINE
  6
CONTINUOUS
 62
     3
 10
193.5
 20
39.000000000000597
 30
0.0
 11
193.5
 21
9.0000000000005969
 31
0.0
  0
LINE
  8
OUTLINE
  6
CONTINUOUS
 62
     3
 10
281.67748159739989
 20
338.02373638680058
 30
0.0
 11
203.57106902880011
 21
244.9401386037006
 31
0.0
  0
LINE
  8
OUTLINE
  6
CONTINUOUS
 62
     3
 10
201.64265944360019
 20
242.64194955250051
 30
0.0
 11
102.3301519428001
 21
124.28591194890051
 31
0.0
  0
LINE
  8
OUTLINE
  6
CONTINUOUS
 62
     3
 10
100.40158638940009
 20
121.98753702200059
 30
0.0
 11
100.0899818609
 21
121.6161812057005
 31
0.0
  0
LINE
  8
OUTLINE
  6
CONTINUOUS
 62
     3
 10
283.97561492670047
 20
336.09537355780049
 30
0.0
 11
205.86393613359999
 21
243.0054997325006
 31
0.0
  0
LINE
  8
OUTLINE
  6
CONTINUOUS
 62
     3
 10
203.93561238640001
 20
240.70741297920051
 30
0.0
 11
104.62096143300001
 21
122.34882090820059
 31
0.0
  0
LINE
  8
OUTLINE
  6
CONTINUOUS
 62
     3
 10
102.6927381009
 20
120.0508538248006
 30
0.0
 11
102.3881151903001
 21
119.6878183767006
 31
0.0
  0
LINE
  8
OUTLINE
  6
CONTINUOUS
 62
     3
 10
196.5
 20
39.000000000000597
 30
0.0
 11
196.5
 21
9.0000000000005969
 31
0.0
  0
LINE
  8
OUTLINE
  6
CONTINUOUS
 62
     3
 10
310.06632355030018
 20
312.18764389380061
 30
0.0
 11
224.1410146799999
 21
226.26233502360051
 31
0.0
  0
LINE
  8
OUTLINE
  6
CONTINUOUS
 62
     3
 10
222.01969433640031
 20
224.1410146800005
 30
0.0
 11
112.7670916160005
 21
114.8884119596005
 31
0.0
  0
LINE
  8
OUTLINE
  6
CONTINUOUS
 62
     3
 10
110.6457712724
 20
112.7670916160006
 30
0.0
 11
110.3086578651
 21
112.4299782086006
 31
0.0
  0
LINE
  8
OUTLINE
  6
CONTINUOUS
 62
     3
 10
312.18764389380021
 20
310.06632355030058
 30
0.0
 11
226.2623350236004
 21
224.1410146800005
 31
0.0
  0
LINE
  8
OUTLINE
  6
CONTINUOUS
 62
     3
 10
224.1410146799999
 20
222.01969433640051
 30
0.0
 11
114.88841195960001
 21
112.7670916160006
 31
0.0
  0
LINE
  8
OUTLINE
  6
CONTINUOUS
 62
     3
 10
112.7670916160005
 20
110.64577127240059
 30
0.0
 11
112.42997820860001
 21
110.3086578651006
 31
0.0
  0
LINE
  8
OUTLINE
  6
CONTINUOUS
 62
     3
 10
336.09537355779997
 20
283.97561492670059
 30
0.0
 11
243.00549973250011
 21
205.86393613360059
 31
0.0
  0
LINE
  8
OUTLINE
  6
CONTINUOUS
 62
     3
 10
240.70741297919989
 20
203.93561238640049
 30
0.0
 11
122.3488209082002
 21
104.6209614330005
 31
0.0
  0
LINE
  8
OUTLINE
  6
CONTINUOUS
 62
     3
 10
120.0508538248005
 20
102.6927381009006
 30
0.0
 11
119.68781837670031
 21
102.3881151903005
 31
0.0
  0
LINE
  8
OUTLINE
  6
CONTINUOUS
 62
     3
 10
338.02373638680001
 20
281.67748159740052
 30
0.0
 11
244.94013860369981
 21
203.57106902880051
 31
0.0
  0
LINE
  8
OUTLINE
  6
CONTINUOUS
 62
     3
 10
242.64194955250011
 20
201.64265944360059
 30
0.0
 11
124.28591194890031
 21
102.3301519428005
 31
0.0
  0
LINE
  8
OUTLINE
  6
CONTINUOUS
 62
     3
 10
121.9875370220002
 20
100.40158638940051
 30
0.0
 11
121.6161812057003
 21
100.08998186090059
 31
0.0
  0
LINE
  8
OUTLINE
  6
CONTINUOUS
 62
     3
 10
-60.0
 20
279.00000000000063
 30
0.0
 11
18.00591768510003
 21
279.00000000000063
 31
0.0
  0
LINE
  8
OUTLINE
  6
CONTINUOUS
 62
     3
 10
21.013243379300089
 20
279.00000000000063
 30
0.0
 11
47.672087699800159
 21
279.00000000000063
 31
0.0
  0
LINE
  8
OUTLINE
  6
CONTINUOUS
 62
     3
 10
50.718367535399921
 20
279.00000000000063
 30
0.0
 11
60.0
 21
279.00000000000063
 31
0.0
  0
LINE
  8
OUTLINE
  6
CONTINUOUS
 62
     3
 10
-60.0
 20
280.00000000000063
 30
0.0
 11
18.075844497000158
 21
280.00000000000063
 31
0.0
  0
LINE
  8
OUTLINE
  6
CONTINUOUS
 62
     3
 10
21.083170191300269
 20
280.00000000000063
 30
0.0
 11
47.848414680500348
 21
280.00000000000063
 31
0.0
  0
LINE
  8
OUTLINE
  6
CONTINUOUS
 62
     3
 10
50.894694516200161
 20
280.00000000000063
 30
0.0
 11
60.0
 21
280.00000000000063
 31
0.0
  0
LINE
  8
OUTLINE
  6
CONTINUOUS
 62
     3
 10
359.56653483260021
 20
253.60236006090059
 30
0.0
 11
260.02121632410041
 21
183.89997764770061
 31
0.0
  0
LINE
  8
OUTLINE
  6
CONTINUOUS
 62
     3
 10
257.56385002230041
 20
182.17931123910051
 30
0.0
 11
131.0033809996003
 21
93.560716790000612
 31
0.0
  0
LINE
  8
OUTLINE
  6
CONTINUOUS
 62
     3
 10
128.54619986290029
 20
91.840180035300506
 30
0.0
 11
128.1560823209002
 21
91.567016791700581
 31
0.0
  0
LINE
  8
OUTLINE
  6
CONTINUOUS
 62
     3
 10
361.28726414159968
 20
251.14490392800059
 30
0.0
 11
261.75536810839998
 21
181.45192003320051
 31
0.0
  0
LINE
  8
OUTLINE
  6
CONTINUOUS
 62
     3
 10
259.29778302469998
 20
179.7311004318006
 30
0.0
 11
132.7340610055999
 21
91.110228210100587
 31
0.0
  0
LINE
  8
OUTLINE
  6
CONTINUOUS
 62
     3
 10
130.27687986890029
 20
89.389691455500525
 30
0.0
 11
129.87681163000019
 21
89.109560658800575
 31
0.0
  0
LINE
  8
OUTLINE
  6
CONTINUOUS
 62
     3
 10
-60.0
 20
304.00000000000063
 30
0.0
 11
19.75408798370017
 21
304.00000000000063
 31
0.0
  0
LINE
  8
OUTLINE
  6
CONTINUOUS
 62
     3
 10
22.76141367790024
 20
304.00000000000063
 30
0.0
 11
52.080262217500149
 21
304.00000000000063
 31
0.0
  0
LINE
  8
OUTLINE
  6
CONTINUOUS
 62
     3
 10
55.126542053199962
 20
304.00000000000063
 30
0.0
 11
60.0
 21
304.00000000000063
 31
0.0
  0
LINE
  8
OUTLINE
  6
CONTINUOUS
 62
     3
 10
-60.0
 20
305.00000000000063
 30
0.0
 11
19.824014795600309
 21
305.00000000000063
 31
0.0
  0
LINE
  8
OUTLINE
  6
CONTINUOUS
 62
     3
 10
22.831340489899961
 20
305.00000000000063
 30
0.0
 11
52.256589198200338
 21
305.00000000000063
 31
0.0
  0
LINE
  8
OUTLINE
  6
CONTINUOUS
 62
     3
 10
55.302869033900613
 20
305.00000000000063
 30
0.0
 11
60.0
 21
305.00000000000063
 31
0.0
  0
LINE
  8
OUTLINE
  6
CONTINUOUS
 62
     3
 10
380.30117766510011
 20
221.29903810560049
 30
0.0
 11
275.05889239020053
 21
160.53737637200049
 31
0.0
  0
LINE
  8
OUTLINE
  6
CONTINUOUS
 62
     3
 10
272.46094312910009
 20
159.03744966680051
 30
0.0
 11
138.66571674800019
 21
81.790739699400461
 31
0.0
  0
LINE
  8
OUTLINE
  6
CONTINUOUS
 62
     3
 10
136.06794891840039
 20
80.290917743700589
 30
0.0
 11
135.64900109600009
 21
80.049038105600545
 31
0.0
  0
LINE
  8
OUTLINE
  6
CONTINUOUS
 62
     3
 10
381.80117766510011
 20
218.7009618943006
 30
0.0
 11
276.57233405900018
 21
157.94706071180059
 31
0.0
  0
LINE
  8
OUTLINE
  6
CONTINUOUS
 62
     3
 10
273.97438479790031
 20
156.44713400650051
 30
0.0
 11
140.16136362540061
 21
79.190150211500537
 31
0.0
  0
LINE
  8
OUTLINE
  6
CONTINUOUS
 62
     3
 10
137.56359579580021
 20
77.690328255800551
 30
0.0
 11
137.14900109600009
 21
77.450961894300605
 31
0.0
  0
LINE
  8
OUTLINE
  6
CONTINUOUS
 62
     3
 10
398.14149890350018
 20
187.3114968464005
 30
0.0
 11
288.0042717342003
 21
135.95366436940051
 31
0.0
  0
LINE
  8
OUTLINE
  6
CONTINUOUS
 62
     3
 10
285.28550387680019
 20
134.68588209680061
 30
0.0
 11
145.2726452020006
 21
69.396813856500472
 31
0.0
  0
LINE
  8
OUTLINE
  6
CONTINUOUS
 62
     3
 10
142.55329133430001
 20
68.128758322800564
 30
0.0
 11
142.10954906559979
 21
67.921837904700539
 31
0.0
  0
LINE
  8
OUTLINE
  6
CONTINUOUS
 62
     3
 10
399.40935368870032
 20
184.59257348530051
 30
0.0
 11
289.28076998570032
 21
133.2387715228005
 31
0.0
  0
LINE
  8
OUTLINE
  6
CONTINUOUS
 62
     3
 10
286.56200212830032
 20
131.9709892502006
 30
0.0
 11
146.52589121330041
 21
66.671078312300466
 31
0.0
  0
LINE
  8
OUTLINE
  6
CONTINUOUS
 62
     3
 10
143.80721995330029
 20
65.403341083700553
 30
0.0
 11
143.37740385080039
 21
65.202914543600542
 31
0.0
  0
LINE
  8
OUTLINE
  6
CONTINUOUS
 62
     3
 10
412.95172293080032
 20
151.8984019944005
 30
0.0
 11
298.75898034699998
 21
110.33564272470051
 31
0.0
  0
LINE
  8
OUTLINE
  6
CONTINUOUS
 62
     3
 10
295.94007598350032
 20
109.30964544320059
 30
0.0
 11
150.7582800867003
 21
56.467793179400502
 31
0.0
  0
LINE
  8
OUTLINE
  6
CONTINUOUS
 62
     3
 10
147.93909056170011
 20
55.441692107600517
 30
0.0
 11
147.48855755880049
 21
55.277711504900623
 31
0.0
  0
LINE
  8
OUTLINE
  6
CONTINUOUS
 62
     3
 10
413.97778336070041
 20
149.07932413210051
 30
0.0
 11
299.78837949860008
 21
107.5177800576006
 31
0.0
  0
LINE
  8
OUTLINE
  6
CONTINUOUS
 62
     3
 10
296.96947513510031
 20
106.49178277610061
 30
0.0
 11
151.7799013293002
 21
53.647099585000568
 31
0.0
  0
LINE
  8
OUTLINE
  6
CONTINUOUS
 62
     3
 10
148.96091923860061
 20
52.621074013100639
 30
0.0
 11
148.51461798870011
 21
52.458633642600518
 31
0.0
  0
CIRCLE
  8
OUTLINE
  6
CONTINUOUS
 62
     3
 10
-22.5
 20
176.5000000000006
 30
0.0
 40
2.5
  0
ARC
  8
OUTLINE
  6
CONTINUOUS
 62
     3
 10
0.0
 20
0.0000000000005969
 30
0.0
 40
444.5
 50
3.4999999999970899
 51
86.499999999990507
  0
ARC
  8
OUTLINE
  6
CONTINUOUS
 62
     3
 10
0.0
 20
0.0000000000005969
 30
0.0
 40
441.5
 50
3.4999999999970899
 51
86.499999999990507
  0
ARC
  8
OUTLINE
  6
CONTINUOUS
 62
     3
 10
0.000192008459635
 20
0.0000800237219494
 30
0.0
 40
318.49980764421002
 50
0.2499857551740099
 51
90.245325084167618
  0
ARC
  8
OUTLINE
  6
CONTINUOUS
 62
     3
 10
-0.0000000000004547
 20
0.0000000000001421
 30
0.0
 40
315.50000000000051
 50
0.2500000000045395
 51
90.249999999991559
  0
ARC
  8
OUTLINE
  6
CONTINUOUS
 62
     3
 10
0.0000000000004547
 20
0.0000000000008811
 30
0.0
 40
160.99999999999949
 50
0.5999999999935317
 51
90.600000000032722
  0
ARC
  8
OUTLINE
  6
CONTINUOUS
 62
     3
 10
-0.0000000000004547
 20
0.0000000000003695
 30
0.0
 40
158.00000000000031
 50
0.5999999999935317
 51
90.600000000032722
  0
CIRCLE
  8
OUTLINE
  6
CONTINUOUS
 62
     3
 10
22.5
 20
176.5000000000006
 30
0.0
 40
2.5
  0
CIRCLE
  8
OUTLINE
  6
CONTINUOUS
 62
     3
 10
-20.0
 20
292.00000000000063
 30
0.0
 40
3.0
  0
CIRCLE
  8
OUTLINE
  6
CONTINUOUS
 62
     3
 10
-40.0
 20
292.00000000000063
 30
0.0
 40
2.5
  0
CIRCLE
  8
OUTLINE
  6
CONTINUOUS
 62
     3
 10
40.0
 20
292.00000000000063
 30
0.0
 40
2.5
  0
ARC
  8
OUTLINE
  6
CONTINUOUS
 62
     3
 10
30.692848447400142
 20
438.92818211430051
 30
0.0
 40
1.5
 50
356.00000000000352
 51
176.0000000000035
  0
ARC
  8
OUTLINE
  6
CONTINUOUS
 62
     3
 10
76.405198173400095
 20
433.31541132530049
 30
0.0
 40
1.5
 50
349.99999999999289
 51
169.99999999999289
  0
ARC
  8
OUTLINE
  6
CONTINUOUS
 62
     3
 10
113.8803798450999
 20
425.00736356710053
 30
0.0
 40
1.5
 50
345.00000000000563
 51
165.0000000000056
  0
ARC
  8
OUTLINE
  6
CONTINUOUS
 62
     3
 10
150.48886306330041
 20
413.4647531458005
 30
0.0
 40
1.5
 50
340.00000000000313
 51
160.0000000000031
  0
ARC
  8
OUTLINE
  6
CONTINUOUS
 62
     3
 10
185.9520351659003
 20
398.77542629610048
 30
0.0
 40
1.5
 50
334.99999999999511
 51
154.99999999999659
  0
ARC
  8
OUTLINE
  6
CONTINUOUS
 62
     3
 10
438.9281821143004
 20
30.692848447400511
 30
0.0
 40
1.5
 50
274.00000000000949
 51
94.000000000009521
  0
ARC
  8
OUTLINE
  6
CONTINUOUS
 62
     3
 10
433.31541132530037
 20
76.405198173400464
 30
0.0
 40
1.5
 50
280.00000000000512
 51
100.000000000005
  0
ARC
  8
OUTLINE
  6
CONTINUOUS
 62
     3
 10
425.00736356709967
 20
113.88037984510051
 30
0.0
 40
1.5
 50
284.99999999999437
 51
104.9999999999945
  0
ARC
  8
OUTLINE
  6
CONTINUOUS
 62
     3
 10
413.46475314580039
 20
150.48886306330061
 30
0.0
 40
1.5
 50
289.99999999998983
 51
109.9999999999898
  0
ARC
  8
OUTLINE
  6
CONTINUOUS
 62
     3
 10
398.7754262961007
 20
185.9520351659005
 30
0.0
 40
1.5
 50
295.00000000000671
 51
115.00000000000669
  0
ARC
  8
OUTLINE
  6
CONTINUOUS
 62
     3
 10
381.05117766510011
 20
220.0000000000006
 30
0.0
 40
1.5
 50
299.99999999999972
 51
119.9999999999997
  0
ARC
  8
OUTLINE
  6
CONTINUOUS
 62
     3
 10
360.42689948709989
 20
252.37363199440051
 30
0.0
 40
1.5
 50
305.00000000001268
 51
125.0000000000127
  0
ARC
  8
OUTLINE
  6
CONTINUOUS
 62
     3
 10
220.0
 20
381.05117766510062
 30
0.0
 40
1.5
 50
330.00000000000688
 51
150.00000000000699
  0
ARC
  8
OUTLINE
  6
CONTINUOUS
 62
     3
 10
337.05955497230019
 20
282.82654826200047
 30
0.0
 40
1.5
 50
309.99999999998738
 51
129.99999999998741
  0
ARC
  8
OUTLINE
  6
CONTINUOUS
 62
     3
 10
252.37363199440011
 20
360.42689948710051
 30
0.0
 40
1.5
 50
325.00000000001143
 51
145.0000000000114
  0
ARC
  8
OUTLINE
  6
CONTINUOUS
 62
     3
 10
311.1269837220002
 20
311.12698372200049
 30
0.0
 40
1.5
 50
315.00000000000921
 51
135.00000000000921
  0
ARC
  8
OUTLINE
  6
CONTINUOUS
 62
     3
 10
282.82654826200002
 20
337.05955497230048
 30
0.0
 40
1.5
 50
319.99999999999858
 51
139.99999999999869
  0
LINE
  8
OUTLINE
  6
CONTINUOUS
 62
     3
 10
304.0
 20
60.000000000000597
 30
0.0
 11
305.0
 21
60.000000000000597
 31
0.0
  0
LINE
  8
OUTLINE
  6
CONTINUOUS
 62
     3
 10
304.0
 20
60.000000000000597
 30
0.0
 11
280.0
 21
60.000000000000597
 31
0.0
  0
LINE
  8
OUTLINE
  6
CONTINUOUS
 62
     3
 10
280.0
 20
60.000000000000597
 30
0.0
 11
279.0
 21
60.000000000000597
 31
0.0
  0
LINE
  8
OUTLINE
  6
CONTINUOUS
 62
     3
 10
188.5
 20
35.000000000000597
 30
0.0
 11
189.5
 21
35.000000000000597
 31
0.0
  0
LINE
  8
OUTLINE
  6
CONTINUOUS
 62
     3
 10
188.5
 20
35.000000000000597
 30
0.0
 11
164.5
 21
35.000000000000597
 31
0.0
  0
LINE
  8
OUTLINE
  6
CONTINUOUS
 62
     3
 10
164.5
 20
35.000000000000597
 30
0.0
 11
163.5
 21
35.000000000000597
 31
0.0
  0
LINE
  8
OUTLINE
  6
CONTINUOUS
 62
     3
 10
29.19650237199949
 20
-439.03281682489921
 30
0.0
 11
20.719733839999211
 21
-317.80937911320092
 31
0.0
  0
LINE
  8
OUTLINE
  6
CONTINUOUS
 62
     3
 10
20.510467677699129
 20
-314.81673356830049
 30
0.0
 11
12.23695569969914
 21
-196.4999999999994
 31
0.0
  0
LINE
  8
OUTLINE
  6
CONTINUOUS
 62
     3
 10
12.027175263900061
 20
-193.4999999999994
 30
0.0
 11
9.732679759599705
 21
-160.68718556469989
 31
0.0
  0
LINE
  8
OUTLINE
  6
CONTINUOUS
 62
     3
 10
9.523418206599672
 20
-157.6946059360001
 30
0.0
 11
9.4902985393000563
 21
-157.22097262650041
 31
0.0
  0
LINE
  8
OUTLINE
  6
CONTINUOUS
 62
     3
 10
32.18919452279988
 20
-438.82354740370039
 30
0.0
 11
23.712854614999738
 21
-317.60623930450072
 31
0.0
  0
LINE
  8
OUTLINE
  6
CONTINUOUS
 62
     3
 10
23.503581466299689
 20
-314.61349384850053
 30
0.0
 11
15.2442813939997
 21
-196.4999999999994
 31
0.0
  0
LINE
  8
OUTLINE
  6
CONTINUOUS
 62
     3
 10
15.03450095809967
 20
-193.4999999999994
 30
0.0
 11
12.725740215499171
 21
-160.4831831529003
 31
0.0
  0
LINE
  8
OUTLINE
  6
CONTINUOUS
 62
     3
 10
12.5164614523992
 20
-157.49035740770009
 30
0.0
 11
12.4829906899995
 21
-157.0117032052998
 31
0.0
  0
LINE
  8
OUTLINE
  6
CONTINUOUS
 62
     3
 10
26.952930204599401
 20
-440.67651350319949
 30
0.0
 11
27.136075823199459
 21
-443.67091789849962
 31
0.0
  0
LINE
  8
OUTLINE
  6
CONTINUOUS
 62
     3
 10
9.0
 20
-196.49469813640039
 30
0.0
 11
9.0
 21
-193.50530186350019
 31
0.0
  0
LINE
  8
OUTLINE
  6
CONTINUOUS
 62
     3
 10
440.6765135031992
 20
-26.952930204600619
 30
0.0
 11
443.67091789849928
 21
-27.136075823199771
 31
0.0
  0
LINE
  8
OUTLINE
  6
CONTINUOUS
 62
     3
 10
439.03281682489978
 20
-29.196502371999799
 30
0.0
 11
317.80937911319961
 21
-20.71973383999952
 31
0.0
  0
LINE
  8
OUTLINE
  6
CONTINUOUS
 62
     3
 10
314.81673356829918
 20
-20.510467677700351
 30
0.0
 11
160.6871855646996
 21
-9.7326797596000176
 31
0.0
  0
LINE
  8
OUTLINE
  6
CONTINUOUS
 62
     3
 10
157.69460593599979
 20
-9.5234182065999846
 30
0.0
 11
157.22097262649999
 21
-9.4902985392994594
 31
0.0
  0
LINE
  8
OUTLINE
  6
CONTINUOUS
 62
     3
 10
74.927986543899351
 20
-433.57588359179988
 30
0.0
 11
53.825777270399158
 21
-313.8993077851004
 31
0.0
  0
LINE
  8
OUTLINE
  6
CONTINUOUS
 62
     3
 10
53.304863114699401
 20
-310.94505680459991
 30
0.0
 11
33.125111791299787
 21
-196.4999999999994
 31
0.0
  0
LINE
  8
OUTLINE
  6
CONTINUOUS
 62
     3
 10
32.596130849199653
 20
-193.4999999999994
 30
0.0
 11
26.478827845999149
 21
-158.8070506927009
 31
0.0
  0
LINE
  8
OUTLINE
  6
CONTINUOUS
 62
     3
 10
25.957788560199329
 20
-155.8520900638008
 30
0.0
 11
25.872376352999709
 21
-155.36769336590021
 31
0.0
  0
LINE
  8
OUTLINE
  6
CONTINUOUS
 62
     3
 10
77.882409802899929
 20
-433.05493905879968
 30
0.0
 11
56.781661779199567
 21
-313.38665041170083
 31
0.0
  0
LINE
  8
OUTLINE
  6
CONTINUOUS
 62
     3
 10
56.260747623598952
 20
-310.43239943119931
 30
0.0
 11
36.171391626999139
 21
-196.4999999999994
 31
0.0
  0
LINE
  8
OUTLINE
  6
CONTINUOUS
 62
     3
 10
35.642410684898998
 20
-193.4999999999994
 30
0.0
 11
29.430114172198959
 21
-158.26831572950081
 31
0.0
  0
LINE
  8
OUTLINE
  6
CONTINUOUS
 62
     3
 10
28.909221460399749
 20
-155.31418636340041
 30
0.0
 11
28.82679961199938
 21
-154.8467488329
 31
0.0
  0
LINE
  8
OUTLINE
  6
CONTINUOUS
 62
     3
 10
39.0
 20
-196.49469813640039
 30
0.0
 11
39.0
 21
-193.50530186350019
 31
0.0
  0
LINE
  8
OUTLINE
  6
CONTINUOUS
 62
     3
 10
188.5
 20
-34.999999999999403
 30
0.0
 11
189.5
 21
-34.999999999999403
 31
0.0
  0
LINE
  8
OUTLINE
  6
CONTINUOUS
 62
     3
 10
188.5
 20
-34.999999999999403
 30
0.0
 11
164.5
 21
-34.999999999999403
 31
0.0
  0
LINE
  8
OUTLINE
  6
CONTINUOUS
 62
     3
 10
164.5
 20
-34.999999999999403
 30
0.0
 11
163.5
 21
-34.999999999999403
 31
0.0
  0
LINE
  8
OUTLINE
  6
CONTINUOUS
 62
     3
 10
438.82354740369919
 20
-32.189194522799284
 30
0.0
 11
317.60623930449952
 21
-23.712854615000051
 31
0.0
  0
LINE
  8
OUTLINE
  6
CONTINUOUS
 62
     3
 10
314.61349384849927
 20
-23.503581466300009
 30
0.0
 11
160.48318315290001
 21
-12.725740215500389
 31
0.0
  0
LINE
  8
OUTLINE
  6
CONTINUOUS
 62
     3
 10
157.4903574076998
 20
-12.516461452399509
 30
0.0
 11
157.01170320529951
 21
-12.482990690000721
 31
0.0
  0
LINE
  8
OUTLINE
  6
CONTINUOUS
 62
     3
 10
112.43149110559899
 20
-425.39559213479998
 30
0.0
 11
80.979558430599354
 21
-308.01538139539969
 31
0.0
  0
LINE
  8
OUTLINE
  6
CONTINUOUS
 62
     3
 10
80.203149371599466
 20
-305.11778333980089
 30
0.0
 11
40.216057158599142
 21
-155.8839235539993
 31
0.0
  0
LINE
  8
OUTLINE
  6
CONTINUOUS
 62
     3
 10
39.439555331899101
 20
-152.98597928449939
 30
0.0
 11
39.315110864199603
 21
-152.52154620809989
 31
0.0
  0
LINE
  8
OUTLINE
  6
CONTINUOUS
 62
     3
 10
115.329268584499
 20
-424.61913499949998
 30
0.0
 11
83.877965097299239
 21
-307.2412724208001
 31
0.0
  0
LINE
  8
OUTLINE
  6
CONTINUOUS
 62
     3
 10
83.10155603829935
 20
-304.34367436519949
 30
0.0
 11
43.112108481399453
 21
-155.10102431649949
 31
0.0
  0
LINE
  8
OUTLINE
  6
CONTINUOUS
 62
     3
 10
42.335687314099232
 20
-152.20338107209989
 30
0.0
 11
42.212888342999577
 21
-151.74508907279991
 31
0.0
  0
LINE
  8
OUTLINE
  6
CONTINUOUS
 62
     3
 10
304.0
 20
-59.999999999999403
 30
0.0
 11
305.0
 21
-59.999999999999403
 31
0.0
  0
LINE
  8
OUTLINE
  6
CONTINUOUS
 62
     3
 10
304.0
 20
-59.999999999999403
 30
0.0
 11
280.0
 21
-59.999999999999403
 31
0.0
  0
LINE
  8
OUTLINE
  6
CONTINUOUS
 62
     3
 10
280.0
 20
-59.999999999999403
 30
0.0
 11
279.0
 21
-59.999999999999403
 31
0.0
  0
LINE
  8
OUTLINE
  6
CONTINUOUS
 62
     3
 10
433.57588359179948
 20
-74.927986543899664
 30
0.0
 11
313.89930778509921
 21
-53.82577727039947
 31
0.0
  0
LINE
  8
OUTLINE
  6
CONTINUOUS
 62
     3
 10
310.94505680459952
 20
-53.304863114700623
 30
0.0
 11
158.8070506926997
 21
-26.478827845999461
 31
0.0
  0
LINE
  8
OUTLINE
  6
CONTINUOUS
 62
     3
 10
155.85209006379961
 20
-25.957788560200559
 30
0.0
 11
155.3676933658999
 21
-25.872376353000931
 31
0.0
  0
LINE
  8
OUTLINE
  6
CONTINUOUS
 62
     3
 10
433.05493905879939
 20
-77.882409802899332
 30
0.0
 11
313.38665041169952
 21
-56.781661779200789
 31
0.0
  0
LINE
  8
OUTLINE
  6
CONTINUOUS
 62
     3
 10
310.43239943119988
 20
-56.260747623600167
 30
0.0
 11
158.26831572949959
 21
-29.430114172200181
 31
0.0
  0
LINE
  8
OUTLINE
  6
CONTINUOUS
 62
     3
 10
155.3141863633991
 20
-28.909221460400062
 30
0.0
 11
154.84674883289969
 21
-28.826799612000599
 31
0.0
  0
LINE
  8
OUTLINE
  6
CONTINUOUS
 62
     3
 10
135.64900109599969
 20
-80.049038105600033
 30
0.0
 11
137.14900109599969
 21
-77.450961894300548
 31
0.0
  0
LINE
  8
OUTLINE
  6
CONTINUOUS
 62
     3
 10
128.15608232089929
 20
-91.567016791700865
 30
0.0
 11
129.87681162999979
 21
-89.10956065879995
 31
0.0
  0
LINE
  8
OUTLINE
  6
CONTINUOUS
 62
     3
 10
119.6878183766994
 20
-102.3881151903
 30
0.0
 11
121.6161812056998
 21
-100.0899818608999
 31
0.0
  0
LINE
  8
OUTLINE
  6
CONTINUOUS
 62
     3
 10
110.3086578651
 20
-112.42997820859939
 30
0.0
 11
112.42997820860001
 21
-110.30865786509941
 31
0.0
  0
LINE
  8
OUTLINE
  6
CONTINUOUS
 62
     3
 10
100.0899818608996
 20
-121.6161812057001
 30
0.0
 11
102.3881151902997
 21
-119.6878183766997
 31
0.0
  0
LINE
  8
OUTLINE
  6
CONTINUOUS
 62
     3
 10
425.3955921347997
 20
-112.4314911056002
 30
0.0
 11
308.01538139539929
 21
-80.979558430600576
 31
0.0
  0
LINE
  8
OUTLINE
  6
CONTINUOUS
 62
     3
 10
305.11778333979959
 20
-80.203149371599778
 30
0.0
 11
155.88392355399989
 21
-40.216057158600357
 31
0.0
  0
LINE
  8
OUTLINE
  6
CONTINUOUS
 62
     3
 10
152.98597928449999
 20
-39.439555331900323
 30
0.0
 11
152.52154620809961
 21
-39.315110864200818
 31
0.0
  0
LINE
  8
OUTLINE
  6
CONTINUOUS
 62
     3
 10
424.61913499949969
 20
-115.3292685845002
 30
0.0
 11
307.24127242079982
 21
-83.877965097300461
 31
0.0
  0
LINE
  8
OUTLINE
  6
CONTINUOUS
 62
     3
 10
304.34367436519909
 20
-83.101556038299663
 30
0.0
 11
155.10102431649921
 21
-43.112108481399758
 31
0.0
  0
LINE
  8
OUTLINE
  6
CONTINUOUS
 62
     3
 10
152.20338107209949
 20
-42.335687314199589
 30
0.0
 11
151.7450890727996
 21
-42.212888343000799
 31
0.0
  0
LINE
  8
OUTLINE
  6
CONTINUOUS
 62
     3
 10
147.48855755869951
 20
-55.277711504900573
 30
0.0
 11
148.51461798869971
 21
-52.458633642599438
 31
0.0
  0
LINE
  8
OUTLINE
  6
CONTINUOUS
 62
     3
 10
142.10954906559979
 20
-67.921837904700027
 30
0.0
 11
143.37740385079999
 21
-65.202914543600258
 31
0.0
  0
LINE
  8
OUTLINE
  6
CONTINUOUS
 62
     3
 10
89.109560658799637
 20
-129.87681163000011
 30
0.0
 11
91.567016791699643
 21
-128.1560823208996
 31
0.0
  0
LINE
  8
OUTLINE
  6
CONTINUOUS
 62
     3
 10
77.450961894299326
 20
-137.14900109600001
 30
0.0
 11
80.04903810559972
 21
-135.64900109600001
 31
0.0
  0
LINE
  8
OUTLINE
  6
CONTINUOUS
 62
     3
 10
65.202914543599036
 20
-143.37740385080031
 30
0.0
 11
67.921837904699714
 21
-142.10954906560011
 31
0.0
  0
LINE
  8
OUTLINE
  6
CONTINUOUS
 62
     3
 10
413.9777833606995
 20
-149.07932413210011
 30
0.0
 11
299.78837949859923
 21
-107.51778005759969
 31
0.0
  0
LINE
  8
OUTLINE
  6
CONTINUOUS
 62
     3
 10
296.96947513509991
 20
-106.4917827760995
 30
0.0
 11
151.77990132929969
 21
-53.647099585000753
 31
0.0
  0
LINE
  8
OUTLINE
  6
CONTINUOUS
 62
     3
 10
148.9609192385997
 20
-52.621074013100348
 30
0.0
 11
148.51461798869971
 21
-52.458633642599438
 31
0.0
  0
LINE
  8
OUTLINE
  6
CONTINUOUS
 62
     3
 10
412.95172293079941
 20
-151.89840199439939
 30
0.0
 11
298.75898034699912
 21
-110.3356427246993
 31
0.0
  0
LINE
  8
OUTLINE
  6
CONTINUOUS
 62
     3
 10
295.94007598349981
 20
-109.3096454432001
 30
0.0
 11
150.75828008669939
 21
-56.467793179400672
 31
0.0
  0
LINE
  8
OUTLINE
  6
CONTINUOUS
 62
     3
 10
147.9390905616992
 20
-55.441692107600232
 30
0.0
 11
147.48855755869951
 21
-55.277711504900573
 31
0.0
  0
LINE
  8
OUTLINE
  6
CONTINUOUS
 62
     3
 10
154.84674883289969
 20
-28.826799612000599
 30
0.0
 11
155.3676933658999
 21
-25.872376353000931
 31
0.0
  0
LINE
  8
OUTLINE
  6
CONTINUOUS
 62
     3
 10
151.7450890727996
 20
-42.212888343000799
 30
0.0
 11
152.52154620809961
 21
-39.315110864200818
 31
0.0
  0
LINE
  8
OUTLINE
  6
CONTINUOUS
 62
     3
 10
52.458633642599118
 20
-148.5146179887
 30
0.0
 11
55.277711504899337
 21
-147.48855755880081
 31
0.0
  0
LINE
  8
OUTLINE
  6
CONTINUOUS
 62
     3
 10
399.40935368869941
 20
-184.59257348530019
 30
0.0
 11
289.28076998569941
 21
-133.23877152279999
 31
0.0
  0
LINE
  8
OUTLINE
  6
CONTINUOUS
 62
     3
 10
286.56200212829941
 20
-131.97098925020089
 30
0.0
 11
146.5258912132995
 21
-66.671078312300182
 31
0.0
  0
LINE
  8
OUTLINE
  6
CONTINUOUS
 62
     3
 10
143.80721995329989
 20
-65.403341083699473
 30
0.0
 11
143.37740385079999
 21
-65.202914543600258
 31
0.0
  0
LINE
  8
OUTLINE
  6
CONTINUOUS
 62
     3
 10
398.14149890349933
 20
-187.3114968464009
 30
0.0
 11
288.00427173419939
 21
-135.95366436940029
 31
0.0
  0
LINE
  8
OUTLINE
  6
CONTINUOUS
 62
     3
 10
285.28550387679928
 20
-134.6858820968003
 30
0.0
 11
145.27264520199969
 21
-69.396813856499961
 31
0.0
  0
LINE
  8
OUTLINE
  6
CONTINUOUS
 62
     3
 10
142.5532913342995
 20
-68.128758322799825
 30
0.0
 11
142.10954906559979
 21
-67.921837904700027
 31
0.0
  0
LINE
  8
OUTLINE
  6
CONTINUOUS
 62
     3
 10
157.01170320529951
 20
-12.482990690000721
 30
0.0
 11
157.22097262649999
 21
-9.4902985392994594
 31
0.0
  0
LINE
  8
OUTLINE
  6
CONTINUOUS
 62
     3
 10
39.315110864199603
 20
-152.52154620809989
 30
0.0
 11
42.212888342999577
 21
-151.74508907279991
 31
0.0
  0
LINE
  8
OUTLINE
  6
CONTINUOUS
 62
     3
 10
25.872376352999709
 20
-155.36769336590021
 30
0.0
 11
28.82679961199938
 21
-154.8467488329
 31
0.0
  0
LINE
  8
OUTLINE
  6
CONTINUOUS
 62
     3
 10
9.4902985393000563
 20
-157.22097262650041
 30
0.0
 11
12.4829906899995
 21
-157.0117032052998
 31
0.0
  0
LINE
  8
OUTLINE
  6
CONTINUOUS
 62
     3
 10
381.8011776650992
 20
-218.70096189430049
 30
0.0
 11
276.57233405899927
 21
-157.94706071179951
 31
0.0
  0
LINE
  8
OUTLINE
  6
CONTINUOUS
 62
     3
 10
273.9743847978998
 20
-156.44713400650051
 30
0.0
 11
140.16136362539959
 21
-79.190150211500026
 31
0.0
  0
LINE
  8
OUTLINE
  6
CONTINUOUS
 62
     3
 10
137.5635957957993
 20
-77.690328255800836
 30
0.0
 11
137.14900109599969
 21
-77.450961894300548
 31
0.0
  0
LINE
  8
OUTLINE
  6
CONTINUOUS
 62
     3
 10
380.3011776650992
 20
-221.2990381056
 30
0.0
 11
275.05889239019962
 21
-160.5373763719993
 31
0.0
  0
LINE
  8
OUTLINE
  6
CONTINUOUS
 62
     3
 10
272.46094312909918
 20
-159.0374496668004
 30
0.0
 11
138.6657167479998
 21
-81.79073969939995
 31
0.0
  0
LINE
  8
OUTLINE
  6
CONTINUOUS
 62
     3
 10
136.06794891839951
 20
-80.29091774369985
 30
0.0
 11
135.64900109599969
 21
-80.049038105600033
 31
0.0
  0
LINE
  8
OUTLINE
  6
CONTINUOUS
 62
     3
 10
163.5
 20
35.000000000000597
 30
0.0
 11
163.5
 21
-9.9293709055994839
 31
0.0
  0
LINE
  8
OUTLINE
  6
CONTINUOUS
 62
     3
 10
163.5
 20
-12.936696599799999
 30
0.0
 11
163.5
 21
-27.306321428000359
 31
0.0
  0
LINE
  8
OUTLINE
  6
CONTINUOUS
 62
     3
 10
163.5
 20
-30.35260126360058
 30
0.0
 11
163.5
 21
-34.999999999999403
 31
0.0
  0
LINE
  8
OUTLINE
  6
CONTINUOUS
 62
     3
 10
164.5
 20
35.000000000000597
 30
0.0
 11
164.5
 21
-9.9992977175000703
 31
0.0
  0
LINE
  8
OUTLINE
  6
CONTINUOUS
 62
     3
 10
164.5
 20
-13.006623411799721
 30
0.0
 11
164.5
 21
-27.482648408700101
 31
0.0
  0
LINE
  8
OUTLINE
  6
CONTINUOUS
 62
     3
 10
164.5
 20
-30.528928244300321
 30
0.0
 11
164.5
 21
-34.999999999999403
 31
0.0
  0
LINE
  8
OUTLINE
  6
CONTINUOUS
 62
     3
 10
361.28726414159968
 20
-251.14490392800079
 30
0.0
 11
261.75536810839913
 21
-181.4519200332
 31
0.0
  0
LINE
  8
OUTLINE
  6
CONTINUOUS
 62
     3
 10
259.29778302469907
 20
-179.73110043179929
 30
0.0
 11
132.7340610055999
 21
-91.110228210099507
 31
0.0
  0
LINE
  8
OUTLINE
  6
CONTINUOUS
 62
     3
 10
130.27687986889941
 20
-89.389691455500127
 30
0.0
 11
129.87681162999979
 21
-89.10956065879995
 31
0.0
  0
LINE
  8
OUTLINE
  6
CONTINUOUS
 62
     3
 10
359.56653483259919
 20
-253.60236006089991
 30
0.0
 11
260.02121632409938
 21
-183.89997764770061
 31
0.0
  0
LINE
  8
OUTLINE
  6
CONTINUOUS
 62
     3
 10
257.56385002229939
 20
-182.1793112391
 30
0.0
 11
131.00338099959939
 21
-93.5607167900001
 31
0.0
  0
LINE
  8
OUTLINE
  6
CONTINUOUS
 62
     3
 10
128.54619986289981
 20
-91.840180035299767
 30
0.0
 11
128.15608232089929
 21
-91.567016791700865
 31
0.0
  0
LINE
  8
OUTLINE
  6
CONTINUOUS
 62
     3
 10
188.5
 20
35.000000000000597
 30
0.0
 11
188.5
 21
-11.677541204200081
 31
0.0
  0
LINE
  8
OUTLINE
  6
CONTINUOUS
 62
     3
 10
188.5
 20
-14.68486689839969
 30
0.0
 11
188.5
 21
-31.71449594569944
 31
0.0
  0
LINE
  8
OUTLINE
  6
CONTINUOUS
 62
     3
 10
188.5
 20
-34.760775781299657
 30
0.0
 11
188.5
 21
-34.999999999999403
 31
0.0
  0
LINE
  8
OUTLINE
  6
CONTINUOUS
 62
     3
 10
189.5
 20
35.000000000000597
 30
0.0
 11
189.5
 21
-11.747468016100671
 31
0.0
  0
LINE
  8
OUTLINE
  6
CONTINUOUS
 62
     3
 10
189.5
 20
-14.754793710400319
 30
0.0
 11
189.5
 21
-31.890822926400091
 31
0.0
  0
LINE
  8
OUTLINE
  6
CONTINUOUS
 62
     3
 10
189.5
 20
-34.937102761999398
 30
0.0
 11
189.5
 21
-34.999999999999403
 31
0.0
  0
LINE
  8
OUTLINE
  6
CONTINUOUS
 62
     3
 10
39.0
 20
-193.4999999999994
 30
0.0
 11
9.0
 21
-193.4999999999994
 31
0.0
  0
LINE
  8
OUTLINE
  6
CONTINUOUS
 62
     3
 10
338.02373638680001
 20
-281.67748159739978
 30
0.0
 11
244.94013860369981
 21
-203.5710690288
 31
0.0
  0
LINE
  8
OUTLINE
  6
CONTINUOUS
 62
     3
 10
242.64194955249971
 20
-201.64265944360011
 30
0.0
 11
124.2859119488994
 21
-102.3301519427999
 31
0.0
  0
LINE
  8
OUTLINE
  6
CONTINUOUS
 62
     3
 10
121.9875370219997
 20
-100.4015863893995
 30
0.0
 11
121.6161812056998
 21
-100.0899818608999
 31
0.0
  0
LINE
  8
OUTLINE
  6
CONTINUOUS
 62
     3
 10
336.09537355779958
 20
-283.97561492670081
 30
0.0
 11
243.0054997324996
 21
-205.8639361336003
 31
0.0
  0
LINE
  8
OUTLINE
  6
CONTINUOUS
 62
     3
 10
240.70741297919989
 20
-203.93561238639941
 30
0.0
 11
122.3488209081997
 21
-104.62096143299949
 31
0.0
  0
LINE
  8
OUTLINE
  6
CONTINUOUS
 62
     3
 10
120.0508538247996
 20
-102.6927381009003
 30
0.0
 11
119.6878183766994
 21
-102.3881151903
 31
0.0
  0
LINE
  8
OUTLINE
  6
CONTINUOUS
 62
     3
 10
39.0
 20
-196.4999999999994
 30
0.0
 11
9.0
 21
-196.4999999999994
 31
0.0
  0
LINE
  8
OUTLINE
  6
CONTINUOUS
 62
     3
 10
312.18764389379982
 20
-310.06632355030013
 30
0.0
 11
226.26233502359989
 21
-224.14101468000021
 31
0.0
  0
LINE
  8
OUTLINE
  6
CONTINUOUS
 62
     3
 10
224.1410146799999
 20
-222.01969433640019
 30
0.0
 11
114.88841195959959
 21
-112.7670916159999
 31
0.0
  0
LINE
  8
OUTLINE
  6
CONTINUOUS
 62
     3
 10
112.7670916159996
 20
-110.6457712723999
 30
0.0
 11
112.42997820860001
 21
-110.30865786509941
 31
0.0
  0
LINE
  8
OUTLINE
  6
CONTINUOUS
 62
     3
 10
310.06632355029978
 20
-312.1876438938001
 30
0.0
 11
224.1410146799999
 21
-226.2623350236002
 31
0.0
  0
LINE
  8
OUTLINE
  6
CONTINUOUS
 62
     3
 10
222.01969433639991
 20
-224.14101468000021
 30
0.0
 11
112.7670916159996
 21
-114.88841195959991
 31
0.0
  0
LINE
  8
OUTLINE
  6
CONTINUOUS
 62
     3
 10
110.6457712723995
 20
-112.7670916159999
 30
0.0
 11
110.3086578651
 21
-112.42997820859939
 31
0.0
  0
LINE
  8
OUTLINE
  6
CONTINUOUS
 62
     3
 10
283.97561492669962
 20
-336.09537355779992
 30
0.0
 11
205.86393613359999
 21
-243.00549973249991
 31
0.0
  0
LINE
  8
OUTLINE
  6
CONTINUOUS
 62
     3
 10
203.93561238640001
 20
-240.70741297919929
 30
0.0
 11
104.6209614329991
 21
-122.3488209082001
 31
0.0
  0
LINE
  8
OUTLINE
  6
CONTINUOUS
 62
     3
 10
102.69273810089911
 20
-120.0508538248008
 30
0.0
 11
102.3881151902997
 21
-119.6878183766997
 31
0.0
  0
LINE
  8
OUTLINE
  6
CONTINUOUS
 62
     3
 10
281.67748159739949
 20
-338.02373638679938
 30
0.0
 11
203.57106902879971
 21
-244.94013860370009
 31
0.0
  0
LINE
  8
OUTLINE
  6
CONTINUOUS
 62
     3
 10
201.6426594435998
 20
-242.64194955249999
 30
0.0
 11
102.3301519427996
 21
-124.2859119488997
 31
0.0
  0
LINE
  8
OUTLINE
  6
CONTINUOUS
 62
     3
 10
100.4015863893992
 20
-121.9875370220001
 30
0.0
 11
100.0899818608996
 21
-121.6161812057001
 31
0.0
  0
LINE
  8
OUTLINE
  6
CONTINUOUS
 62
     3
 10
279.0
 20
60.000000000000597
 30
0.0
 11
279.0
 21
-18.005917685100339
 31
0.0
  0
LINE
  8
OUTLINE
  6
CONTINUOUS
 62
     3
 10
279.0
 20
-21.013243379299951
 30
0.0
 11
279.0
 21
-47.672087699800016
 31
0.0
  0
LINE
  8
OUTLINE
  6
CONTINUOUS
 62
     3
 10
279.0
 20
-50.718367535400233
 30
0.0
 11
279.0
 21
-59.999999999999403
 31
0.0
  0
LINE
  8
OUTLINE
  6
CONTINUOUS
 62
     3
 10
280.0
 20
60.000000000000597
 30
0.0
 11
280.0
 21
-18.07584449700002
 31
0.0
  0
LINE
  8
OUTLINE
  6
CONTINUOUS
 62
     3
 10
280.0
 20
-21.083170191300582
 30
0.0
 11
280.0
 21
-47.848414680499758
 31
0.0
  0
LINE
  8
OUTLINE
  6
CONTINUOUS
 62
     3
 10
280.0
 20
-50.894694516200019
 30
0.0
 11
280.0
 21
-59.999999999999403
 31
0.0
  0
LINE
  8
OUTLINE
  6
CONTINUOUS
 62
     3
 10
253.6023600608996
 20
-359.56653483259959
 30
0.0
 11
183.89997764769939
 21
-260.02121632410069
 31
0.0
  0
LINE
  8
OUTLINE
  6
CONTINUOUS
 62
     3
 10
182.17931123909969
 20
-257.5638500223007
 30
0.0
 11
93.560716789999788
 21
-131.0033809995997
 31
0.0
  0
LINE
  8
OUTLINE
  6
CONTINUOUS
 62
     3
 10
91.840180035299454
 20
-128.5461998629001
 30
0.0
 11
91.567016791699643
 21
-128.1560823208996
 31
0.0
  0
LINE
  8
OUTLINE
  6
CONTINUOUS
 62
     3
 10
251.14490392799959
 20
-361.28726414160008
 30
0.0
 11
181.45192003319971
 21
-261.75536810840038
 31
0.0
  0
LINE
  8
OUTLINE
  6
CONTINUOUS
 62
     3
 10
179.73110043179989
 20
-259.29778302469953
 30
0.0
 11
91.110228210099194
 21
-132.7340610055993
 31
0.0
  0
LINE
  8
OUTLINE
  6
CONTINUOUS
 62
     3
 10
89.389691455499815
 20
-130.27687986890061
 30
0.0
 11
89.109560658799637
 21
-129.87681163000011
 31
0.0
  0
LINE
  8
OUTLINE
  6
CONTINUOUS
 62
     3
 10
304.0
 20
60.000000000000597
 30
0.0
 11
304.0
 21
-19.754087983700028
 31
0.0
  0
LINE
  8
OUTLINE
  6
CONTINUOUS
 62
     3
 10
304.0
 20
-22.761413677900549
 30
0.0
 11
304.0
 21
-52.080262217500007
 31
0.0
  0
LINE
  8
OUTLINE
  6
CONTINUOUS
 62
     3
 10
304.0
 20
-55.126542053199358
 30
0.0
 11
304.0
 21
-59.999999999999403
 31
0.0
  0
LINE
  8
OUTLINE
  6
CONTINUOUS
 62
     3
 10
305.0
 20
60.000000000000597
 30
0.0
 11
305.0
 21
-19.824014795599709
 31
0.0
  0
LINE
  8
OUTLINE
  6
CONTINUOUS
 62
     3
 10
305.0
 20
-22.831340489899361
 30
0.0
 11
305.0
 21
-52.256589198200658
 31
0.0
  0
LINE
  8
OUTLINE
  6
CONTINUOUS
 62
     3
 10
305.0
 20
-55.302869033900919
 30
0.0
 11
305.0
 21
-59.999999999999403
 31
0.0
  0
LINE
  8
OUTLINE
  6
CONTINUOUS
 62
     3
 10
221.29903810559969
 20
-380.30117766509949
 30
0.0
 11
160.5373763719999
 21
-275.05889239020092
 31
0.0
  0
LINE
  8
OUTLINE
  6
CONTINUOUS
 62
     3
 10
159.03744966679909
 20
-272.46094312910037
 30
0.0
 11
81.790739699399637
 21
-138.66571674800011
 31
0.0
  0
LINE
  8
OUTLINE
  6
CONTINUOUS
 62
     3
 10
80.290917743699538
 20
-136.06794891839979
 30
0.0
 11
80.04903810559972
 21
-135.64900109600001
 31
0.0
  0
LINE
  8
OUTLINE
  6
CONTINUOUS
 62
     3
 10
218.7009618942993
 20
-381.80117766509949
 30
0.0
 11
157.9470607117992
 21
-276.57233405900058
 31
0.0
  0
LINE
  8
OUTLINE
  6
CONTINUOUS
 62
     3
 10
156.44713400649931
 20
-273.97438479790009
 30
0.0
 11
79.190150211499713
 21
-140.16136362540001
 31
0.0
  0
LINE
  8
OUTLINE
  6
CONTINUOUS
 62
     3
 10
77.690328255799614
 20
-137.56359579579961
 30
0.0
 11
77.450961894299326
 21
-137.14900109600001
 31
0.0
  0
LINE
  8
OUTLINE
  6
CONTINUOUS
 62
     3
 10
187.31149684639971
 20
-398.14149890349961
 30
0.0
 11
135.95366436939909
 21
-288.00427173419968
 31
0.0
  0
LINE
  8
OUTLINE
  6
CONTINUOUS
 62
     3
 10
134.68588209679911
 20
-285.28550387680059
 30
0.0
 11
69.396813856499648
 21
-145.27264520200089
 31
0.0
  0
LINE
  8
OUTLINE
  6
CONTINUOUS
 62
     3
 10
68.128758322799513
 20
-142.55329133429979
 30
0.0
 11
67.921837904699714
 21
-142.10954906560011
 31
0.0
  0
LINE
  8
OUTLINE
  6
CONTINUOUS
 62
     3
 10
184.592573485299
 20
-399.40935368870072
 30
0.0
 11
133.23877152279971
 21
-289.28076998569969
 31
0.0
  0
LINE
  8
OUTLINE
  6
CONTINUOUS
 62
     3
 10
131.97098925019961
 20
-286.56200212830061
 30
0.0
 11
66.671078312299869
 21
-146.5258912133007
 31
0.0
  0
LINE
  8
OUTLINE
  6
CONTINUOUS
 62
     3
 10
65.403341083699161
 20
-143.8072199533002
 30
0.0
 11
65.202914543599036
 21
-143.37740385080031
 31
0.0
  0
LINE
  8
OUTLINE
  6
CONTINUOUS
 62
     3
 10
151.89840199439911
 20
-412.95172293079969
 30
0.0
 11
110.33564272469989
 21
-298.75898034699952
 31
0.0
  0
LINE
  8
OUTLINE
  6
CONTINUOUS
 62
     3
 10
109.3096454431998
 20
-295.94007598350021
 30
0.0
 11
56.46779317939945
 21
-150.7582800866997
 31
0.0
  0
LINE
  8
OUTLINE
  6
CONTINUOUS
 62
     3
 10
55.44169210759901
 20
-147.93909056169949
 30
0.0
 11
55.277711504899337
 21
-147.48855755880081
 31
0.0
  0
LINE
  8
OUTLINE
  6
CONTINUOUS
 62
     3
 10
149.0793241320998
 20
-413.97778336069979
 30
0.0
 11
107.5177800575993
 21
-299.78837949860042
 31
0.0
  0
LINE
  8
OUTLINE
  6
CONTINUOUS
 62
     3
 10
106.4917827760992
 20
-296.9694751351002
 30
0.0
 11
53.647099584999523
 21
-151.7799013293
 31
0.0
  0
LINE
  8
OUTLINE
  6
CONTINUOUS
 62
     3
 10
52.621074013099133
 20
-148.96091923860089
 30
0.0
 11
52.458633642599118
 21
-148.5146179887
 31
0.0
  0
CIRCLE
  8
OUTLINE
  6
CONTINUOUS
 62
     3
 10
176.5
 20
22.5000000000006
 30
0.0
 40
2.5
  0
ARC
  8
OUTLINE
  6
CONTINUOUS
 62
     3
 10
0.0
 20
0.0000000000005969
 30
0.0
 40
444.5
 50
273.4999999999834
 51
356.49999999998988
  0
ARC
  8
OUTLINE
  6
CONTINUOUS
 62
     3
 10
0.0
 20
0.0000000000005969
 30
0.0
 40
441.5
 50
273.4999999999834
 51
356.49999999998988
  0
ARC
  8
OUTLINE
  6
CONTINUOUS
 62
     3
 10
-0.000000000003638
 20
0.0000000000035527
 30
0.0
 40
318.50000000000358
 50
269.75000000000841
 51
0.2500000000045395
  0
ARC
  8
OUTLINE
  6
CONTINUOUS
 62
     3
 10
0.0000000000013642
 20
0.0000000000000284
 30
0.0
 40
315.49999999999801
 50
269.75000000000841
 51
0.2500000000045395
  0
ARC
  8
OUTLINE
  6
CONTINUOUS
 62
     3
 10
-0.0000000000004547
 20
0.0000000000011653
 30
0.0
 40
160.9999999999996
 50
269.39999999996718
 51
0.5999999999935317
  0
ARC
  8
OUTLINE
  6
CONTINUOUS
 62
     3
 10
-0.0000000000004547
 20
0.0000000000010516
 30
0.0
 40
158.00000000000031
 50
269.39999999996718
 51
0.5999999999935317
  0
CIRCLE
  8
OUTLINE
  6
CONTINUOUS
 62
     3
 10
176.5
 20
-22.4999999999994
 30
0.0
 40
2.5
  0
CIRCLE
  8
OUTLINE
  6
CONTINUOUS
 62
     3
 10
292.0
 20
20.0000000000006
 30
0.0
 40
3.0
  0
CIRCLE
  8
OUTLINE
  6
CONTINUOUS
 62
     3
 10
292.0
 20
40.000000000000597
 30
0.0
 40
2.5
  0
CIRCLE
  8
OUTLINE
  6
CONTINUOUS
 62
     3
 10
292.0
 20
-39.999999999999403
 30
0.0
 40
2.5
  0
ARC
  8
OUTLINE
  6
CONTINUOUS
 62
     3
 10
438.92818211429949
 20
-30.692848447400451
 30
0.0
 40
1.5
 50
266.0000000000166
 51
86.000000000016598
  0
ARC
  8
OUTLINE
  6
CONTINUOUS
 62
     3
 10
433.31541132529952
 20
-76.405198173400407
 30
0.0
 40
1.5
 50
259.99999999999488
 51
79.999999999994984
  0
ARC
  8
OUTLINE
  6
CONTINUOUS
 62
     3
 10
425.00736356709967
 20
-113.88037984510019
 30
0.0
 40
1.5
 50
255.0000000000056
 51
75.000000000005542
  0
ARC
  8
OUTLINE
  6
CONTINUOUS
 62
     3
 10
413.46475314579948
 20
-150.4888630633007
 30
0.0
 40
1.5
 50
250.0000000000102
 51
70.000000000010203
  0
ARC
  8
OUTLINE
  6
CONTINUOUS
 62
     3
 10
398.77542629609979
 20
-185.95203516590061
 30
0.0
 40
1.5
 50
245.0000000000218
 51
65.000000000021814
  0
ARC
  8
OUTLINE
  6
CONTINUOUS
 62
     3
 10
30.692848447399228
 20
-438.92818211430068
 30
0.0
 40
1.5
 50
184.00000000000949
 51
4.0000000000095079
  0
ARC
  8
OUTLINE
  6
CONTINUOUS
 62
     3
 10
76.405198173399185
 20
-433.31541132529981
 30
0.0
 40
1.5
 50
190.00000000000711
 51
10.0000000000071
  0
ARC
  8
OUTLINE
  6
CONTINUOUS
 62
     3
 10
113.880379845099
 20
-425.00736356709911
 30
0.0
 40
1.5
 50
194.9999999999944
 51
14.999999999994451
  0
ARC
  8
OUTLINE
  6
CONTINUOUS
 62
     3
 10
150.4888630632995
 20
-413.46475314580073
 30
0.0
 40
1.5
 50
199.9999999999969
 51
19.999999999996891
  0
ARC
  8
OUTLINE
  6
CONTINUOUS
 62
     3
 10
185.95203516589939
 20
-398.77542629610008
 30
0.0
 40
1.5
 50
205.00000000000341
 51
25.000000000003379
  0
ARC
  8
OUTLINE
  6
CONTINUOUS
 62
     3
 10
220.0
 20
-381.05117766509949
 30
0.0
 40
1.5
 50
210.00000000000571
 51
30.000000000005748
  0
ARC
  8
OUTLINE
  6
CONTINUOUS
 62
     3
 10
252.37363199439909
 20
-360.42689948709938
 30
0.0
 40
1.5
 50
215.0000000000195
 51
35.000000000019512
  0
ARC
  8
OUTLINE
  6
CONTINUOUS
 62
     3
 10
381.0511776650992
 20
-219.9999999999994
 30
0.0
 40
1.5
 50
240.0000000000002
 51
60.000000000000277
  0
ARC
  8
OUTLINE
  6
CONTINUOUS
 62
     3
 10
282.82654826199911
 20
-337.05955497229968
 30
0.0
 40
1.5
 50
219.99999999996089
 51
39.999999999960892
  0
ARC
  8
OUTLINE
  6
CONTINUOUS
 62
     3
 10
360.42689948709989
 20
-252.37363199439949
 30
0.0
 40
1.5
 50
235.0000000000189
 51
55.000000000018908
  0
ARC
  8
OUTLINE
  6
CONTINUOUS
 62
     3
 10
311.12698372199969
 20
-311.12698372200009
 30
0.0
 40
1.5
 50
224.99999999999079
 51
44.999999999990777
  0
ARC
  8
OUTLINE
  6
CONTINUOUS
 62
     3
 10
337.05955497229928
 20
-282.8265482620003
 30
0.0
 40
1.5
 50
229.99999999997911
 51
49.99999999997906
  0
LINE
  8
OUTLINE
  6
CONTINUOUS
 62
     3
 10
60.0
 20
-303.99999999999932
 30
0.0
 11
60.0
 21
-304.99999999999932
 31
0.0
  0
LINE
  8
OUTLINE
  6
CONTINUOUS
 62
     3
 10
60.0
 20
-303.99999999999932
 30
0.0
 11
60.0
 21
-279.99999999999932
 31
0.0
  0
LINE
  8
OUTLINE
  6
CONTINUOUS
 62
     3
 10
60.0
 20
-279.99999999999932
 30
0.0
 11
60.0
 21
-278.99999999999932
 31
0.0
  0
LINE
  8
OUTLINE
  6
CONTINUOUS
 62
     3
 10
35.0
 20
-188.49999999999929
 30
0.0
 11
35.0
 21
-189.49999999999929
 31
0.0
  0
LINE
  8
OUTLINE
  6
CONTINUOUS
 62
     3
 10
35.0
 20
-188.49999999999929
 30
0.0
 11
35.0
 21
-164.49999999999929
 31
0.0
  0
LINE
  8
OUTLINE
  6
CONTINUOUS
 62
     3
 10
35.0
 20
-164.49999999999929
 30
0.0
 11
35.0
 21
-163.49999999999929
 31
0.0
  0
LINE
  8
OUTLINE
  6
CONTINUOUS
 62
     3
 10
-439.03281682489978
 20
-29.19650237199923
 30
0.0
 11
-317.80937911320052
 21
-20.719733839999289
 31
0.0
  0
LINE
  8
OUTLINE
  6
CONTINUOUS
 62
     3
 10
-314.81673356830021
 20
-20.510467677699321
 30
0.0
 11
-196.5
 21
-12.236955699699219
 31
0.0
  0
LINE
  8
OUTLINE
  6
CONTINUOUS
 62
     3
 10
-193.5
 20
-12.02717526389935
 30
0.0
 11
-160.68718556470051
 21
-9.7326797595992218
 31
0.0
  0
LINE
  8
OUTLINE
  6
CONTINUOUS
 62
     3
 10
-157.69460593599979
 20
-9.5234182065991888
 30
0.0
 11
-157.22097262649999
 21
-9.4902985392993457
 31
0.0
  0
LINE
  8
OUTLINE
  6
CONTINUOUS
 62
     3
 10
-438.8235474037001
 20
-32.189194522799284
 30
0.0
 11
-317.60623930450038
 21
-23.712854614999259
 31
0.0
  0
LINE
  8
OUTLINE
  6
CONTINUOUS
 62
     3
 10
-314.61349384850018
 20
-23.50358146629921
 30
0.0
 11
-196.5
 21
-15.24428139399922
 31
0.0
  0
LINE
  8
OUTLINE
  6
CONTINUOUS
 62
     3
 10
-193.5
 20
-15.034500958099191
 30
0.0
 11
-160.48318315290001
 21
-12.72574021549914
 31
0.0
  0
LINE
  8
OUTLINE
  6
CONTINUOUS
 62
     3
 10
-157.4903574076998
 20
-12.51646145239917
 30
0.0
 11
-157.01170320530039
 21
-12.482990689999241
 31
0.0
  0
LINE
  8
OUTLINE
  6
CONTINUOUS
 62
     3
 10
-440.67651350320011
 20
-26.952930204599259
 30
0.0
 11
-443.67091789850019
 21
-27.13607582319921
 31
0.0
  0
LINE
  8
OUTLINE
  6
CONTINUOUS
 62
     3
 10
-196.4946981364001
 20
-8.9999999999992895
 30
0.0
 11
-193.50530186349991
 21
-8.9999999999992895
 31
0.0
  0
LINE
  8
OUTLINE
  6
CONTINUOUS
 62
     3
 10
-26.95293020460031
 20
-440.67651350319949
 30
0.0
 11
-27.136075823200368
 21
-443.67091789849923
 31
0.0
  0
LINE
  8
OUTLINE
  6
CONTINUOUS
 62
     3
 10
-29.196502372000399
 20
-439.03281682489921
 30
0.0
 11
-20.719733840000121
 21
-317.80937911319938
 31
0.0
  0
LINE
  8
OUTLINE
  6
CONTINUOUS
 62
     3
 10
-20.510467677700031
 20
-314.81673356829918
 30
0.0
 11
-9.732679759599705
 21
-160.6871855646994
 31
0.0
  0
LINE
  8
OUTLINE
  6
CONTINUOUS
 62
     3
 10
-9.523418206599672
 20
-157.69460593599939
 30
0.0
 11
-9.4902985393000563
 21
-157.22097262649939
 31
0.0
  0
LINE
  8
OUTLINE
  6
CONTINUOUS
 62
     3
 10
-433.57588359180039
 20
-74.927986543899323
 30
0.0
 11
-313.89930778510012
 21
-53.825777270399129
 31
0.0
  0
LINE
  8
OUTLINE
  6
CONTINUOUS
 62
     3
 10
-310.94505680459952
 20
-53.304863114699153
 30
0.0
 11
-196.5
 21
-33.125111791299297
 31
0.0
  0
LINE
  8
OUTLINE
  6
CONTINUOUS
 62
     3
 10
-193.5
 20
-32.596130849199277
 30
0.0
 11
-158.80705069270061
 21
-26.478827845999231
 31
0.0
  0
LINE
  8
OUTLINE
  6
CONTINUOUS
 62
     3
 10
-155.85209006380049
 20
-25.957788560199301
 30
0.0
 11
-155.3676933658999
 21
-25.872376352999229
 31
0.0
  0
LINE
  8
OUTLINE
  6
CONTINUOUS
 62
     3
 10
-433.0549390588003
 20
-77.882409802899218
 30
0.0
 11
-313.38665041170037
 21
-56.781661779199311
 31
0.0
  0
LINE
  8
OUTLINE
  6
CONTINUOUS
 62
     3
 10
-310.43239943119988
 20
-56.260747623599137
 30
0.0
 11
-196.5
 21
-36.171391626999217
 31
0.0
  0
LINE
  8
OUTLINE
  6
CONTINUOUS
 62
     3
 10
-193.5
 20
-35.642410684899197
 30
0.0
 11
-158.2683157295005
 21
-29.430114172199151
 31
0.0
  0
LINE
  8
OUTLINE
  6
CONTINUOUS
 62
     3
 10
-155.31418636340001
 20
-28.909221460399269
 30
0.0
 11
-154.8467488329006
 21
-28.826799611999231
 31
0.0
  0
LINE
  8
OUTLINE
  6
CONTINUOUS
 62
     3
 10
-196.4946981364001
 20
-38.999999999999289
 30
0.0
 11
-193.50530186349991
 21
-38.999999999999289
 31
0.0
  0
LINE
  8
OUTLINE
  6
CONTINUOUS
 62
     3
 10
-35.0
 20
-188.49999999999929
 30
0.0
 11
-35.0
 21
-189.49999999999929
 31
0.0
  0
LINE
  8
OUTLINE
  6
CONTINUOUS
 62
     3
 10
-35.0
 20
-188.49999999999929
 30
0.0
 11
-35.0
 21
-164.49999999999929
 31
0.0
  0
LINE
  8
OUTLINE
  6
CONTINUOUS
 62
     3
 10
-35.0
 20
-164.49999999999929
 30
0.0
 11
-35.0
 21
-163.49999999999929
 31
0.0
  0
LINE
  8
OUTLINE
  6
CONTINUOUS
 62
     3
 10
-32.18919452279988
 20
-438.82354740369948
 30
0.0
 11
-23.712854614999738
 21
-317.60623930449918
 31
0.0
  0
LINE
  8
OUTLINE
  6
CONTINUOUS
 62
     3
 10
-23.503581466300599
 20
-314.61349384849927
 30
0.0
 11
-12.72574021550008
 21
-160.48318315289939
 31
0.0
  0
LINE
  8
OUTLINE
  6
CONTINUOUS
 62
     3
 10
-12.51646145240011
 20
-157.49035740769941
 30
0.0
 11
-12.48299069000041
 21
-157.01170320529931
 31
0.0
  0
LINE
  8
OUTLINE
  6
CONTINUOUS
 62
     3
 10
-425.39559213480061
 20
-112.43149110559921
 30
0.0
 11
-308.01538139540031
 21
-80.979558430599326
 31
0.0
  0
LINE
  8
OUTLINE
  6
CONTINUOUS
 62
     3
 10
-305.11778333980061
 20
-80.20314937159921
 30
0.0
 11
-155.88392355399989
 21
-40.216057158599227
 31
0.0
  0
LINE
  8
OUTLINE
  6
CONTINUOUS
 62
     3
 10
-152.98597928449999
 20
-39.4395553318993
 30
0.0
 11
-152.52154620809961
 21
-39.31511086419934
 31
0.0
  0
LINE
  8
OUTLINE
  6
CONTINUOUS
 62
     3
 10
-424.6191349995006
 20
-115.3292685844992
 30
0.0
 11
-307.24127242080073
 21
-83.87796509729921
 31
0.0
  0
LINE
  8
OUTLINE
  6
CONTINUOUS
 62
     3
 10
-304.34367436520012
 20
-83.101556038299321
 30
0.0
 11
-155.10102431650009
 21
-43.11210848139919
 31
0.0
  0
LINE
  8
OUTLINE
  6
CONTINUOUS
 62
     3
 10
-152.20338107210051
 20
-42.335687314099196
 30
0.0
 11
-151.7450890727996
 21
-42.212888342999207
 31
0.0
  0
LINE
  8
OUTLINE
  6
CONTINUOUS
 62
     3
 10
-60.0
 20
-303.99999999999932
 30
0.0
 11
-60.0
 21
-304.99999999999932
 31
0.0
  0
LINE
  8
OUTLINE
  6
CONTINUOUS
 62
     3
 10
-60.0
 20
-303.99999999999932
 30
0.0
 11
-60.0
 21
-279.99999999999932
 31
0.0
  0
LINE
  8
OUTLINE
  6
CONTINUOUS
 62
     3
 10
-60.0
 20
-279.99999999999932
 30
0.0
 11
-60.0
 21
-278.99999999999932
 31
0.0
  0
LINE
  8
OUTLINE
  6
CONTINUOUS
 62
     3
 10
-74.927986543900261
 20
-433.57588359179942
 30
0.0
 11
-53.825777270400067
 21
-313.89930778509938
 31
0.0
  0
LINE
  8
OUTLINE
  6
CONTINUOUS
 62
     3
 10
-53.304863114700311
 20
-310.94505680459929
 30
0.0
 11
-26.478827846000058
 21
-158.80705069269931
 31
0.0
  0
LINE
  8
OUTLINE
  6
CONTINUOUS
 62
     3
 10
-25.957788560200239
 20
-155.85209006379941
 30
0.0
 11
-25.872376353000622
 21
-155.3676933658993
 31
0.0
  0
LINE
  8
OUTLINE
  6
CONTINUOUS
 62
     3
 10
-77.882409802899929
 20
-433.05493905879928
 30
0.0
 11
-56.781661779200483
 21
-313.38665041169929
 31
0.0
  0
LINE
  8
OUTLINE
  6
CONTINUOUS
 62
     3
 10
-56.260747623600757
 20
-310.43239943119943
 30
0.0
 11
-29.430114172199861
 21
-158.26831572949931
 31
0.0
  0
LINE
  8
OUTLINE
  6
CONTINUOUS
 62
     3
 10
-28.909221460400659
 20
-155.3141863633993
 30
0.0
 11
-28.82679961200029
 21
-154.84674883289941
 31
0.0
  0
LINE
  8
OUTLINE
  6
CONTINUOUS
 62
     3
 10
-80.04903810560063
 20
-135.6490010959993
 30
0.0
 11
-77.450961894300235
 21
-137.1490010959993
 31
0.0
  0
LINE
  8
OUTLINE
  6
CONTINUOUS
 62
     3
 10
-91.567016791700553
 20
-128.1560823208992
 30
0.0
 11
-89.109560658800547
 21
-129.87681162999931
 31
0.0
  0
LINE
  8
OUTLINE
  6
CONTINUOUS
 62
     3
 10
-102.3881151903006
 20
-119.6878183766993
 30
0.0
 11
-100.0899818608996
 21
-121.61618120569921
 31
0.0
  0
LINE
  8
OUTLINE
  6
CONTINUOUS
 62
     3
 10
-112.42997820860001
 20
-110.30865786509931
 30
0.0
 11
-110.3086578651
 21
-112.42997820859929
 31
0.0
  0
LINE
  8
OUTLINE
  6
CONTINUOUS
 62
     3
 10
-121.6161812056998
 20
-100.0899818608993
 30
0.0
 11
-119.68781837670031
 21
-102.3881151902992
 31
0.0
  0
LINE
  8
OUTLINE
  6
CONTINUOUS
 62
     3
 10
-112.4314911055999
 20
-425.39559213479907
 30
0.0
 11
-80.979558430600264
 21
-308.01538139539929
 31
0.0
  0
LINE
  8
OUTLINE
  6
CONTINUOUS
 62
     3
 10
-80.203149371600375
 20
-305.11778333979942
 30
0.0
 11
-40.216057158600051
 21
-155.8839235539993
 31
0.0
  0
LINE
  8
OUTLINE
  6
CONTINUOUS
 62
     3
 10
-39.43955533190001
 20
-152.98597928449939
 30
0.0
 11
-39.315110864200513
 21
-152.52154620809941
 31
0.0
  0
LINE
  8
OUTLINE
  6
CONTINUOUS
 62
     3
 10
-115.3292685845008
 20
-424.61913499949912
 30
0.0
 11
-83.877965097300148
 21
-307.24127242079931
 31
0.0
  0
LINE
  8
OUTLINE
  6
CONTINUOUS
 62
     3
 10
-83.101556038300259
 20
-304.34367436519938
 30
0.0
 11
-43.112108481400362
 21
-155.10102431649929
 31
0.0
  0
LINE
  8
OUTLINE
  6
CONTINUOUS
 62
     3
 10
-42.335687314200193
 20
-152.2033810720994
 30
0.0
 11
-42.212888343000493
 21
-151.74508907279929
 31
0.0
  0
LINE
  8
OUTLINE
  6
CONTINUOUS
 62
     3
 10
-55.277711504900253
 20
-147.4885575586994
 30
0.0
 11
-52.458633642600027
 21
-148.51461798869931
 31
0.0
  0
LINE
  8
OUTLINE
  6
CONTINUOUS
 62
     3
 10
-67.921837904699714
 20
-142.10954906559931
 30
0.0
 11
-65.202914543600855
 21
-143.3774038507994
 31
0.0
  0
LINE
  8
OUTLINE
  6
CONTINUOUS
 62
     3
 10
-129.87681162999979
 20
-89.109560658799268
 30
0.0
 11
-128.1560823209002
 21
-91.567016791699274
 31
0.0
  0
LINE
  8
OUTLINE
  6
CONTINUOUS
 62
     3
 10
-137.1490010960006
 20
-77.450961894299297
 30
0.0
 11
-135.6490010960006
 21
-80.049038105599237
 31
0.0
  0
LINE
  8
OUTLINE
  6
CONTINUOUS
 62
     3
 10
-143.37740385079999
 20
-65.202914543599235
 30
0.0
 11
-142.10954906559979
 21
-67.921837904699231
 31
0.0
  0
LINE
  8
OUTLINE
  6
CONTINUOUS
 62
     3
 10
-149.0793241320998
 20
-413.97778336069939
 30
0.0
 11
-107.51778005760021
 21
-299.7883794985994
 31
0.0
  0
LINE
  8
OUTLINE
  6
CONTINUOUS
 62
     3
 10
-106.4917827761001
 20
-296.9694751350994
 30
0.0
 11
-53.647099585000433
 21
-151.77990132929929
 31
0.0
  0
LINE
  8
OUTLINE
  6
CONTINUOUS
 62
     3
 10
-52.621074013100042
 20
-148.9609192385993
 30
0.0
 11
-52.458633642600027
 21
-148.51461798869931
 31
0.0
  0
LINE
  8
OUTLINE
  6
CONTINUOUS
 62
     3
 10
-151.89840199439999
 20
-412.95172293079929
 30
0.0
 11
-110.33564272469989
 21
-298.75898034699941
 31
0.0
  0
LINE
  8
OUTLINE
  6
CONTINUOUS
 62
     3
 10
-109.3096454431998
 20
-295.94007598349941
 30
0.0
 11
-56.46779317940036
 21
-150.75828008669939
 31
0.0
  0
LINE
  8
OUTLINE
  6
CONTINUOUS
 62
     3
 10
-55.44169210759992
 20
-147.93909056169929
 30
0.0
 11
-55.277711504900253
 21
-147.4885575586994
 31
0.0
  0
LINE
  8
OUTLINE
  6
CONTINUOUS
 62
     3
 10
-28.82679961200029
 20
-154.84674883289941
 30
0.0
 11
-25.872376353000622
 21
-155.3676933658993
 31
0.0
  0
LINE
  8
OUTLINE
  6
CONTINUOUS
 62
     3
 10
-42.212888343000493
 20
-151.74508907279929
 30
0.0
 11
-39.315110864200513
 21
-152.52154620809941
 31
0.0
  0
LINE
  8
OUTLINE
  6
CONTINUOUS
 62
     3
 10
-148.51461798869971
 20
-52.45863364259921
 30
0.0
 11
-147.48855755880049
 21
-55.277711504899322
 31
0.0
  0
LINE
  8
OUTLINE
  6
CONTINUOUS
 62
     3
 10
-184.59257348529991
 20
-399.4093536886993
 30
0.0
 11
-133.23877152279971
 21
-289.28076998569941
 31
0.0
  0
LINE
  8
OUTLINE
  6
CONTINUOUS
 62
     3
 10
-131.97098925020049
 20
-286.56200212829941
 30
0.0
 11
-66.671078312299869
 21
-146.5258912132993
 31
0.0
  0
LINE
  8
OUTLINE
  6
CONTINUOUS
 62
     3
 10
-65.40334108370007
 20
-143.80721995329941
 30
0.0
 11
-65.202914543600855
 21
-143.3774038507994
 31
0.0
  0
LINE
  8
OUTLINE
  6
CONTINUOUS
 62
     3
 10
-187.31149684640059
 20
-398.14149890349921
 30
0.0
 11
-135.9536643694
 21
-288.00427173419939
 31
0.0
  0
LINE
  8
OUTLINE
  6
CONTINUOUS
 62
     3
 10
-134.68588209679999
 20
-285.28550387679928
 30
0.0
 11
-69.396813856499648
 21
-145.2726452019993
 31
0.0
  0
LINE
  8
OUTLINE
  6
CONTINUOUS
 62
     3
 10
-68.128758322800422
 20
-142.55329133429939
 30
0.0
 11
-67.921837904699714
 21
-142.10954906559931
 31
0.0
  0
LINE
  8
OUTLINE
  6
CONTINUOUS
 62
     3
 10
-12.48299069000041
 20
-157.01170320529931
 30
0.0
 11
-9.4902985393000563
 21
-157.22097262649939
 31
0.0
  0
LINE
  8
OUTLINE
  6
CONTINUOUS
 62
     3
 10
-152.52154620809961
 20
-39.31511086419934
 30
0.0
 11
-151.7450890727996
 21
-42.212888342999207
 31
0.0
  0
LINE
  8
OUTLINE
  6
CONTINUOUS
 62
     3
 10
-155.3676933658999
 20
-25.872376352999229
 30
0.0
 11
-154.8467488329006
 21
-28.826799611999231
 31
0.0
  0
LINE
  8
OUTLINE
  6
CONTINUOUS
 62
     3
 10
-157.22097262649999
 20
-9.4902985392993457
 30
0.0
 11
-157.01170320530039
 21
-12.482990689999241
 31
0.0
  0
LINE
  8
OUTLINE
  6
CONTINUOUS
 62
     3
 10
-218.70096189430021
 20
-381.80117766509949
 30
0.0
 11
-157.94706071180011
 21
-276.57233405899927
 31
0.0
  0
LINE
  8
OUTLINE
  6
CONTINUOUS
 62
     3
 10
-156.44713400650019
 20
-273.97438479789929
 30
0.0
 11
-79.190150211499713
 21
-140.1613636253993
 31
0.0
  0
LINE
  8
OUTLINE
  6
CONTINUOUS
 62
     3
 10
-77.690328255800523
 20
-137.56359579579939
 30
0.0
 11
-77.450961894300235
 21
-137.1490010959993
 31
0.0
  0
LINE
  8
OUTLINE
  6
CONTINUOUS
 62
     3
 10
-221.2990381056006
 20
-380.30117766509949
 30
0.0
 11
-160.5373763719999
 21
-275.05889239019939
 31
0.0
  0
LINE
  8
OUTLINE
  6
CONTINUOUS
 62
     3
 10
-159.03744966680009
 20
-272.46094312909941
 30
0.0
 11
-81.790739699399637
 21
-138.6657167479994
 31
0.0
  0
LINE
  8
OUTLINE
  6
CONTINUOUS
 62
     3
 10
-80.290917743699538
 20
-136.06794891839931
 30
0.0
 11
-80.04903810560063
 21
-135.6490010959993
 31
0.0
  0
LINE
  8
OUTLINE
  6
CONTINUOUS
 62
     3
 10
35.0
 20
-163.49999999999929
 30
0.0
 11
-9.9293709056000807
 21
-163.49999999999929
 31
0.0
  0
LINE
  8
OUTLINE
  6
CONTINUOUS
 62
     3
 10
-12.93669659979969
 20
-163.49999999999929
 30
0.0
 11
-27.30632142800005
 21
-163.49999999999929
 31
0.0
  0
LINE
  8
OUTLINE
  6
CONTINUOUS
 62
     3
 10
-30.35260126360026
 20
-163.49999999999929
 30
0.0
 11
-35.0
 21
-163.49999999999929
 31
0.0
  0
LINE
  8
OUTLINE
  6
CONTINUOUS
 62
     3
 10
35.0
 20
-164.49999999999929
 30
0.0
 11
-9.9992977175006672
 21
-164.49999999999929
 31
0.0
  0
LINE
  8
OUTLINE
  6
CONTINUOUS
 62
     3
 10
-13.006623411800319
 20
-164.49999999999929
 30
0.0
 11
-27.482648408699792
 21
-164.49999999999929
 31
0.0
  0
LINE
  8
OUTLINE
  6
CONTINUOUS
 62
     3
 10
-30.528928244300001
 20
-164.49999999999929
 30
0.0
 11
-35.0
 21
-164.49999999999929
 31
0.0
  0
LINE
  8
OUTLINE
  6
CONTINUOUS
 62
     3
 10
-251.1449039280005
 20
-361.28726414159922
 30
0.0
 11
-181.45192003319971
 21
-261.75536810839941
 31
0.0
  0
LINE
  8
OUTLINE
  6
CONTINUOUS
 62
     3
 10
-179.73110043179989
 20
-259.29778302469941
 30
0.0
 11
-91.110228210100104
 21
-132.7340610055993
 31
0.0
  0
LINE
  8
OUTLINE
  6
CONTINUOUS
 62
     3
 10
-89.389691455500724
 20
-130.27687986889919
 30
0.0
 11
-89.109560658800547
 21
-129.87681162999931
 31
0.0
  0
LINE
  8
OUTLINE
  6
CONTINUOUS
 62
     3
 10
-253.60236006090051
 20
-359.56653483259907
 30
0.0
 11
-183.8999776477003
 21
-260.02121632409921
 31
0.0
  0
LINE
  8
OUTLINE
  6
CONTINUOUS
 62
     3
 10
-182.1793112391006
 20
-257.56385002229922
 30
0.0
 11
-93.560716789999788
 21
-131.00338099959919
 31
0.0
  0
LINE
  8
OUTLINE
  6
CONTINUOUS
 62
     3
 10
-91.840180035300364
 20
-128.5461998628993
 30
0.0
 11
-91.567016791700553
 21
-128.1560823208992
 31
0.0
  0
LINE
  8
OUTLINE
  6
CONTINUOUS
 62
     3
 10
35.0
 20
-188.49999999999929
 30
0.0
 11
-11.677541204200679
 21
-188.49999999999929
 31
0.0
  0
LINE
  8
OUTLINE
  6
CONTINUOUS
 62
     3
 10
-14.684866898400291
 20
-188.49999999999929
 30
0.0
 11
-31.71449594570004
 21
-188.49999999999929
 31
0.0
  0
LINE
  8
OUTLINE
  6
CONTINUOUS
 62
     3
 10
-34.760775781300246
 20
-188.49999999999929
 30
0.0
 11
-35.0
 21
-188.49999999999929
 31
0.0
  0
LINE
  8
OUTLINE
  6
CONTINUOUS
 62
     3
 10
35.0
 20
-189.49999999999929
 30
0.0
 11
-11.74746801610036
 21
-189.49999999999929
 31
0.0
  0
LINE
  8
OUTLINE
  6
CONTINUOUS
 62
     3
 10
-14.75479371040001
 20
-189.49999999999929
 30
0.0
 11
-31.890822926399778
 21
-189.49999999999929
 31
0.0
  0
LINE
  8
OUTLINE
  6
CONTINUOUS
 62
     3
 10
-34.937102761999988
 20
-189.49999999999929
 30
0.0
 11
-35.0
 21
-189.49999999999929
 31
0.0
  0
LINE
  8
OUTLINE
  6
CONTINUOUS
 62
     3
 10
-193.5
 20
-38.999999999999289
 30
0.0
 11
-193.5
 21
-8.9999999999992895
 31
0.0
  0
LINE
  8
OUTLINE
  6
CONTINUOUS
 62
     3
 10
-281.6774815974004
 20
-338.02373638679933
 30
0.0
 11
-203.57106902879971
 21
-244.9401386036993
 31
0.0
  0
LINE
  8
OUTLINE
  6
CONTINUOUS
 62
     3
 10
-201.6426594435998
 20
-242.6419495524992
 30
0.0
 11
-102.3301519428005
 21
-124.2859119488992
 31
0.0
  0
LINE
  8
OUTLINE
  6
CONTINUOUS
 62
     3
 10
-100.40158638940009
 20
-121.9875370219993
 30
0.0
 11
-100.0899818608996
 21
-121.61618120569921
 31
0.0
  0
LINE
  8
OUTLINE
  6
CONTINUOUS
 62
     3
 10
-283.97561492670047
 20
-336.09537355779929
 30
0.0
 11
-205.86393613359999
 21
-243.0054997324994
 31
0.0
  0
LINE
  8
OUTLINE
  6
CONTINUOUS
 62
     3
 10
-203.93561238640001
 20
-240.7074129791992
 30
0.0
 11
-104.62096143300001
 21
-122.3488209081993
 31
0.0
  0
LINE
  8
OUTLINE
  6
CONTINUOUS
 62
     3
 10
-102.6927381009
 20
-120.0508538247993
 30
0.0
 11
-102.3881151903006
 21
-119.6878183766993
 31
0.0
  0
LINE
  8
OUTLINE
  6
CONTINUOUS
 62
     3
 10
-196.5
 20
-38.999999999999289
 30
0.0
 11
-196.5
 21
-8.9999999999992895
 31
0.0
  0
LINE
  8
OUTLINE
  6
CONTINUOUS
 62
     3
 10
-310.06632355029978
 20
-312.1876438937993
 30
0.0
 11
-224.1410146799999
 21
-226.26233502359921
 31
0.0
  0
LINE
  8
OUTLINE
  6
CONTINUOUS
 62
     3
 10
-222.01969433640079
 20
-224.14101467999919
 30
0.0
 11
-112.7670916160005
 21
-114.8884119595992
 31
0.0
  0
LINE
  8
OUTLINE
  6
CONTINUOUS
 62
     3
 10
-110.64577127240049
 20
-112.76709161599931
 30
0.0
 11
-110.3086578651
 21
-112.42997820859929
 31
0.0
  0
LINE
  8
OUTLINE
  6
CONTINUOUS
 62
     3
 10
-312.18764389379982
 20
-310.06632355029927
 30
0.0
 11
-226.2623350236008
 21
-224.14101467999919
 31
0.0
  0
LINE
  8
OUTLINE
  6
CONTINUOUS
 62
     3
 10
-224.1410146799999
 20
-222.0196943363992
 30
0.0
 11
-114.8884119596005
 21
-112.76709161599931
 31
0.0
  0
LINE
  8
OUTLINE
  6
CONTINUOUS
 62
     3
 10
-112.7670916160005
 20
-110.6457712723993
 30
0.0
 11
-112.42997820860001
 21
-110.30865786509931
 31
0.0
  0
LINE
  8
OUTLINE
  6
CONTINUOUS
 62
     3
 10
-336.09537355780049
 20
-283.97561492669928
 30
0.0
 11
-243.00549973250051
 21
-205.86393613359931
 31
0.0
  0
LINE
  8
OUTLINE
  6
CONTINUOUS
 62
     3
 10
-240.70741297919989
 20
-203.93561238639921
 30
0.0
 11
-122.34882090820069
 21
-104.6209614329992
 31
0.0
  0
LINE
  8
OUTLINE
  6
CONTINUOUS
 62
     3
 10
-120.0508538248005
 20
-102.69273810089931
 30
0.0
 11
-119.68781837670031
 21
-102.3881151902992
 31
0.0
  0
LINE
  8
OUTLINE
  6
CONTINUOUS
 62
     3
 10
-338.02373638680001
 20
-281.67748159739932
 30
0.0
 11
-244.94013860369981
 21
-203.5710690287992
 31
0.0
  0
LINE
  8
OUTLINE
  6
CONTINUOUS
 62
     3
 10
-242.64194955250059
 20
-201.64265944359931
 30
0.0
 11
-124.28591194890031
 21
-102.3301519427992
 31
0.0
  0
LINE
  8
OUTLINE
  6
CONTINUOUS
 62
     3
 10
-121.9875370219997
 20
-100.4015863893992
 30
0.0
 11
-121.6161812056998
 21
-100.0899818608993
 31
0.0
  0
LINE
  8
OUTLINE
  6
CONTINUOUS
 62
     3
 10
60.0
 20
-278.99999999999932
 30
0.0
 11
-18.00591768510003
 21
-278.99999999999932
 31
0.0
  0
LINE
  8
OUTLINE
  6
CONTINUOUS
 62
     3
 10
-21.013243379300551
 20
-278.99999999999932
 30
0.0
 11
-47.672087699800613
 21
-278.99999999999932
 31
0.0
  0
LINE
  8
OUTLINE
  6
CONTINUOUS
 62
     3
 10
-50.718367535399921
 20
-278.99999999999932
 30
0.0
 11
-60.0
 21
-278.99999999999932
 31
0.0
  0
LINE
  8
OUTLINE
  6
CONTINUOUS
 62
     3
 10
60.0
 20
-279.99999999999932
 30
0.0
 11
-18.075844496999711
 21
-279.99999999999932
 31
0.0
  0
LINE
  8
OUTLINE
  6
CONTINUOUS
 62
     3
 10
-21.083170191300269
 20
-279.99999999999932
 30
0.0
 11
-47.848414680500348
 21
-279.99999999999932
 31
0.0
  0
LINE
  8
OUTLINE
  6
CONTINUOUS
 62
     3
 10
-50.894694516200623
 20
-279.99999999999932
 30
0.0
 11
-60.0
 21
-279.99999999999932
 31
0.0
  0
LINE
  8
OUTLINE
  6
CONTINUOUS
 62
     3
 10
-359.56653483260021
 20
-253.60236006089929
 30
0.0
 11
-260.02121632410041
 21
-183.89997764769939
 31
0.0
  0
LINE
  8
OUTLINE
  6
CONTINUOUS
 62
     3
 10
-257.56385002230041
 20
-182.17931123909921
 30
0.0
 11
-131.0033809996003
 21
-93.560716789999304
 31
0.0
  0
LINE
  8
OUTLINE
  6
CONTINUOUS
 62
     3
 10
-128.54619986289981
 20
-91.840180035299198
 30
0.0
 11
-128.1560823209002
 21
-91.567016791699274
 31
0.0
  0
LINE
  8
OUTLINE
  6
CONTINUOUS
 62
     3
 10
-361.28726414159968
 20
-251.14490392799931
 30
0.0
 11
-261.75536810839998
 21
-181.4519200331992
 31
0.0
  0
LINE
  8
OUTLINE
  6
CONTINUOUS
 62
     3
 10
-259.29778302469998
 20
-179.7311004317994
 30
0.0
 11
-132.7340610055999
 21
-91.11022821009928
 31
0.0
  0
LINE
  8
OUTLINE
  6
CONTINUOUS
 62
     3
 10
-130.27687986890029
 20
-89.389691455499218
 30
0.0
 11
-129.87681162999979
 21
-89.109560658799268
 31
0.0
  0
LINE
  8
OUTLINE
  6
CONTINUOUS
 62
     3
 10
60.0
 20
-303.99999999999932
 30
0.0
 11
-19.754087983699719
 21
-303.99999999999932
 31
0.0
  0
LINE
  8
OUTLINE
  6
CONTINUOUS
 62
     3
 10
-22.76141367790024
 20
-303.99999999999932
 30
0.0
 11
-52.080262217499687
 21
-303.99999999999932
 31
0.0
  0
LINE
  8
OUTLINE
  6
CONTINUOUS
 62
     3
 10
-55.126542053199962
 20
-303.99999999999932
 30
0.0
 11
-60.0
 21
-303.99999999999932
 31
0.0
  0
LINE
  8
OUTLINE
  6
CONTINUOUS
 62
     3
 10
60.0
 20
-304.99999999999932
 30
0.0
 11
-19.824014795600309
 21
-304.99999999999932
 31
0.0
  0
LINE
  8
OUTLINE
  6
CONTINUOUS
 62
     3
 10
-22.831340489899961
 20
-304.99999999999932
 30
0.0
 11
-52.256589198200338
 21
-304.99999999999932
 31
0.0
  0
LINE
  8
OUTLINE
  6
CONTINUOUS
 62
     3
 10
-55.302869033900613
 20
-304.99999999999932
 30
0.0
 11
-60.0
 21
-304.99999999999932
 31
0.0
  0
LINE
  8
OUTLINE
  6
CONTINUOUS
 62
     3
 10
-380.30117766510011
 20
-221.29903810559921
 30
0.0
 11
-275.05889239020053
 21
-160.53737637199919
 31
0.0
  0
LINE
  8
OUTLINE
  6
CONTINUOUS
 62
     3
 10
-272.46094312910009
 20
-159.0374496667992
 30
0.0
 11
-138.6657167480007
 21
-81.790739699399154
 31
0.0
  0
LINE
  8
OUTLINE
  6
CONTINUOUS
 62
     3
 10
-136.06794891840039
 20
-80.290917743699282
 30
0.0
 11
-135.6490010960006
 21
-80.049038105599237
 31
0.0
  0
LINE
  8
OUTLINE
  6
CONTINUOUS
 62
     3
 10
-381.80117766510011
 20
-218.7009618942993
 30
0.0
 11
-276.57233405900018
 21
-157.94706071179931
 31
0.0
  0
LINE
  8
OUTLINE
  6
CONTINUOUS
 62
     3
 10
-273.97438479790071
 20
-156.4471340064992
 30
0.0
 11
-140.16136362540061
 21
-79.19015021149923
 31
0.0
  0
LINE
  8
OUTLINE
  6
CONTINUOUS
 62
     3
 10
-137.56359579580021
 20
-77.690328255799244
 30
0.0
 11
-137.1490010960006
 21
-77.450961894299297
 31
0.0
  0
LINE
  8
OUTLINE
  6
CONTINUOUS
 62
     3
 10
-398.14149890350018
 20
-187.31149684639919
 30
0.0
 11
-288.0042717342003
 21
-135.95366436939921
 31
0.0
  0
LINE
  8
OUTLINE
  6
CONTINUOUS
 62
     3
 10
-285.28550387680019
 20
-134.6858820967993
 30
0.0
 11
-145.2726452020006
 21
-69.396813856499165
 31
0.0
  0
LINE
  8
OUTLINE
  6
CONTINUOUS
 62
     3
 10
-142.5532913342995
 20
-68.128758322799257
 30
0.0
 11
-142.10954906559979
 21
-67.921837904699231
 31
0.0
  0
LINE
  8
OUTLINE
  6
CONTINUOUS
 62
     3
 10
-399.40935368870032
 20
-184.5925734852992
 30
0.0
 11
-289.28076998570032
 21
-133.2387715227992
 31
0.0
  0
LINE
  8
OUTLINE
  6
CONTINUOUS
 62
     3
 10
-286.56200212830032
 20
-131.9709892501993
 30
0.0
 11
-146.52589121330041
 21
-66.671078312299159
 31
0.0
  0
LINE
  8
OUTLINE
  6
CONTINUOUS
 62
     3
 10
-143.80721995329989
 20
-65.403341083699246
 30
0.0
 11
-143.37740385079999
 21
-65.202914543599235
 31
0.0
  0
LINE
  8
OUTLINE
  6
CONTINUOUS
 62
     3
 10
-412.95172293080032
 20
-151.89840199439919
 30
0.0
 11
-298.75898034699998
 21
-110.3356427246992
 31
0.0
  0
LINE
  8
OUTLINE
  6
CONTINUOUS
 62
     3
 10
-295.94007598350072
 20
-109.3096454431993
 30
0.0
 11
-150.7582800867003
 21
-56.467793179399187
 31
0.0
  0
LINE
  8
OUTLINE
  6
CONTINUOUS
 62
     3
 10
-147.93909056170011
 20
-55.441692107599209
 30
0.0
 11
-147.48855755880049
 21
-55.277711504899322
 31
0.0
  0
LINE
  8
OUTLINE
  6
CONTINUOUS
 62
     3
 10
-413.97778336070041
 20
-149.0793241320992
 30
0.0
 11
-299.78837949860008
 21
-107.5177800575993
 31
0.0
  0
LINE
  8
OUTLINE
  6
CONTINUOUS
 62
     3
 10
-296.96947513509991
 20
-106.4917827760993
 30
0.0
 11
-151.7799013293006
 21
-53.647099584999268
 31
0.0
  0
LINE
  8
OUTLINE
  6
CONTINUOUS
 62
     3
 10
-148.96091923860061
 20
-52.621074013099332
 30
0.0
 11
-148.51461798869971
 21
-52.45863364259921
 31
0.0
  0
CIRCLE
  8
OUTLINE
  6
CONTINUOUS
 62
     3
 10
22.5
 20
-176.49999999999929
 30
0.0
 40
2.5
  0
ARC
  8
OUTLINE
  6
CONTINUOUS
 62
     3
 10
0.0
 20
0.0000000000005969
 30
0.0
 40
444.5
 50
183.4999999999971
 51
266.50000000006878
  0
ARC
  8
OUTLINE
  6
CONTINUOUS
 62
     3
 10
0.0
 20
0.0000000000005969
 30
0.0
 40
441.5
 50
183.4999999999971
 51
266.50000000006878
  0
ARC
  8
OUTLINE
  6
CONTINUOUS
 62
     3
 10
0.0
 20
-0.000000000000199
 30
0.0
 40
318.49999999999989
 50
179.7500000000085
 51
269.75000000000841
  0
ARC
  8
OUTLINE
  6
CONTINUOUS
 62
     3
 10
-0.0000000000013642
 20
0.0000000000008242
 30
0.0
 40
315.49999999999869
 50
179.7500000000085
 51
269.75000000000841
  0
ARC
  8
OUTLINE
  6
CONTINUOUS
 62
     3
 10
-0.0000000000009095
 20
0.0000000000005969
 30
0.0
 40
160.99999999999889
 50
179.39999999999341
 51
269.39999999996718
  0
ARC
  8
OUTLINE
  6
CONTINUOUS
 62
     3
 10
-0.0000000000004547
 20
0.0000000000000284
 30
0.0
 40
157.9999999999994
 50
179.39999999999341
 51
269.39999999996718
  0
CIRCLE
  8
OUTLINE
  6
CONTINUOUS
 62
     3
 10
-22.5
 20
-176.49999999999929
 30
0.0
 40
2.5
  0
CIRCLE
  8
OUTLINE
  6
CONTINUOUS
 62
     3
 10
20.0
 20
-291.99999999999932
 30
0.0
 40
3.0
  0
CIRCLE
  8
OUTLINE
  6
CONTINUOUS
 62
     3
 10
40.0
 20
-291.99999999999932
 30
0.0
 40
2.5
  0
CIRCLE
  8
OUTLINE
  6
CONTINUOUS
 62
     3
 10
-40.0
 20
-291.99999999999932
 30
0.0
 40
2.5
  0
ARC
  8
OUTLINE
  6
CONTINUOUS
 62
     3
 10
-30.692848447400142
 20
-438.92818211429937
 30
0.0
 40
1.5
 50
176.0000000000035
 51
356.00000000000352
  0
ARC
  8
OUTLINE
  6
CONTINUOUS
 62
     3
 10
-76.405198173400095
 20
-433.31541132529941
 30
0.0
 40
1.5
 50
169.9999999999817
 51
349.9999999999817
  0
ARC
  8
OUTLINE
  6
CONTINUOUS
 62
     3
 10
-113.8803798450999
 20
-425.00736356709911
 30
0.0
 40
1.5
 50
165.0000000000056
 51
345.00000000000563
  0
ARC
  8
OUTLINE
  6
CONTINUOUS
 62
     3
 10
-150.48886306330041
 20
-413.46475314579942
 30
0.0
 40
1.5
 50
160.00000000001231
 51
340.00000000001228
  0
ARC
  8
OUTLINE
  6
CONTINUOUS
 62
     3
 10
-185.9520351659003
 20
-398.77542629609923
 30
0.0
 40
1.5
 50
154.9999999999892
 51
334.99999999998931
  0
ARC
  8
OUTLINE
  6
CONTINUOUS
 62
     3
 10
-438.9281821143004
 20
-30.6928484473992
 30
0.0
 40
1.5
 50
93.999999999983402
 51
273.9999999999834
  0
ARC
  8
OUTLINE
  6
CONTINUOUS
 62
     3
 10
-433.31541132530037
 20
-76.405198173399157
 30
0.0
 40
1.5
 50
100.00000000005799
 51
280.00000000005798
  0
ARC
  8
OUTLINE
  6
CONTINUOUS
 62
     3
 10
-425.00736356709967
 20
-113.8803798450992
 30
0.0
 40
1.5
 50
104.9999999999945
 51
284.99999999999437
  0
ARC
  8
OUTLINE
  6
CONTINUOUS
 62
     3
 10
-413.46475314580039
 20
-150.48886306329919
 30
0.0
 40
1.5
 50
109.9999999999898
 51
289.99999999998983
  0
ARC
  8
OUTLINE
  6
CONTINUOUS
 62
     3
 10
-398.7754262961007
 20
-185.95203516589919
 30
0.0
 40
1.5
 50
114.9999999999782
 51
294.99999999997817
  0
ARC
  8
OUTLINE
  6
CONTINUOUS
 62
     3
 10
-381.05117766510011
 20
-219.99999999999929
 30
0.0
 40
1.5
 50
119.9999999999997
 51
299.99999999999972
  0
ARC
  8
OUTLINE
  6
CONTINUOUS
 62
     3
 10
-360.42689948709989
 20
-252.3736319943992
 30
0.0
 40
1.5
 50
124.9999999999811
 51
304.99999999998113
  0
ARC
  8
OUTLINE
  6
CONTINUOUS
 62
     3
 10
-220.0
 20
-381.05117766509949
 30
0.0
 40
1.5
 50
149.99999999997561
 51
329.99999999997561
  0
ARC
  8
OUTLINE
  6
CONTINUOUS
 62
     3
 10
-337.05955497230019
 20
-282.82654826199928
 30
0.0
 40
1.5
 50
129.99999999998639
 51
309.9999999999863
  0
ARC
  8
OUTLINE
  6
CONTINUOUS
 62
     3
 10
-252.37363199440011
 20
-360.42689948709938
 30
0.0
 40
1.5
 50
144.9999999999925
 51
324.9999999999925
  0
ARC
  8
OUTLINE
  6
CONTINUOUS
 62
     3
 10
-311.12698372200072
 20
-311.1269837219993
 30
0.0
 40
1.5
 50
135.00000000000921
 51
315.00000000000921
  0
ARC
  8
OUTLINE
  6
CONTINUOUS
 62
     3
 10
-282.82654826200002
 20
-337.05955497229928
 30
0.0
 40
1.5
 50
139.99999999996939
 51
319.99999999996942
  0
LINE
  8
OUTLINE
  6
CONTINUOUS
 62
     3
 10
-304.0
 20
-59.999999999999289
 30
0.0
 11
-305.0
 21
-59.999999999999289
 31
0.0
  0
LINE
  8
OUTLINE
  6
CONTINUOUS
 62
     3
 10
-304.0
 20
-59.999999999999289
 30
0.0
 11
-280.0
 21
-59.999999999999289
 31
0.0
  0
LINE
  8
OUTLINE
  6
CONTINUOUS
 62
     3
 10
-280.0
 20
-59.999999999999289
 30
0.0
 11
-279.0
 21
-59.999999999999289
 31
0.0
  0
LINE
  8
OUTLINE
  6
CONTINUOUS
 62
     3
 10
-188.5
 20
-34.999999999999289
 30
0.0
 11
-189.5
 21
-34.999999999999289
 31
0.0
  0
LINE
  8
OUTLINE
  6
CONTINUOUS
 62
     3
 10
-188.5
 20
-34.999999999999289
 30
0.0
 11
-164.5
 21
-34.999999999999289
 31
0.0
  0
LINE
  8
OUTLINE
  6
CONTINUOUS
 62
     3
 10
-164.5
 20
-34.999999999999289
 30
0.0
 11
-163.5
 21
-34.999999999999289
 31
0.0
  0
LINE
  8
OUTLINE
  6
CONTINUOUS
 62
     3
 10
-29.19650237199949
 20
439.03281682490052
 30
0.0
 11
-20.719733839999211
 21
317.809379113202
 31
0.0
  0
LINE
  8
OUTLINE
  6
CONTINUOUS
 62
     3
 10
-20.510467677699129
 20
314.81673356830157
 30
0.0
 11
-12.23695569969914
 21
196.5000000000006
 31
0.0
  0
LINE
  8
OUTLINE
  6
CONTINUOUS
 62
     3
 10
-12.027175263900061
 20
193.5000000000006
 30
0.0
 11
-9.732679759599705
 21
160.68718556470111
 31
0.0
  0
LINE
  8
OUTLINE
  6
CONTINUOUS
 62
     3
 10
-9.523418206599672
 20
157.6946059360013
 30
0.0
 11
-9.4902985393000563
 21
157.22097262650149
 31
0.0
  0
LINE
  8
OUTLINE
  6
CONTINUOUS
 62
     3
 10
-32.18919452279988
 20
438.8235474037017
 30
0.0
 11
-23.712854614999738
 21
317.60623930450191
 31
0.0
  0
LINE
  8
OUTLINE
  6
CONTINUOUS
 62
     3
 10
-23.503581466299689
 20
314.61349384850172
 30
0.0
 11
-15.2442813939997
 21
196.5000000000006
 31
0.0
  0
LINE
  8
OUTLINE
  6
CONTINUOUS
 62
     3
 10
-15.03450095809967
 20
193.5000000000006
 30
0.0
 11
-12.725740215499171
 21
160.48318315290149
 31
0.0
  0
LINE
  8
OUTLINE
  6
CONTINUOUS
 62
     3
 10
-12.5164614523992
 20
157.49035740770131
 30
0.0
 11
-12.4829906899995
 21
157.01170320530099
 31
0.0
  0
LINE
  8
OUTLINE
  6
CONTINUOUS
 62
     3
 10
-26.952930204599401
 20
440.67651350320079
 30
0.0
 11
-27.136075823199459
 21
443.67091789850087
 31
0.0
  0
LINE
  8
OUTLINE
  6
CONTINUOUS
 62
     3
 10
-9.0
 20
196.49469813640161
 30
0.0
 11
-9.0
 21
193.50530186350139
 31
0.0
  0
LINE
  8
OUTLINE
  6
CONTINUOUS
 62
     3
 10
-440.6765135031992
 20
26.95293020460193
 30
0.0
 11
-443.67091789849928
 21
27.136075823201079
 31
0.0
  0
LINE
  8
OUTLINE
  6
CONTINUOUS
 62
     3
 10
-439.03281682489978
 20
29.19650237200111
 30
0.0
 11
-317.80937911319961
 21
20.719733840000831
 31
0.0
  0
LINE
  8
OUTLINE
  6
CONTINUOUS
 62
     3
 10
-314.81673356829918
 20
20.510467677701659
 30
0.0
 11
-160.6871855646996
 21
9.732679759601325
 31
0.0
  0
LINE
  8
OUTLINE
  6
CONTINUOUS
 62
     3
 10
-157.69460593599979
 20
9.523418206601292
 30
0.0
 11
-157.22097262649999
 21
9.4902985393007668
 31
0.0
  0
LINE
  8
OUTLINE
  6
CONTINUOUS
 62
     3
 10
-74.927986543899351
 20
433.57588359180107
 30
0.0
 11
-53.825777270399158
 21
313.89930778510148
 31
0.0
  0
LINE
  8
OUTLINE
  6
CONTINUOUS
 62
     3
 10
-53.304863114699401
 20
310.94505680460099
 30
0.0
 11
-33.125111791299787
 21
196.5000000000006
 31
0.0
  0
LINE
  8
OUTLINE
  6
CONTINUOUS
 62
     3
 10
-32.596130849199653
 20
193.5000000000006
 30
0.0
 11
-26.478827845999149
 21
158.80705069270209
 31
0.0
  0
LINE
  8
OUTLINE
  6
CONTINUOUS
 62
     3
 10
-25.957788560199329
 20
155.852090063802
 30
0.0
 11
-25.872376352999709
 21
155.3676933659014
 31
0.0
  0
LINE
  8
OUTLINE
  6
CONTINUOUS
 62
     3
 10
-77.882409802899929
 20
433.05493905880098
 30
0.0
 11
-56.781661779199567
 21
313.38665041170191
 31
0.0
  0
LINE
  8
OUTLINE
  6
CONTINUOUS
 62
     3
 10
-56.260747623598952
 20
310.43239943120051
 30
0.0
 11
-36.171391626999139
 21
196.5000000000006
 31
0.0
  0
LINE
  8
OUTLINE
  6
CONTINUOUS
 62
     3
 10
-35.642410684898998
 20
193.5000000000006
 30
0.0
 11
-29.430114172198959
 21
158.26831572950201
 31
0.0
  0
LINE
  8
OUTLINE
  6
CONTINUOUS
 62
     3
 10
-28.909221460399749
 20
155.31418636340149
 30
0.0
 11
-28.82679961199938
 21
154.8467488329012
 31
0.0
  0
LINE
  8
OUTLINE
  6
CONTINUOUS
 62
     3
 10
-39.0
 20
196.49469813640161
 30
0.0
 11
-39.0
 21
193.50530186350139
 31
0.0
  0
LINE
  8
OUTLINE
  6
CONTINUOUS
 62
     3
 10
-188.5
 20
35.000000000000711
 30
0.0
 11
-189.5
 21
35.000000000000711
 31
0.0
  0
LINE
  8
OUTLINE
  6
CONTINUOUS
 62
     3
 10
-188.5
 20
35.000000000000711
 30
0.0
 11
-164.5
 21
35.000000000000711
 31
0.0
  0
LINE
  8
OUTLINE
  6
CONTINUOUS
 62
     3
 10
-164.5
 20
35.000000000000711
 30
0.0
 11
-163.5
 21
35.000000000000711
 31
0.0
  0
LINE
  8
OUTLINE
  6
CONTINUOUS
 62
     3
 10
-438.82354740369919
 20
32.189194522800591
 30
0.0
 11
-317.60623930449952
 21
23.712854615001358
 31
0.0
  0
LINE
  8
OUTLINE
  6
CONTINUOUS
 62
     3
 10
-314.61349384849927
 20
23.503581466301309
 30
0.0
 11
-160.48318315290001
 21
12.7257402155017
 31
0.0
  0
LINE
  8
OUTLINE
  6
CONTINUOUS
 62
     3
 10
-157.4903574076998
 20
12.51646145240082
 30
0.0
 11
-157.01170320529951
 21
12.48299069000203
 31
0.0
  0
LINE
  8
OUTLINE
  6
CONTINUOUS
 62
     3
 10
-112.43149110559899
 20
425.39559213480129
 30
0.0
 11
-80.979558430599354
 21
308.01538139540082
 31
0.0
  0
LINE
  8
OUTLINE
  6
CONTINUOUS
 62
     3
 10
-80.203149371599466
 20
305.11778333980197
 30
0.0
 11
-40.216057158599142
 21
155.88392355400049
 31
0.0
  0
LINE
  8
OUTLINE
  6
CONTINUOUS
 62
     3
 10
-39.439555331899101
 20
152.98597928450059
 30
0.0
 11
-39.315110864199603
 21
152.52154620810111
 31
0.0
  0
LINE
  8
OUTLINE
  6
CONTINUOUS
 62
     3
 10
-115.329268584499
 20
424.61913499950128
 30
0.0
 11
-83.877965097299239
 21
307.24127242080118
 31
0.0
  0
LINE
  8
OUTLINE
  6
CONTINUOUS
 62
     3
 10
-83.10155603829935
 20
304.34367436520063
 30
0.0
 11
-43.112108481399453
 21
155.10102431650071
 31
0.0
  0
LINE
  8
OUTLINE
  6
CONTINUOUS
 62
     3
 10
-42.335687314099232
 20
152.20338107210111
 30
0.0
 11
-42.212888342999577
 21
151.74508907280111
 31
0.0
  0
LINE
  8
OUTLINE
  6
CONTINUOUS
 62
     3
 10
-304.0
 20
60.000000000000711
 30
0.0
 11
-305.0
 21
60.000000000000711
 31
0.0
  0
LINE
  8
OUTLINE
  6
CONTINUOUS
 62
     3
 10
-304.0
 20
60.000000000000711
 30
0.0
 11
-280.0
 21
60.000000000000711
 31
0.0
  0
LINE
  8
OUTLINE
  6
CONTINUOUS
 62
     3
 10
-280.0
 20
60.000000000000711
 30
0.0
 11
-279.0
 21
60.000000000000711
 31
0.0
  0
LINE
  8
OUTLINE
  6
CONTINUOUS
 62
     3
 10
-433.57588359179948
 20
74.927986543900971
 30
0.0
 11
-313.89930778509921
 21
53.825777270400778
 31
0.0
  0
LINE
  8
OUTLINE
  6
CONTINUOUS
 62
     3
 10
-310.94505680459952
 20
53.304863114701931
 30
0.0
 11
-158.8070506926997
 21
26.478827846000769
 31
0.0
  0
LINE
  8
OUTLINE
  6
CONTINUOUS
 62
     3
 10
-155.85209006379961
 20
25.957788560201859
 30
0.0
 11
-155.3676933658999
 21
25.872376353002242
 31
0.0
  0
LINE
  8
OUTLINE
  6
CONTINUOUS
 62
     3
 10
-433.05493905879939
 20
77.882409802900639
 30
0.0
 11
-313.38665041169952
 21
56.781661779202103
 31
0.0
  0
LINE
  8
OUTLINE
  6
CONTINUOUS
 62
     3
 10
-310.43239943119988
 20
56.260747623601468
 30
0.0
 11
-158.26831572949959
 21
29.430114172201481
 31
0.0
  0
LINE
  8
OUTLINE
  6
CONTINUOUS
 62
     3
 10
-155.3141863633991
 20
28.909221460401369
 30
0.0
 11
-154.84674883289969
 21
28.82679961200191
 31
0.0
  0
LINE
  8
OUTLINE
  6
CONTINUOUS
 62
     3
 10
-135.64900109599969
 20
80.04903810560134
 30
0.0
 11
-137.14900109599969
 21
77.450961894301855
 31
0.0
  0
LINE
  8
OUTLINE
  6
CONTINUOUS
 62
     3
 10
-128.15608232089929
 20
91.567016791702173
 30
0.0
 11
-129.87681162999979
 21
89.109560658801257
 31
0.0
  0
LINE
  8
OUTLINE
  6
CONTINUOUS
 62
     3
 10
-119.6878183766994
 20
102.38811519030131
 30
0.0
 11
-121.6161812056998
 21
100.0899818609012
 31
0.0
  0
LINE
  8
OUTLINE
  6
CONTINUOUS
 62
     3
 10
-110.3086578651
 20
112.4299782086007
 30
0.0
 11
-112.42997820860001
 21
110.3086578651007
 31
0.0
  0
LINE
  8
OUTLINE
  6
CONTINUOUS
 62
     3
 10
-100.0899818608996
 20
121.61618120570149
 30
0.0
 11
-102.3881151902997
 21
119.687818376701
 31
0.0
  0
LINE
  8
OUTLINE
  6
CONTINUOUS
 62
     3
 10
-425.3955921347997
 20
112.43149110560149
 30
0.0
 11
-308.01538139539929
 21
80.979558430601884
 31
0.0
  0
LINE
  8
OUTLINE
  6
CONTINUOUS
 62
     3
 10
-305.11778333979959
 20
80.203149371601086
 30
0.0
 11
-155.88392355399989
 21
40.216057158601672
 31
0.0
  0
LINE
  8
OUTLINE
  6
CONTINUOUS
 62
     3
 10
-152.98597928449999
 20
39.43955533190163
 30
0.0
 11
-152.52154620809961
 21
39.315110864202133
 31
0.0
  0
LINE
  8
OUTLINE
  6
CONTINUOUS
 62
     3
 10
-424.61913499949969
 20
115.32926858450151
 30
0.0
 11
-307.24127242079982
 21
83.877965097301768
 31
0.0
  0
LINE
  8
OUTLINE
  6
CONTINUOUS
 62
     3
 10
-304.34367436519909
 20
83.10155603830097
 30
0.0
 11
-155.10102431649921
 21
43.112108481401073
 31
0.0
  0
LINE
  8
OUTLINE
  6
CONTINUOUS
 62
     3
 10
-152.20338107209949
 20
42.335687314200896
 30
0.0
 11
-151.7450890727996
 21
42.212888343002113
 31
0.0
  0
LINE
  8
OUTLINE
  6
CONTINUOUS
 62
     3
 10
-147.48855755869951
 20
55.277711504901873
 30
0.0
 11
-148.51461798869971
 21
52.458633642600738
 31
0.0
  0
LINE
  8
OUTLINE
  6
CONTINUOUS
 62
     3
 10
-142.10954906559979
 20
67.921837904701334
 30
0.0
 11
-143.37740385079999
 21
65.202914543601565
 31
0.0
  0
LINE
  8
OUTLINE
  6
CONTINUOUS
 62
     3
 10
-89.109560658799637
 20
129.87681163000141
 30
0.0
 11
-91.567016791699643
 21
128.15608232090091
 31
0.0
  0
LINE
  8
OUTLINE
  6
CONTINUOUS
 62
     3
 10
-77.450961894299326
 20
137.1490010960012
 30
0.0
 11
-80.04903810559972
 21
135.6490010960012
 31
0.0
  0
LINE
  8
OUTLINE
  6
CONTINUOUS
 62
     3
 10
-65.202914543599036
 20
143.3774038508015
 30
0.0
 11
-67.921837904699714
 21
142.1095490656013
 31
0.0
  0
LINE
  8
OUTLINE
  6
CONTINUOUS
 62
     3
 10
-413.9777833606995
 20
149.07932413210139
 30
0.0
 11
-299.78837949859923
 21
107.517780057601
 31
0.0
  0
LINE
  8
OUTLINE
  6
CONTINUOUS
 62
     3
 10
-296.96947513509991
 20
106.49178277610081
 30
0.0
 11
-151.77990132929969
 21
53.647099585002053
 31
0.0
  0
LINE
  8
OUTLINE
  6
CONTINUOUS
 62
     3
 10
-148.9609192385997
 20
52.621074013101662
 30
0.0
 11
-148.51461798869971
 21
52.458633642600738
 31
0.0
  0
LINE
  8
OUTLINE
  6
CONTINUOUS
 62
     3
 10
-412.95172293079941
 20
151.89840199440081
 30
0.0
 11
-298.75898034699912
 21
110.33564272470061
 31
0.0
  0
LINE
  8
OUTLINE
  6
CONTINUOUS
 62
     3
 10
-295.94007598349981
 20
109.3096454432014
 30
0.0
 11
-150.75828008669939
 21
56.46779317940198
 31
0.0
  0
LINE
  8
OUTLINE
  6
CONTINUOUS
 62
     3
 10
-147.9390905616992
 20
55.44169210760154
 30
0.0
 11
-147.48855755869951
 21
55.277711504901873
 31
0.0
  0
LINE
  8
OUTLINE
  6
CONTINUOUS
 62
     3
 10
-154.84674883289969
 20
28.82679961200191
 30
0.0
 11
-155.3676933658999
 21
25.872376353002242
 31
0.0
  0
LINE
  8
OUTLINE
  6
CONTINUOUS
 62
     3
 10
-151.7450890727996
 20
42.212888343002113
 30
0.0
 11
-152.52154620809961
 21
39.315110864202133
 31
0.0
  0
LINE
  8
OUTLINE
  6
CONTINUOUS
 62
     3
 10
-52.458633642599118
 20
148.51461798870119
 30
0.0
 11
-55.277711504899337
 21
147.488557558802
 31
0.0
  0
LINE
  8
OUTLINE
  6
CONTINUOUS
 62
     3
 10
-399.40935368869941
 20
184.5925734853015
 30
0.0
 11
-289.28076998569941
 21
133.2387715228013
 31
0.0
  0
LINE
  8
OUTLINE
  6
CONTINUOUS
 62
     3
 10
-286.56200212829941
 20
131.97098925020219
 30
0.0
 11
-146.5258912132995
 21
66.671078312301489
 31
0.0
  0
LINE
  8
OUTLINE
  6
CONTINUOUS
 62
     3
 10
-143.80721995329989
 20
65.403341083700781
 30
0.0
 11
-143.37740385079999
 21
65.202914543601565
 31
0.0
  0
LINE
  8
OUTLINE
  6
CONTINUOUS
 62
     3
 10
-398.14149890349933
 20
187.31149684640221
 30
0.0
 11
-288.00427173419939
 21
135.95366436940171
 31
0.0
  0
LINE
  8
OUTLINE
  6
CONTINUOUS
 62
     3
 10
-285.28550387679928
 20
134.68588209680161
 30
0.0
 11
-145.27264520199969
 21
69.396813856501268
 31
0.0
  0
LINE
  8
OUTLINE
  6
CONTINUOUS
 62
     3
 10
-142.5532913342995
 20
68.128758322801133
 30
0.0
 11
-142.10954906559979
 21
67.921837904701334
 31
0.0
  0
LINE
  8
OUTLINE
  6
CONTINUOUS
 62
     3
 10
-157.01170320529951
 20
12.48299069000203
 30
0.0
 11
-157.22097262649999
 21
9.4902985393007668
 31
0.0
  0
LINE
  8
OUTLINE
  6
CONTINUOUS
 62
     3
 10
-39.315110864199603
 20
152.52154620810111
 30
0.0
 11
-42.212888342999577
 21
151.74508907280111
 31
0.0
  0
LINE
  8
OUTLINE
  6
CONTINUOUS
 62
     3
 10
-25.872376352999709
 20
155.3676933659014
 30
0.0
 11
-28.82679961199938
 21
154.8467488329012
 31
0.0
  0
LINE
  8
OUTLINE
  6
CONTINUOUS
 62
     3
 10
-9.4902985393000563
 20
157.22097262650149
 30
0.0
 11
-12.4829906899995
 21
157.01170320530099
 31
0.0
  0
LINE
  8
OUTLINE
  6
CONTINUOUS
 62
     3
 10
-381.8011776650992
 20
218.70096189430191
 30
0.0
 11
-276.57233405899927
 21
157.94706071180079
 31
0.0
  0
LINE
  8
OUTLINE
  6
CONTINUOUS
 62
     3
 10
-273.9743847978998
 20
156.44713400650181
 30
0.0
 11
-140.16136362539959
 21
79.190150211501333
 31
0.0
  0
LINE
  8
OUTLINE
  6
CONTINUOUS
 62
     3
 10
-137.5635957957993
 20
77.690328255802143
 30
0.0
 11
-137.14900109599969
 21
77.450961894301855
 31
0.0
  0
LINE
  8
OUTLINE
  6
CONTINUOUS
 62
     3
 10
-380.3011776650992
 20
221.29903810560131
 30
0.0
 11
-275.05889239019962
 21
160.53737637200061
 31
0.0
  0
LINE
  8
OUTLINE
  6
CONTINUOUS
 62
     3
 10
-272.46094312909918
 20
159.03744966680171
 30
0.0
 11
-138.6657167479998
 21
81.790739699401257
 31
0.0
  0
LINE
  8
OUTLINE
  6
CONTINUOUS
 62
     3
 10
-136.06794891839951
 20
80.290917743701158
 30
0.0
 11
-135.64900109599969
 21
80.04903810560134
 31
0.0
  0
LINE
  8
OUTLINE
  6
CONTINUOUS
 62
     3
 10
-163.5
 20
-34.999999999999289
 30
0.0
 11
-163.5
 21
9.9293709056007913
 31
0.0
  0
LINE
  8
OUTLINE
  6
CONTINUOUS
 62
     3
 10
-163.5
 20
12.93669659980131
 30
0.0
 11
-163.5
 21
27.30632142800167
 31
0.0
  0
LINE
  8
OUTLINE
  6
CONTINUOUS
 62
     3
 10
-163.5
 20
30.35260126360188
 30
0.0
 11
-163.5
 21
35.000000000000711
 31
0.0
  0
LINE
  8
OUTLINE
  6
CONTINUOUS
 62
     3
 10
-164.5
 20
-34.999999999999289
 30
0.0
 11
-164.5
 21
9.9992977175013777
 31
0.0
  0
LINE
  8
OUTLINE
  6
CONTINUOUS
 62
     3
 10
-164.5
 20
13.00662341180103
 30
0.0
 11
-164.5
 21
27.482648408701412
 31
0.0
  0
LINE
  8
OUTLINE
  6
CONTINUOUS
 62
     3
 10
-164.5
 20
30.528928244301621
 30
0.0
 11
-164.5
 21
35.000000000000711
 31
0.0
  0
LINE
  8
OUTLINE
  6
CONTINUOUS
 62
     3
 10
-361.28726414159968
 20
251.14490392800221
 30
0.0
 11
-261.75536810839913
 21
181.4519200332013
 31
0.0
  0
LINE
  8
OUTLINE
  6
CONTINUOUS
 62
     3
 10
-259.29778302469907
 20
179.7311004318006
 30
0.0
 11
-132.7340610055999
 21
91.110228210100814
 31
0.0
  0
LINE
  8
OUTLINE
  6
CONTINUOUS
 62
     3
 10
-130.27687986889941
 20
89.389691455501435
 30
0.0
 11
-129.87681162999979
 21
89.109560658801257
 31
0.0
  0
LINE
  8
OUTLINE
  6
CONTINUOUS
 62
     3
 10
-359.56653483259919
 20
253.60236006090119
 30
0.0
 11
-260.02121632409938
 21
183.89997764770189
 31
0.0
  0
LINE
  8
OUTLINE
  6
CONTINUOUS
 62
     3
 10
-257.56385002229939
 20
182.17931123910131
 30
0.0
 11
-131.00338099959939
 21
93.560716790001408
 31
0.0
  0
LINE
  8
OUTLINE
  6
CONTINUOUS
 62
     3
 10
-128.54619986289981
 20
91.840180035301074
 30
0.0
 11
-128.15608232089929
 21
91.567016791702173
 31
0.0
  0
LINE
  8
OUTLINE
  6
CONTINUOUS
 62
     3
 10
-188.5
 20
-34.999999999999289
 30
0.0
 11
-188.5
 21
11.67754120420139
 31
0.0
  0
LINE
  8
OUTLINE
  6
CONTINUOUS
 62
     3
 10
-188.5
 20
14.684866898400999
 30
0.0
 11
-188.5
 21
31.714495945700751
 31
0.0
  0
LINE
  8
OUTLINE
  6
CONTINUOUS
 62
     3
 10
-188.5
 20
34.760775781300957
 30
0.0
 11
-188.5
 21
35.000000000000711
 31
0.0
  0
LINE
  8
OUTLINE
  6
CONTINUOUS
 62
     3
 10
-189.5
 20
-34.999999999999289
 30
0.0
 11
-189.5
 21
11.74746801610198
 31
0.0
  0
LINE
  8
OUTLINE
  6
CONTINUOUS
 62
     3
 10
-189.5
 20
14.75479371040163
 30
0.0
 11
-189.5
 21
31.890822926401398
 31
0.0
  0
LINE
  8
OUTLINE
  6
CONTINUOUS
 62
     3
 10
-189.5
 20
34.937102762000713
 30
0.0
 11
-189.5
 21
35.000000000000711
 31
0.0
  0
LINE
  8
OUTLINE
  6
CONTINUOUS
 62
     3
 10
-39.0
 20
193.5000000000006
 30
0.0
 11
-9.0
 21
193.5000000000006
 31
0.0
  0
LINE
  8
OUTLINE
  6
CONTINUOUS
 62
     3
 10
-338.02373638680001
 20
281.67748159740108
 30
0.0
 11
-244.94013860369981
 21
203.5710690288013
 31
0.0
  0
LINE
  8
OUTLINE
  6
CONTINUOUS
 62
     3
 10
-242.64194955249971
 20
201.64265944360139
 30
0.0
 11
-124.2859119488994
 21
102.33015194280119
 31
0.0
  0
LINE
  8
OUTLINE
  6
CONTINUOUS
 62
     3
 10
-121.9875370219997
 20
100.4015863894008
 30
0.0
 11
-121.6161812056998
 21
100.0899818609012
 31
0.0
  0
LINE
  8
OUTLINE
  6
CONTINUOUS
 62
     3
 10
-336.09537355779958
 20
283.97561492670212
 30
0.0
 11
-243.0054997324996
 21
205.86393613360161
 31
0.0
  0
LINE
  8
OUTLINE
  6
CONTINUOUS
 62
     3
 10
-240.70741297919989
 20
203.93561238640069
 30
0.0
 11
-122.3488209081997
 21
104.6209614330008
 31
0.0
  0
LINE
  8
OUTLINE
  6
CONTINUOUS
 62
     3
 10
-120.0508538247996
 20
102.69273810090159
 30
0.0
 11
-119.6878183766994
 21
102.38811519030131
 31
0.0
  0
LINE
  8
OUTLINE
  6
CONTINUOUS
 62
     3
 10
-39.0
 20
196.5000000000006
 30
0.0
 11
-9.0
 21
196.5000000000006
 31
0.0
  0
LINE
  8
OUTLINE
  6
CONTINUOUS
 62
     3
 10
-312.18764389379982
 20
310.06632355030138
 30
0.0
 11
-226.26233502359989
 21
224.14101468000149
 31
0.0
  0
LINE
  8
OUTLINE
  6
CONTINUOUS
 62
     3
 10
-224.1410146799999
 20
222.0196943364015
 30
0.0
 11
-114.88841195959959
 21
112.7670916160012
 31
0.0
  0
LINE
  8
OUTLINE
  6
CONTINUOUS
 62
     3
 10
-112.7670916159996
 20
110.64577127240121
 30
0.0
 11
-112.42997820860001
 21
110.3086578651007
 31
0.0
  0
LINE
  8
OUTLINE
  6
CONTINUOUS
 62
     3
 10
-310.06632355029978
 20
312.18764389380141
 30
0.0
 11
-224.1410146799999
 21
226.26233502360151
 31
0.0
  0
LINE
  8
OUTLINE
  6
CONTINUOUS
 62
     3
 10
-222.01969433639991
 20
224.14101468000149
 30
0.0
 11
-112.7670916159996
 21
114.8884119596012
 31
0.0
  0
LINE
  8
OUTLINE
  6
CONTINUOUS
 62
     3
 10
-110.6457712723995
 20
112.7670916160012
 30
0.0
 11
-110.3086578651
 21
112.4299782086007
 31
0.0
  0
LINE
  8
OUTLINE
  6
CONTINUOUS
 62
     3
 10
-283.97561492669962
 20
336.09537355780122
 30
0.0
 11
-205.86393613359999
 21
243.00549973250119
 31
0.0
  0
LINE
  8
OUTLINE
  6
CONTINUOUS
 62
     3
 10
-203.93561238640001
 20
240.70741297920071
 30
0.0
 11
-104.6209614329991
 21
122.3488209082014
 31
0.0
  0
LINE
  8
OUTLINE
  6
CONTINUOUS
 62
     3
 10
-102.69273810089911
 20
120.0508538248021
 30
0.0
 11
-102.3881151902997
 21
119.687818376701
 31
0.0
  0
LINE
  8
OUTLINE
  6
CONTINUOUS
 62
     3
 10
-281.67748159739949
 20
338.02373638680069
 30
0.0
 11
-203.57106902879971
 21
244.9401386037014
 31
0.0
  0
LINE
  8
OUTLINE
  6
CONTINUOUS
 62
     3
 10
-201.6426594435998
 20
242.6419495525013
 30
0.0
 11
-102.3301519427996
 21
124.285911948901
 31
0.0
  0
LINE
  8
OUTLINE
  6
CONTINUOUS
 62
     3
 10
-100.4015863893992
 20
121.9875370220014
 30
0.0
 11
-100.0899818608996
 21
121.61618120570149
 31
0.0
  0
LINE
  8
OUTLINE
  6
CONTINUOUS
 62
     3
 10
-279.0
 20
-59.999999999999289
 30
0.0
 11
-279.0
 21
18.00591768510165
 31
0.0
  0
LINE
  8
OUTLINE
  6
CONTINUOUS
 62
     3
 10
-279.0
 20
21.013243379301262
 30
0.0
 11
-279.0
 21
47.672087699801317
 31
0.0
  0
LINE
  8
OUTLINE
  6
CONTINUOUS
 62
     3
 10
-279.0
 20
50.718367535401541
 30
0.0
 11
-279.0
 21
60.000000000000711
 31
0.0
  0
LINE
  8
OUTLINE
  6
CONTINUOUS
 62
     3
 10
-280.0
 20
-59.999999999999289
 30
0.0
 11
-280.0
 21
18.075844497001331
 31
0.0
  0
LINE
  8
OUTLINE
  6
CONTINUOUS
 62
     3
 10
-280.0
 20
21.083170191301889
 30
0.0
 11
-280.0
 21
47.848414680501072
 31
0.0
  0
LINE
  8
OUTLINE
  6
CONTINUOUS
 62
     3
 10
-280.0
 20
50.894694516201326
 30
0.0
 11
-280.0
 21
60.000000000000711
 31
0.0
  0
LINE
  8
OUTLINE
  6
CONTINUOUS
 62
     3
 10
-253.6023600608996
 20
359.56653483260078
 30
0.0
 11
-183.89997764769939
 21
260.02121632410189
 31
0.0
  0
LINE
  8
OUTLINE
  6
CONTINUOUS
 62
     3
 10
-182.17931123909969
 20
257.56385002230189
 30
0.0
 11
-93.560716789999788
 21
131.00338099960101
 31
0.0
  0
LINE
  8
OUTLINE
  6
CONTINUOUS
 62
     3
 10
-91.840180035299454
 20
128.5461998629014
 30
0.0
 11
-91.567016791699643
 21
128.15608232090091
 31
0.0
  0
LINE
  8
OUTLINE
  6
CONTINUOUS
 62
     3
 10
-251.14490392799959
 20
361.28726414160133
 30
0.0
 11
-181.45192003319971
 21
261.75536810840163
 31
0.0
  0
LINE
  8
OUTLINE
  6
CONTINUOUS
 62
     3
 10
-179.73110043179989
 20
259.29778302470072
 30
0.0
 11
-91.110228210099194
 21
132.73406100560061
 31
0.0
  0
LINE
  8
OUTLINE
  6
CONTINUOUS
 62
     3
 10
-89.389691455499815
 20
130.27687986890189
 30
0.0
 11
-89.109560658799637
 21
129.87681163000141
 31
0.0
  0
LINE
  8
OUTLINE
  6
CONTINUOUS
 62
     3
 10
-304.0
 20
-59.999999999999289
 30
0.0
 11
-304.0
 21
19.754087983701339
 31
0.0
  0
LINE
  8
OUTLINE
  6
CONTINUOUS
 62
     3
 10
-304.0
 20
22.76141367790186
 30
0.0
 11
-304.0
 21
52.080262217501307
 31
0.0
  0
LINE
  8
OUTLINE
  6
CONTINUOUS
 62
     3
 10
-304.0
 20
55.126542053200673
 30
0.0
 11
-304.0
 21
60.000000000000711
 31
0.0
  0
LINE
  8
OUTLINE
  6
CONTINUOUS
 62
     3
 10
-305.0
 20
-59.999999999999289
 30
0.0
 11
-305.0
 21
19.82401479560102
 31
0.0
  0
LINE
  8
OUTLINE
  6
CONTINUOUS
 62
     3
 10
-305.0
 20
22.831340489900668
 30
0.0
 11
-305.0
 21
52.256589198201972
 31
0.0
  0
LINE
  8
OUTLINE
  6
CONTINUOUS
 62
     3
 10
-305.0
 20
55.302869033902233
 30
0.0
 11
-305.0
 21
60.000000000000711
 31
0.0
  0
LINE
  8
OUTLINE
  6
CONTINUOUS
 62
     3
 10
-221.29903810559969
 20
380.30117766510079
 30
0.0
 11
-160.5373763719999
 21
275.05889239020212
 31
0.0
  0
LINE
  8
OUTLINE
  6
CONTINUOUS
 62
     3
 10
-159.03744966679909
 20
272.46094312910168
 30
0.0
 11
-81.790739699399637
 21
138.6657167480013
 31
0.0
  0
LINE
  8
OUTLINE
  6
CONTINUOUS
 62
     3
 10
-80.290917743699538
 20
136.06794891840099
 30
0.0
 11
-80.04903810559972
 21
135.6490010960012
 31
0.0
  0
LINE
  8
OUTLINE
  6
CONTINUOUS
 62
     3
 10
-218.7009618942993
 20
381.80117766510079
 30
0.0
 11
-157.9470607117992
 21
276.57233405900178
 31
0.0
  0
LINE
  8
OUTLINE
  6
CONTINUOUS
 62
     3
 10
-156.44713400649931
 20
273.97438479790139
 30
0.0
 11
-79.190150211499713
 21
140.16136362540121
 31
0.0
  0
LINE
  8
OUTLINE
  6
CONTINUOUS
 62
     3
 10
-77.690328255799614
 20
137.56359579580081
 30
0.0
 11
-77.450961894299326
 21
137.1490010960012
 31
0.0
  0
LINE
  8
OUTLINE
  6
CONTINUOUS
 62
     3
 10
-187.31149684639971
 20
398.14149890350092
 30
0.0
 11
-135.95366436939909
 21
288.00427173420098
 31
0.0
  0
LINE
  8
OUTLINE
  6
CONTINUOUS
 62
     3
 10
-134.68588209679911
 20
285.28550387680178
 30
0.0
 11
-69.396813856499648
 21
145.27264520200211
 31
0.0
  0
LINE
  8
OUTLINE
  6
CONTINUOUS
 62
     3
 10
-68.128758322799513
 20
142.55329133430101
 30
0.0
 11
-67.921837904699714
 21
142.1095490656013
 31
0.0
  0
LINE
  8
OUTLINE
  6
CONTINUOUS
 62
     3
 10
-184.592573485299
 20
399.40935368870191
 30
0.0
 11
-133.23877152279971
 21
289.280769985701
 31
0.0
  0
LINE
  8
OUTLINE
  6
CONTINUOUS
 62
     3
 10
-131.97098925019961
 20
286.56200212830191
 30
0.0
 11
-66.671078312299869
 21
146.52589121330189
 31
0.0
  0
LINE
  8
OUTLINE
  6
CONTINUOUS
 62
     3
 10
-65.403341083699161
 20
143.8072199533014
 30
0.0
 11
-65.202914543599036
 21
143.3774038508015
 31
0.0
  0
LINE
  8
OUTLINE
  6
CONTINUOUS
 62
     3
 10
-151.89840199439911
 20
412.951722930801
 30
0.0
 11
-110.33564272469989
 21
298.75898034700072
 31
0.0
  0
LINE
  8
OUTLINE
  6
CONTINUOUS
 62
     3
 10
-109.3096454431998
 20
295.9400759835014
 30
0.0
 11
-56.46779317939945
 21
150.75828008670089
 31
0.0
  0
LINE
  8
OUTLINE
  6
CONTINUOUS
 62
     3
 10
-55.44169210759901
 20
147.93909056170071
 30
0.0
 11
-55.277711504899337
 21
147.488557558802
 31
0.0
  0
LINE
  8
OUTLINE
  6
CONTINUOUS
 62
     3
 10
-149.0793241320998
 20
413.9777833607011
 30
0.0
 11
-107.5177800575993
 21
299.78837949860173
 31
0.0
  0
LINE
  8
OUTLINE
  6
CONTINUOUS
 62
     3
 10
-106.4917827760992
 20
296.96947513510139
 30
0.0
 11
-53.647099584999523
 21
151.7799013293012
 31
0.0
  0
LINE
  8
OUTLINE
  6
CONTINUOUS
 62
     3
 10
-52.621074013099133
 20
148.96091923860209
 30
0.0
 11
-52.458633642599118
 21
148.51461798870119
 31
0.0
  0
CIRCLE
  8
OUTLINE
  6
CONTINUOUS
 62
     3
 10
-176.5
 20
-22.499999999999289
 30
0.0
 40
2.5
  0
ARC
  8
OUTLINE
  6
CONTINUOUS
 62
     3
 10
0.0
 20
0.0000000000005969
 30
0.0
 40
444.5
 50
93.499999999931177
 51
176.49999999998991
  0
ARC
  8
OUTLINE
  6
CONTINUOUS
 62
     3
 10
0.0
 20
0.0000000000005969
 30
0.0
 40
441.5
 50
93.499999999931177
 51
176.49999999998991
  0
ARC
  8
OUTLINE
  6
CONTINUOUS
 62
     3
 10
0.0
 20
0.0000000000005969
 30
0.0
 40
318.5
 50
90.249999999991559
 51
179.7500000000085
  0
ARC
  8
OUTLINE
  6
CONTINUOUS
 62
     3
 10
0.0
 20
0.0000000000005969
 30
0.0
 40
315.5
 50
90.249999999991559
 51
179.7500000000085
  0
ARC
  8
OUTLINE
  6
CONTINUOUS
 62
     3
 10
0.0
 20
0.0000000000005969
 30
0.0
 40
161.0
 50
90.600000000032722
 51
179.39999999999341
  0
ARC
  8
OUTLINE
  6
CONTINUOUS
 62
     3
 10
0.0
 20
0.0000000000005969
 30
0.0
 40
158.0
 50
90.600000000032722
 51
179.39999999999341
  0
CIRCLE
  8
OUTLINE
  6
CONTINUOUS
 62
     3
 10
-176.5
 20
22.500000000000711
 30
0.0
 40
2.5
  0
CIRCLE
  8
OUTLINE
  6
CONTINUOUS
 62
     3
 10
-292.0
 20
-19.999999999999289
 30
0.0
 40
3.0
  0
CIRCLE
  8
OUTLINE
  6
CONTINUOUS
 62
     3
 10
-292.0
 20
-39.999999999999289
 30
0.0
 40
2.5
  0
CIRCLE
  8
OUTLINE
  6
CONTINUOUS
 62
     3
 10
-292.0
 20
40.000000000000711
 30
0.0
 40
2.5
  0
ARC
  8
OUTLINE
  6
CONTINUOUS
 62
     3
 10
-438.92818211429949
 20
30.692848447401762
 30
0.0
 40
1.5
 50
86.000000000016598
 51
266.0000000000166
  0
ARC
  8
OUTLINE
  6
CONTINUOUS
 62
     3
 10
-433.31541132529952
 20
76.405198173401715
 30
0.0
 40
1.5
 50
79.999999999941963
 51
259.99999999994202
  0
ARC
  8
OUTLINE
  6
CONTINUOUS
 62
     3
 10
-425.00736356709967
 20
113.8803798451015
 30
0.0
 40
1.5
 50
75.000000000005542
 51
255.0000000000056
  0
ARC
  8
OUTLINE
  6
CONTINUOUS
 62
     3
 10
-413.46475314579948
 20
150.48886306330201
 30
0.0
 40
1.5
 50
70.000000000010203
 51
250.0000000000102
  0
ARC
  8
OUTLINE
  6
CONTINUOUS
 62
     3
 10
-398.77542629609979
 20
185.95203516590189
 30
0.0
 40
1.5
 50
65.000000000021814
 51
245.0000000000218
  0
ARC
  8
OUTLINE
  6
CONTINUOUS
 62
     3
 10
-30.692848447399228
 20
438.92818211430199
 30
0.0
 40
1.5
 50
4.0000000000095079
 51
184.00000000000949
  0
ARC
  8
OUTLINE
  6
CONTINUOUS
 62
     3
 10
-76.405198173399185
 20
433.31541132530111
 30
0.0
 40
1.5
 50
10.00000000001832
 51
190.0000000000183
  0
ARC
  8
OUTLINE
  6
CONTINUOUS
 62
     3
 10
-113.880379845099
 20
425.00736356710041
 30
0.0
 40
1.5
 50
14.999999999994451
 51
194.9999999999944
  0
ARC
  8
OUTLINE
  6
CONTINUOUS
 62
     3
 10
-150.4888630632995
 20
413.46475314580198
 30
0.0
 40
1.5
 50
19.999999999987711
 51
199.99999999998769
  0
ARC
  8
OUTLINE
  6
CONTINUOUS
 62
     3
 10
-185.95203516589939
 20
398.77542629610139
 30
0.0
 40
1.5
 50
25.000000000010761
 51
205.00000000001069
  0
ARC
  8
OUTLINE
  6
CONTINUOUS
 62
     3
 10
-220.0
 20
381.05117766510079
 30
0.0
 40
1.5
 50
30.000000000024421
 51
210.00000000002439
  0
ARC
  8
OUTLINE
  6
CONTINUOUS
 62
     3
 10
-252.37363199439909
 20
360.42689948710063
 30
0.0
 40
1.5
 50
35.000000000019512
 51
215.0000000000195
  0
ARC
  8
OUTLINE
  6
CONTINUOUS
 62
     3
 10
-381.0511776650992
 20
220.00000000000071
 30
0.0
 40
1.5
 50
60.000000000000277
 51
240.0000000000002
  0
ARC
  8
OUTLINE
  6
CONTINUOUS
 62
     3
 10
-282.82654826199911
 20
337.05955497230087
 30
0.0
 40
1.5
 50
40.000000000001343
 51
220.00000000000131
  0
ARC
  8
OUTLINE
  6
CONTINUOUS
 62
     3
 10
-360.42689948709989
 20
252.3736319944008
 30
0.0
 40
1.5
 50
55.000000000018908
 51
235.0000000000189
  0
ARC
  8
OUTLINE
  6
CONTINUOUS
 62
     3
 10
-311.12698372199969
 20
311.12698372200128
 30
0.0
 40
1.5
 50
44.999999999990777
 51
224.99999999999079
  0
ARC
  8
OUTLINE
  6
CONTINUOUS
 62
     3
 10
-337.05955497229928
 20
282.82654826200161
 30
0.0
 40
1.5
 50
50.000000000013671
 51
230.0000000000137
  0
LINE
  8
BASIS
  6
DASHDOT
 62
     6
 39
50.0
 10
0.0
 20
-513.34484325882545
 30
0.0
 11
0.0
 21
520.93673353842246
 31
0.0
  0
LINE
  8
BASIS
  6
DASHDOT
 62
     6
 39
50.0
 10
-524.31175207490742
 20
0.0000000000000284
 30
0.0
 11
559.13786278829502
 21
0.0000000000000284
 31
0.0
  0
LINE
  8
SIZE
  6
CONTINUOUS
 62
    30
 10
-601.5358456797137
 20
-388.31709906159853
 30
0.0
 11
-383.52876052385818
 21
-247.58420759618861
 31
0.0
  0
LINE
  8
SIZE
  6
CONTINUOUS
 62
    30
 10
383.52876052385972
 20
247.5842075961898
 30
0.0
 11
393.61056802941567
 21
254.09244525479721
 31
0.0
  0
TEXT
  8
SIZE
  6
CONTINUOUS
 62
    30
 10
-607.67542398319995
 20
-362.52389034044654
 30
0.0
 40
64.0
  1
φ889
 50
32.843971283555618
 41
0.9
 51
0.0
  7
STANDARD
 71
     0
 72
     1
 11
-511.13203530999584
 21
-300.20100652162233
 31
0.0
210
0.0
220
0.0
230
1.0
  0
LINE
  8
SIZE
  6
CONTINUOUS
 62
    30
 10
373.44695301830382
 20
241.0759699375825
 30
0.0
 11
-373.44695301830222
 21
-241.07596993758119
 31
0.0
  0
CIRCLE
  8
SIZE
  6
CONTINUOUS
 62
    30
 10
373.44695301830382
 20
241.0759699375825
 30
0.0
 40
6.0
  0
LINE
  8
SIZE
  6
CONTINUOUS
 62
    30
 10
373.44695301830382
 20
241.0759699375825
 30
0.0
 11
383.52876052385977
 21
247.58420759618986
 31
0.0
  0
CIRCLE
  8
SIZE
  6
CONTINUOUS
 62
    30
 10
-373.44695301830222
 20
-241.07596993758119
 30
0.0
 40
6.0
  0
LINE
  8
SIZE
  6
CONTINUOUS
 62
    30
 10
-373.44695301830222
 20
-241.07596993758119
 30
0.0
 11
-383.52876052385818
 21
-247.58420759618858
 31
0.0
  0
POINT
  8
DEFPOINTS
  6
CONTINUOUS
 62
    30
 10
-373.44695301830222
 20
-241.07596993758119
 30
0.0
  0
POINT
  8
DEFPOINTS
  6
CONTINUOUS
 62
    30
 10
373.44695301830382
 20
241.0759699375825
 30
0.0
  0
TEXT
  8
ETC
  6
CONTINUOUS
 62
    61
 10
302.46841700707768
 20
601.12228344850905
 30
0.0
 40
64.0
  1
G-70ED3_3
 41
0.9
  0
TEXT
  8
ETC
  6
CONTINUOUS
 62
    61
 10
300.26000600707772
 20
500.48123744850892
 30
0.0
 40
64.0
  1
システム部材
 41
0.9
  0
TEXT
  8
ETC
  6
CONTINUOUS
 62
    61
 10
440.50428116431613
 20
414.93727418401181
 30
0.0
 40
50.0
  1
G-70ED3
 41
0.9
  0
LINE
  8
SIZE
  6
CONTINUOUS
 62
    30
 10
-547.59334139336102
 20
409.19622555159242
 30
0.0
 11
-136.17869901497201
 21
101.7612988055387
 31
0.0
  0
LINE
  8
SIZE
  6
CONTINUOUS
 62
    30
 10
136.17869901497099
 20
-101.7612988055366
 30
0.0
 11
145.79131306308659
 21
-108.9444493094569
 31
0.0
  0
TEXT
  8
SIZE
  6
CONTINUOUS
 62
    30
 10
-525.33475916530438
 20
423.77220385995395
 30
0.0
 40
64.0
  1
φ316
 50
323.23059932581884
 41
0.9
 51
0.0
  7
STANDARD
 71
     0
 72
     1
 11
-437.89842178364478
 21
358.434266876295
 31
0.0
210
0.0
220
0.0
230
1.0
  0
LINE
  8
SIZE
  6
CONTINUOUS
 62
    30
 10
126.5660849668554
 20
-94.578148301616281
 30
0.0
 11
-126.56608496685629
 21
94.578148301618398
 31
0.0
  0
CIRCLE
  8
SIZE
  6
CONTINUOUS
 62
    30
 10
126.5660849668554
 20
-94.578148301616281
 30
0.0
 40
6.0
  0
LINE
  8
SIZE
  6
CONTINUOUS
 62
    30
 10
126.5660849668554
 20
-94.578148301616281
 30
0.0
 11
136.17869901497102
 21
-101.76129880553657
 31
0.0
  0
CIRCLE
  8
SIZE
  6
CONTINUOUS
 62
    30
 10
-126.56608496685629
 20
94.578148301618398
 30
0.0
 40
6.0
  0
LINE
  8
SIZE
  6
CONTINUOUS
 62
    30
 10
-126.56608496685629
 20
94.578148301618398
 30
0.0
 11
-136.1786990149719
 21
101.7612988055387
 31
0.0
  0
ARC
  8
SIZE
  6
CONTINUOUS
 62
    30
 10
-0.0000000000004523
 20
0.0000000000010565
 30
0.0
 40
158.00000000000031
 50
135.9779690077072
 51
262.14736968185559
  0
POINT
  8
DEFPOINTS
  6
CONTINUOUS
 62
    30
 10
-126.56608496685629
 20
94.578148301618398
 30
0.0
  0
POINT
  8
DEFPOINTS
  6
CONTINUOUS
 62
    30
 10
126.5660849668554
 20
-94.578148301616281
 30
0.0
  0
ENDSEC
  0
EOF
