  0
SECTION
  2
HEADER
  9
$ACADVER
  1
AC1009
  9
$DWGCODEPAGE
  3
dos932
  9
$INSBASE
 10
0.0
 20
0.0
 30
0.0
  9
$EXTMIN
 10
-644.43052545472892
 20
-395.09581343165701
 30
-0.0000000349181948
  9
$EXTMAX
 10
1220.8831905048371
 20
547.30225406505815
 30
0.0000000814935746
  9
$LIMMIN
 10
-2970.0
 20
-2100.0
  9
$LIMMAX
 10
2970.0
 20
2100.0
  9
$ORTHOMODE
 70
     1
  9
$REGENMODE
 70
     1
  9
$FILLMODE
 70
     1
  9
$QTEXTMODE
 70
     0
  9
$MIRRTEXT
 70
     0
  9
$LTSCALE
 40
20.0
  9
$ATTMODE
 70
     1
  9
$TEXTSIZE
 40
64.0
  9
$TRACEWID
 40
0.05
  9
$TEXTSTYLE
  7
STANDARD
  9
$CLAYER
  8
SIZE
  9
$CELTYPE
  6
CONTINUOUS
  9
$CECOLOR
 62
     7
  9
$DIMSCALE
 40
1.0
  9
$DIMASZ
 40
12.0
  9
$DIMEXO
 40
20.0
  9
$DIMDLI
 40
200.0
  9
$DIMRND
 40
0.0
  9
$DIMDLE
 40
0.0
  9
$DIMEXE
 40
20.0
  9
$DIMTP
 40
0.0
  9
$DIMTM
 40
0.0
  9
$DIMTXT
 40
64.0
  9
$DIMCEN
 40
0.09
  9
$DIMTSZ
 40
0.0
  9
$DIMTOL
 70
     0
  9
$DIMLIM
 70
     0
  9
$DIMTIH
 70
     0
  9
$DIMTOH
 70
     0
  9
$DIMSE1
 70
     0
  9
$DIMSE2
 70
     0
  9
$DIMTAD
 70
     1
  9
$DIMZIN
 70
     8
  9
$DIMBLK
  1

  9
$DIMASO
 70
     1
  9
$DIMSHO
 70
     0
  9
$DIMPOST
  1

  9
$DIMAPOST
  1

  9
$DIMALT
 70
     0
  9
$DIMALTD
 70
     2
  9
$DIMALTF
 40
25.399999999999999
  9
$DIMLFAC
 40
1.0
  9
$DIMTOFL
 70
     1
  9
$DIMTVP
 40
0.0
  9
$DIMTIX
 70
     1
  9
$DIMSOXD
 70
     0
  9
$DIMSAH
 70
     0
  9
$DIMBLK1
  1

  9
$DIMBLK2
  1

  9
$DIMSTYLE
  2
STANDARD
  9
$DIMCLRD
 70
     7
  9
$DIMCLRE
 70
     7
  9
$DIMCLRT
 70
     7
  9
$DIMTFAC
 40
1.0
  9
$DIMGAP
 40
25.0
  9
$LUNITS
 70
     2
  9
$LUPREC
 70
     4
  9
$SKETCHINC
 40
0.1
  9
$FILLETRAD
 40
3.0
  9
$AUNITS
 70
     1
  9
$AUPREC
 70
     3
  9
$MENU
  1
ACAD
  9
$ELEVATION
 40
0.0
  9
$PELEVATION
 40
0.0
  9
$THICKNESS
 40
0.0
  9
$LIMCHECK
 70
     0
  9
$CHAMFERA
 40
0.0
  9
$CHAMFERB
 40
0.0
  9
$SKPOLY
 70
     0
  9
$TDCREATE
 40
2453019.62301037
  9
$TDUPDATE
 40
2458982.414594271
  9
$TDINDWG
 40
1.713175706
  9
$TDUSRTIMER
 40
1.713175706
  9
$USRTIMER
 70
     1
  9
$ANGBASE
 50
0.0
  9
$ANGDIR
 70
     0
  9
$PDMODE
 70
     3
  9
$PDSIZE
 40
-2.0
  9
$PLINEWID
 40
0.0
  9
$SPLFRAME
 70
     0
  9
$SPLINETYPE
 70
     6
  9
$SPLINESEGS
 70
     8
  9
$SURFTAB1
 70
     6
  9
$SURFTAB2
 70
     6
  9
$SURFTYPE
 70
     6
  9
$SURFU
 70
     6
  9
$SURFV
 70
     6
  9
$UCSNAME
  2

  9
$UCSORG
 10
0.0
 20
0.0
 30
0.0
  9
$UCSXDIR
 10
1.0
 20
0.0
 30
0.0
  9
$UCSYDIR
 10
0.0
 20
1.0
 30
0.0
  9
$PUCSNAME
  2

  9
$PUCSORG
 10
0.0
 20
0.0
 30
0.0
  9
$PUCSXDIR
 10
1.0
 20
0.0
 30
0.0
  9
$PUCSYDIR
 10
0.0
 20
1.0
 30
0.0
  9
$USERI1
 70
     0
  9
$USERI2
 70
     0
  9
$USERI3
 70
     0
  9
$USERI4
 70
     0
  9
$USERI5
 70
     0
  9
$USERR1
 40
20.0
  9
$USERR2
 40
0.0
  9
$USERR3
 40
0.0
  9
$USERR4
 40
0.0
  9
$USERR5
 40
0.0
  9
$WORLDVIEW
 70
     1
  9
$SHADEDGE
 70
     3
  9
$SHADEDIF
 70
    70
  9
$TILEMODE
 70
     1
  9
$MAXACTVP
 70
    48
  9
$PINSBASE
 10
0.0
 20
0.0
 30
0.0
  9
$PLIMCHECK
 70
     0
  9
$PEXTMIN
 10
-100000000000000000000.0
 20
-100000000000000000000.0
 30
-100000000000000000000.0
  9
$PEXTMAX
 10
100000000000000000000.0
 20
100000000000000000000.0
 30
100000000000000000000.0
  9
$PLIMMIN
 10
0.0
 20
0.0
  9
$PLIMMAX
 10
12.0
 20
9.0
  9
$UNITMODE
 70
     0
  9
$VISRETAIN
 70
     0
  9
$PLINEGEN
 70
     0
  9
$PSLTSCALE
 70
     0
  9
$TREEDEPTH
 70
  3020
  9
$ATTDIA
 70
     0
  9
$ATTREQ
 70
     1
  9
$BLIPMODE
 70
     1
  9
$COORDS
 70
     1
  9
$DRAGMODE
 70
     2
  9
$OSMODE
 70
     0
  9
$HANDLING
 70
     0
  9
$HANDSEED
  5
EEE5
  0
ENDSEC
  0
SECTION
  2
TABLES
  0
TABLE
  2
LTYPE
 70
     2
  0
LTYPE
  2
CONTINUOUS
 70
     0
  3
実線
 72
    65
 73
     0
 40
0.0
  0
LTYPE
  2
DASHDOT
 70
     0
  3
____ _ ____ _ ____ _ ____ _ ____ _ ____ _ ____
 72
    65
 73
     4
 40
5.5
 49
4.0
 49
-0.6
 49
0.3
 49
-0.6
  0
ENDTAB
  0
TABLE
  2
LAYER
 70
    12
  0
LAYER
  2
0
 70
     0
 62
     7
  6
CONTINUOUS
  0
LAYER
  2
BASIS
 70
     0
 62
     6
  6
DASHDOT
  0
LAYER
  2
OUTLINE
 70
     0
 62
     3
  6
CONTINUOUS
  0
LAYER
  2
DETAIL
 70
     0
 62
     5
  6
CONTINUOUS
  0
LAYER
  2
SIZE
 70
     0
 62
    30
  6
CONTINUOUS
  0
LAYER
  2
ARRANGE
 70
     0
 62
     1
  6
CONTINUOUS
  0
LAYER
  2
DEFPOINTS
 70
     0
 62
     7
  6
CONTINUOUS
  0
LAYER
  2
ETC
 70
     0
 62
    61
  6
CONTINUOUS
  0
LAYER
  2
FIX
 70
     0
 62
    11
  6
CONTINUOUS
  0
LAYER
  2
NOTE
 70
     0
 62
     4
  6
CONTINUOUS
  0
LAYER
  2
SERVICESPACE
 70
    64
 62
     2
  6
DASHDOT
  0
LAYER
  2
SYMBOLLINE
 70
    64
 62
    15
  6
CONTINUOUS
  0
ENDTAB
  0
TABLE
  2
STYLE
 70
     1
  0
STYLE
  2
STANDARD
 70
     0
 40
64.0
 41
0.9
 50
0.0
 71
     0
 42
64.0
  3
SIMPLEX.shx
  4
BIGFONT.shx
  0
ENDTAB
  0
TABLE
  2
APPID
 70
    19
  0
APPID
  2
ACAD
 70
     0
  0
APPID
  2
AUTOCAD_POSTSCRIPT_FIGURE
 70
     0
  0
APPID
  2
ACAD_EXEMPT_FROM_CAD_STANDARDS
 70
     0
  0
APPID
  2
ACAD_PSEXT
 70
     0
  0
APPID
  2
ACAUTHENVIRON
 70
     0
  0
APPID
  2
GENIUS_GENOENT_13
 70
     0
  0
APPID
  2
GENIUS_GENCFG_13
 70
     0
  0
APPID
  2
GENIUS_GENCFG0_13
 70
     0
  0
APPID
  2
GENIUS_GENCFG1_13
 70
     0
  0
APPID
  2
GENIUS_GENCFG2_13
 70
     0
  0
APPID
  2
GENIUS_GENCFG3_13
 70
     0
  0
APPID
  2
GENIUS_GENCFG4_13
 70
     0
  0
APPID
  2
GENIUS_GEVCFG0_13
 70
     0
  0
APPID
  2
CONTENTBLOCKICON
 70
     0
  0
APPID
  2
CONTENTBLOCKDESCRIPTION
 70
     0
  0
APPID
  2
ACAD_NAV_VCDISPLAY
 70
     0
  0
APPID
  2
ACAD_MLEADERVER
 70
     0
  0
APPID
  2
ACDBDYNAMICBLOCKTRUENAME
 70
     0
  0
APPID
  2
ACDBDYNAMICBLOCKGUID
 70
     0
  0
ENDTAB
  0
TABLE
  2
DIMSTYLE
 70
     1
  0
DIMSTYLE
  2
STANDARD
 70
     0
  3

  4

  5
_ORIGIN
  6

  7

 40
1.0
 41
12.0
 42
20.0
 43
200.0
 44
20.0
 45
0.0
 46
0.0
 47
0.0
 48
0.0
140
64.0
141
0.09
142
0.0
143
25.399999999999999
144
1.0
145
0.0
146
1.0
147
25.0
 71
     0
 72
     0
 73
     0
 74
     0
 75
     0
 76
     0
 77
     1
 78
     8
170
     0
171
     2
172
     1
173
     0
174
     1
175
     0
176
     7
177
     7
178
     7
  0
ENDTAB
  0
TABLE
  2
VIEW
 70
     1
  0
VIEW
  2
ALL
 70
     0
 40
4282.6198079999986
 10
0.0
 20
41.309904000000003
 41
5940.0
 11
0.0
 21
0.0
 31
1.0
 12
0.0
 22
0.0
 32
0.0
 42
50.0
 43
0.0
 44
0.0
 50
0.0
 71
     0
  0
ENDTAB
  0
TABLE
  2
UCS
 70
     0
  0
ENDTAB
  0
TABLE
  2
VPORT
 70
     1
  0
VPORT
  2
*ACTIVE
 70
     0
 10
0.0
 20
0.0
 11
1.0
 21
1.0
 12
288.22633252505432
 22
76.103220316700515
 13
0.0
 23
0.0
 14
1.0
 24
1.0
 15
0.0
 25
0.0
 16
0.0
 26
0.0
 36
1.0
 17
0.0
 27
0.0
 37
0.0
 40
1071.2911267662059
 41
1.747787610619469
 42
50.0
 43
0.0
 44
0.0
 50
0.0
 51
0.0
 71
     0
 72
  1000
 73
     1
 74
     3
 75
     0
 76
     0
 77
     0
 78
     0
  0
ENDTAB
  0
ENDSEC
  0
SECTION
  2
BLOCKS
  0
BLOCK
  8
0
  2
_ORIGIN
 70
     0
 10
0.0
 20
0.0
 30
0.0
  3
_ORIGIN
  1
_ORIGIN
  0
CIRCLE
  8
0
  6
CONTINUOUS
 62
     7
 10
0.0
 20
0.0
 30
0.0
 40
0.5
  0
LINE
  8
0
  6
CONTINUOUS
 62
     7
 10
0.0
 20
0.0
 30
0.0
 11
-1.0
 21
0.0
 31
0.0
  0
ENDBLK
  8
0
  0
ENDSEC
  0
SECTION
  2
ENTITIES
  0
LINE
  8
DETAIL
  6
CONTINUOUS
 62
     5
 10
-385.40044104547093
 20
-215.50034378360991
 30
0.0
 11
-430.00092585367662
 21
-215.50034378360991
 31
0.0
  0
LINE
  8
DETAIL
  6
CONTINUOUS
 62
     5
 10
-385.40044104547093
 20
-64.499722016113765
 30
0.0
 11
-430.00092585367662
 21
-64.499722016113765
 31
0.0
  0
LINE
  8
DETAIL
  6
CONTINUOUS
 62
     5
 10
-385.40044104547093
 20
-216.00003289986171
 30
0.0
 11
-385.40044104547093
 21
-204.50003289986171
 31
0.0
  0
LINE
  8
DETAIL
  6
CONTINUOUS
 62
     5
 10
-385.40044104547093
 20
-201.50003289986171
 30
0.0
 11
-385.40044104547093
 21
-191.50003289986171
 31
0.0
  0
LINE
  8
DETAIL
  6
CONTINUOUS
 62
     5
 10
-385.40044104547093
 20
-188.50003289986171
 30
0.0
 11
-385.40044104547093
 21
-178.50003289986171
 31
0.0
  0
LINE
  8
DETAIL
  6
CONTINUOUS
 62
     5
 10
-385.40044104547093
 20
-64.000032899861708
 30
0.0
 11
-385.40044104547093
 21
-73.554832534008256
 31
0.0
  0
LINE
  8
DETAIL
  6
CONTINUOUS
 62
     5
 10
-385.40044104547093
 20
-76.554832534008256
 30
0.0
 11
-385.40044104547093
 21
-86.420761836100155
 31
0.0
  0
LINE
  8
DETAIL
  6
CONTINUOUS
 62
     5
 10
-385.40044104547093
 20
-89.42076183610061
 30
0.0
 11
-385.40044104547093
 21
-97.500032899861708
 31
0.0
  0
LINE
  8
DETAIL
  6
CONTINUOUS
 62
     5
 10
430.00197790263883
 20
-63.346048913913137
 30
0.0
 11
430.00197790263883
 21
-216.6539937547316
 31
0.0
  0
LINE
  8
DETAIL
  6
CONTINUOUS
 62
     5
 10
386.20294104547253
 20
-64.000032899861708
 30
0.0
 11
386.20294104547253
 21
-64.499722016113765
 31
0.0
  0
LINE
  8
DETAIL
  6
CONTINUOUS
 62
     5
 10
385.40294104546962
 20
-215.50034378360991
 30
0.0
 11
430.00342585367798
 21
-215.50034378360991
 31
0.0
  0
LINE
  8
DETAIL
  6
CONTINUOUS
 62
     5
 10
385.40294104546962
 20
-64.499722016113765
 30
0.0
 11
430.00342585367798
 21
-64.499722016113765
 31
0.0
  0
LINE
  8
DETAIL
  6
CONTINUOUS
 62
     5
 10
385.40294104546962
 20
-216.00003289986171
 30
0.0
 11
385.40294104546962
 21
-204.50003289986171
 31
0.0
  0
LINE
  8
DETAIL
  6
CONTINUOUS
 62
     5
 10
385.40294104546962
 20
-201.50003289986171
 30
0.0
 11
385.40294104546962
 21
-191.50003289986171
 31
0.0
  0
LINE
  8
DETAIL
  6
CONTINUOUS
 62
     5
 10
385.40294104546962
 20
-188.50003289986171
 30
0.0
 11
385.40294104546962
 21
-178.50003289986171
 31
0.0
  0
LINE
  8
DETAIL
  6
CONTINUOUS
 62
     5
 10
385.40294104546962
 20
-64.000032899861708
 30
0.0
 11
385.40294104546962
 21
-73.554832534008256
 31
0.0
  0
LINE
  8
DETAIL
  6
CONTINUOUS
 62
     5
 10
385.40294104546962
 20
-76.554832534008256
 30
0.0
 11
385.40294104546962
 21
-86.420761836100155
 31
0.0
  0
LINE
  8
DETAIL
  6
CONTINUOUS
 62
     5
 10
385.40294104546962
 20
-89.42076183610061
 30
0.0
 11
385.40294104546962
 21
-97.500032899861708
 31
0.0
  0
LINE
  8
DETAIL
  6
CONTINUOUS
 62
     5
 10
-430.00092585367662
 20
-188.50003289986171
 30
0.0
 11
430.00157491621388
 21
-188.50003289986171
 31
0.0
  0
LINE
  8
DETAIL
  6
CONTINUOUS
 62
     5
 10
-430.00092585367662
 20
-191.50003289986171
 30
0.0
 11
430.00157491621388
 21
-191.50003289986171
 31
0.0
  0
LINE
  8
DETAIL
  6
CONTINUOUS
 62
     5
 10
-430.00092585367662
 20
-201.50003289986171
 30
0.0
 11
430.00157491621388
 21
-201.50003289986171
 31
0.0
  0
LINE
  8
DETAIL
  6
CONTINUOUS
 62
     5
 10
-430.00092585367662
 20
-204.50003289986171
 30
0.0
 11
430.00157491621388
 21
-204.50003289986171
 31
0.0
  0
LINE
  8
DETAIL
  6
CONTINUOUS
 62
     5
 10
-430.00092585367662
 20
-73.554832534008256
 30
0.0
 11
430.00157491621388
 21
-73.554832534008256
 31
0.0
  0
LINE
  8
DETAIL
  6
CONTINUOUS
 62
     5
 10
-430.00092585367662
 20
-76.554832534008256
 30
0.0
 11
430.00157491621388
 21
-76.554832534008256
 31
0.0
  0
LINE
  8
DETAIL
  6
CONTINUOUS
 62
     5
 10
-430.00092585367662
 20
-86.420761836100155
 30
0.0
 11
430.00157491621388
 21
-86.420761836100155
 31
0.0
  0
LINE
  8
DETAIL
  6
CONTINUOUS
 62
     5
 10
-430.00092585367662
 20
-89.420761836100155
 30
0.0
 11
430.00157491621388
 21
-89.420761836100155
 31
0.0
  0
LINE
  8
DETAIL
  6
CONTINUOUS
 62
     5
 10
445.0015749162103
 20
-216.6539937547316
 30
0.0
 11
430.00197790263883
 21
-216.6539937547316
 31
0.0
  0
LINE
  8
DETAIL
  6
CONTINUOUS
 62
     5
 10
430.0015749162103
 20
-216.00003289986171
 30
0.0
 11
-430.00092585367662
 21
-216.00003289986171
 31
0.0
  0
LINE
  8
DETAIL
  6
CONTINUOUS
 62
     5
 10
430.00157491621388
 20
-64.000032899861708
 30
0.0
 11
-430.00132884010509
 21
-64.000032899861708
 31
0.0
  0
LINE
  8
DETAIL
  6
CONTINUOUS
 62
     5
 10
-445.00092585367662
 20
-216.6539937547316
 30
0.0
 11
-429.99947790263923
 21
-216.6539937547316
 31
0.0
  0
LINE
  8
DETAIL
  6
CONTINUOUS
 62
     5
 10
-430.00092585367662
 20
-216.6539937547316
 30
0.0
 11
-430.00000000000182
 21
-140.25003289986529
 31
0.0
  0
LINE
  8
DETAIL
  6
CONTINUOUS
 62
     5
 10
-455.00092585367662
 20
-40.000032899861708
 30
0.0
 11
-455.00092585367662
 21
-240.00003289986171
 31
0.0
  0
LINE
  8
DETAIL
  6
CONTINUOUS
 62
     5
 10
-445.00092585367662
 20
-35.000032899861708
 30
0.0
 11
-445.00092585367662
 21
-245.00003289986171
 31
0.0
  0
LINE
  8
DETAIL
  6
CONTINUOUS
 62
     5
 10
450.00157491620848
 20
-245.00003289986171
 30
0.0
 11
-450.00092585367662
 21
-245.00003289986171
 31
0.0
  0
ARC
  8
DETAIL
  6
CONTINUOUS
 62
     5
 10
-450.00092585367662
 20
-240.00003289986171
 30
0.0
 40
5.0
 50
180.0
 51
270.0
  0
LINE
  8
DETAIL
  6
CONTINUOUS
 62
     5
 10
450.0015749162103
 20
-35.000032899861708
 30
0.0
 11
-450.00092585367662
 21
-35.000032899861708
 31
0.0
  0
ARC
  8
DETAIL
  6
CONTINUOUS
 62
     5
 10
-450.00092585367662
 20
-40.000032899861708
 30
0.0
 40
5.0
 50
90.0
 51
180.0
  0
ARC
  8
DETAIL
  6
CONTINUOUS
 62
     5
 10
-426.60092585367778
 20
-18.400032899861571
 30
0.0
 40
8.3999999999999755
 50
90.0
 51
180.0
  0
LINE
  8
DETAIL
  6
CONTINUOUS
 62
     5
 10
-426.60092585367778
 20
-10.00003289986171
 30
0.0
 11
-418.00092585367747
 21
-10.00003289986171
 31
0.0
  0
ARC
  8
DETAIL
  6
CONTINUOUS
 62
     5
 10
-418.00092585367747
 20
-4.4000328998617988
 30
0.0
 40
5.6000000000000218
 50
270.0
 51
304.78319907861908
  0
ARC
  8
DETAIL
  6
CONTINUOUS
 62
     5
 10
-440.80092585367669
 20
-5.2006328998618301
 30
0.0
 40
3.2000000000000441
 50
134.3399949737445
 51
180.0
  0
LINE
  8
DETAIL
  6
CONTINUOUS
 62
     5
 10
-442.40092585367711
 20
-7.6359328244016069
 30
0.0
 11
-442.40092585367711
 21
-35.000032899861708
 31
0.0
  0
LINE
  8
DETAIL
  6
CONTINUOUS
 62
     5
 10
-435.00092585367747
 20
-18.400032899861571
 30
0.0
 11
-435.00092585367747
 21
-35.000032899861708
 31
0.0
  0
LINE
  8
DETAIL
  6
CONTINUOUS
 62
     5
 10
-444.00092585367747
 20
-5.2006328998618301
 30
0.0
 11
-444.00092585367747
 21
-35.000032899861708
 31
0.0
  0
LINE
  8
DETAIL
  6
CONTINUOUS
 62
     5
 10
434.00249999999869
 20
-28.968253878435689
 30
0.0
 11
-434.00092585367662
 21
-28.96826544397527
 31
0.0
  0
LINE
  8
DETAIL
  6
CONTINUOUS
 62
     5
 10
-441.03745289443032
 20
-8.9994057836483989
 30
0.0
 11
-443.03745289443032
 21
-6.9994057836486263
 31
0.0
  0
LINE
  8
DETAIL
  6
CONTINUOUS
 62
     5
 10
-441.03745289443032
 20
-8.9994057836483989
 30
0.0
 11
440.90279772351101
 21
-8.9993942181092734
 31
0.0
  0
LINE
  8
DETAIL
  6
CONTINUOUS
 62
     5
 10
-443.03745289443032
 20
-0.0000057836487031
 30
0.0
 11
-443.03745289443032
 21
-6.9994057836486263
 31
0.0
  0
ARC
  8
DETAIL
  6
CONTINUOUS
 62
     5
 10
-443.03745289443032
 20
-4.0000057836487031
 30
0.0
 40
4.0
 50
90.0
 51
180.0
  0
ARC
  8
DETAIL
  6
CONTINUOUS
 62
     5
 10
-443.03745289443032
 20
-4.0000057836487031
 30
0.0
 40
2.0
 50
90.0
 51
180.0
  0
LINE
  8
DETAIL
  6
CONTINUOUS
 62
     5
 10
-447.03745289443032
 20
-4.0000057836487031
 30
0.0
 11
-447.03745289443032
 21
-28.564506302736621
 31
0.0
  0
LINE
  8
DETAIL
  6
CONTINUOUS
 62
     5
 10
-445.03745289443032
 20
-4.0000057836487031
 30
0.0
 11
-445.03745289443032
 21
-28.564506302736621
 31
0.0
  0
LINE
  8
DETAIL
  6
CONTINUOUS
 62
     5
 10
-443.03745289443032
 20
-0.0000057836487031
 30
0.0
 11
442.90279772351101
 21
0.0000057818906498
 31
0.0
  0
LINE
  8
DETAIL
  6
CONTINUOUS
 62
     5
 10
-447.03745289443032
 20
-28.564506302736621
 30
0.0
 11
-445.03745289443032
 21
-28.564506302736621
 31
0.0
  0
ARC
  8
DETAIL
  6
CONTINUOUS
 62
     5
 10
-431.00000000000182
 20
-98.250032899865346
 30
0.0
 40
1.0
 50
0.0
 51
90.0
  0
ARC
  8
DETAIL
  6
CONTINUOUS
 62
     5
 10
-444.00000000000182
 20
-98.250032899865346
 30
0.0
 40
1.0
 50
90.0
 51
180.0
  0
LINE
  8
DETAIL
  6
CONTINUOUS
 62
     5
 10
-431.00000000000182
 20
-102.7500328998653
 30
0.0
 11
-444.00000000000182
 21
-102.7500328998653
 31
0.0
  0
LINE
  8
DETAIL
  6
CONTINUOUS
 62
     5
 10
-429.99947790264378
 20
-63.346072044995481
 30
0.0
 11
-430.00000000000182
 21
-139.75003289986529
 31
0.0
  0
ARC
  8
DETAIL
  6
CONTINUOUS
 62
     5
 10
-444.00000000000182
 20
-103.7500328998653
 30
0.0
 40
0.9999999999999432
 50
90.0
 51
180.0
  0
ARC
  8
DETAIL
  6
CONTINUOUS
 62
     5
 10
-431.00000000000182
 20
-103.7500328998653
 30
0.0
 40
1.0
 50
0.0
 51
90.0
  0
LINE
  8
DETAIL
  6
CONTINUOUS
 62
     5
 10
-431.00000000000182
 20
-97.250032899865346
 30
0.0
 11
-444.00000000000182
 21
-97.250032899865346
 31
0.0
  0
ARC
  8
DETAIL
  6
CONTINUOUS
 62
     5
 10
-431.00000000000182
 20
-181.75003289986529
 30
0.0
 40
1.0
 50
270.0
 51
0.0
  0
ARC
  8
DETAIL
  6
CONTINUOUS
 62
     5
 10
-444.00000000000182
 20
-181.75003289986529
 30
0.0
 40
1.0
 50
180.0
 51
270.0
  0
LINE
  8
DETAIL
  6
CONTINUOUS
 62
     5
 10
-431.00000000000182
 20
-177.25003289986529
 30
0.0
 11
-444.00000000000182
 21
-177.25003289986529
 31
0.0
  0
ARC
  8
DETAIL
  6
CONTINUOUS
 62
     5
 10
-444.00000000000182
 20
-176.25003289986529
 30
0.0
 40
0.9999999999999432
 50
180.0
 51
270.0
  0
ARC
  8
DETAIL
  6
CONTINUOUS
 62
     5
 10
-431.00000000000182
 20
-176.25003289986529
 30
0.0
 40
1.0
 50
270.0
 51
0.0
  0
LINE
  8
DETAIL
  6
CONTINUOUS
 62
     5
 10
-431.00000000000182
 20
-182.75003289986529
 30
0.0
 11
-444.00000000000182
 21
-182.75003289986529
 31
0.0
  0
LINE
  8
DETAIL
  6
CONTINUOUS
 62
     5
 10
-444.99907491621519
 20
-63.346072044995481
 30
0.0
 11
-429.99947790264378
 21
-63.346072044995481
 31
0.0
  0
LINE
  8
DETAIL
  6
CONTINUOUS
 62
     5
 10
455.0015749162103
 20
-40.000032899861708
 30
0.0
 11
455.00157491620848
 21
-240.00003289986171
 31
0.0
  0
LINE
  8
DETAIL
  6
CONTINUOUS
 62
     5
 10
445.0015749162103
 20
-35.000032899861708
 30
0.0
 11
445.00157491620672
 21
-245.00003289986171
 31
0.0
  0
ARC
  8
DETAIL
  6
CONTINUOUS
 62
     5
 10
450.00157491620848
 20
-240.00003289986171
 30
0.0
 40
5.0
 50
270.0
 51
0.0
  0
ARC
  8
DETAIL
  6
CONTINUOUS
 62
     5
 10
450.0015749162103
 20
-40.000032899861708
 30
0.0
 40
5.0
 50
0.0
 51
90.0
  0
ARC
  8
DETAIL
  6
CONTINUOUS
 62
     5
 10
426.60249999999911
 20
-18.400021334322449
 30
0.0
 40
8.3999999999999755
 50
0.0
 51
90.0
  0
LINE
  8
DETAIL
  6
CONTINUOUS
 62
     5
 10
426.60249999999911
 20
-10.00002133432235
 30
0.0
 11
418.00249999999869
 21
-10.00002133432235
 31
0.0
  0
ARC
  8
DETAIL
  6
CONTINUOUS
 62
     5
 10
418.00249999999869
 20
-4.4000213343222194
 30
0.0
 40
5.6000000000000218
 50
235.2168132281848
 51
270.0
  0
ARC
  8
DETAIL
  6
CONTINUOUS
 62
     5
 10
440.80249999999978
 20
-5.2006213343224772
 30
0.0
 40
3.2000000000000441
 50
0.0
 51
48.978435129117351
  0
LINE
  8
DETAIL
  6
CONTINUOUS
 62
     5
 10
442.40249999999833
 20
-7.499691941621677
 30
0.0
 11
442.40249999999833
 21
-35.000032899861708
 31
0.0
  0
LINE
  8
DETAIL
  6
CONTINUOUS
 62
     5
 10
435.00249999999869
 20
-18.400021334322449
 30
0.0
 11
435.00249999999869
 21
-35.000032899861708
 31
0.0
  0
LINE
  8
DETAIL
  6
CONTINUOUS
 62
     5
 10
444.00249999999869
 20
-5.2006213343224772
 30
0.0
 11
444.00249999999869
 21
-35.000032899861708
 31
0.0
  0
LINE
  8
DETAIL
  6
CONTINUOUS
 62
     5
 10
440.90279772351101
 20
-8.9993942181092734
 30
0.0
 11
442.90279772351101
 21
-6.9993942181092734
 31
0.0
  0
LINE
  8
DETAIL
  6
CONTINUOUS
 62
     5
 10
442.90279772351101
 20
0.0000057818906498
 30
0.0
 11
442.90279772351101
 21
-6.9993942181092734
 31
0.0
  0
ARC
  8
DETAIL
  6
CONTINUOUS
 62
     5
 10
442.90279772351101
 20
-3.9999942181093502
 30
0.0
 40
4.0
 50
0.0
 51
90.0
  0
ARC
  8
DETAIL
  6
CONTINUOUS
 62
     5
 10
442.90279772351101
 20
-3.9999942181093502
 30
0.0
 40
2.0
 50
0.0
 51
90.0
  0
LINE
  8
DETAIL
  6
CONTINUOUS
 62
     5
 10
446.90279772351101
 20
-3.9999942181093502
 30
0.0
 11
446.90279772351101
 21
-28.564494737197489
 31
0.0
  0
LINE
  8
DETAIL
  6
CONTINUOUS
 62
     5
 10
444.90279772351101
 20
-3.9999942181093502
 30
0.0
 11
444.90279772351101
 21
-28.564494737197489
 31
0.0
  0
LINE
  8
DETAIL
  6
CONTINUOUS
 62
     5
 10
444.90279772351101
 20
-28.564494737197489
 30
0.0
 11
446.90279772351101
 21
-28.564494737197489
 31
0.0
  0
ARC
  8
DETAIL
  6
CONTINUOUS
 62
     5
 10
431.00249999999869
 20
-98.250032899861708
 30
0.0
 40
1.0
 50
90.0
 51
180.0
  0
ARC
  8
DETAIL
  6
CONTINUOUS
 62
     5
 10
444.00249999999869
 20
-98.250032899861708
 30
0.0
 40
1.0
 50
0.0
 51
90.0
  0
LINE
  8
DETAIL
  6
CONTINUOUS
 62
     5
 10
431.00249999999869
 20
-102.75003289986169
 30
0.0
 11
444.00249999999869
 21
-102.75003289986169
 31
0.0
  0
ARC
  8
DETAIL
  6
CONTINUOUS
 62
     5
 10
444.00249999999869
 20
-103.75003289986169
 30
0.0
 40
0.9999999999999432
 50
0.0
 51
90.0
  0
ARC
  8
DETAIL
  6
CONTINUOUS
 62
     5
 10
431.00249999999869
 20
-103.75003289986169
 30
0.0
 40
1.0
 50
90.0
 51
180.0
  0
LINE
  8
DETAIL
  6
CONTINUOUS
 62
     5
 10
431.00249999999869
 20
-97.250032899861708
 30
0.0
 11
444.00249999999869
 21
-97.250032899861708
 31
0.0
  0
ARC
  8
DETAIL
  6
CONTINUOUS
 62
     5
 10
431.00249999999869
 20
-181.75003289986171
 30
0.0
 40
1.0
 50
180.0
 51
270.0
  0
ARC
  8
DETAIL
  6
CONTINUOUS
 62
     5
 10
444.00249999999869
 20
-181.75003289986171
 30
0.0
 40
1.0
 50
270.0
 51
0.0
  0
LINE
  8
DETAIL
  6
CONTINUOUS
 62
     5
 10
431.00249999999869
 20
-177.25003289986171
 30
0.0
 11
444.00249999999869
 21
-177.25003289986171
 31
0.0
  0
ARC
  8
DETAIL
  6
CONTINUOUS
 62
     5
 10
444.00249999999869
 20
-176.25003289986171
 30
0.0
 40
0.9999999999999432
 50
270.0
 51
0.0
  0
ARC
  8
DETAIL
  6
CONTINUOUS
 62
     5
 10
431.00249999999869
 20
-176.25003289986171
 30
0.0
 40
1.0
 50
180.0
 51
270.0
  0
LINE
  8
DETAIL
  6
CONTINUOUS
 62
     5
 10
431.00249999999869
 20
-182.75003289986171
 30
0.0
 11
444.00249999999869
 21
-182.75003289986171
 31
0.0
  0
LINE
  8
DETAIL
  6
CONTINUOUS
 62
     5
 10
445.0015749162103
 20
-63.346048913913137
 30
0.0
 11
430.00197790263883
 21
-63.346048913913137
 31
0.0
  0
LINE
  8
SIZE
  6
CONTINUOUS
 62
    30
 10
-104.9974528944304
 20
44.999998629306901
 30
0.0
 11
-104.9974528944304
 21
135.61814444511359
 31
0.0
  0
LINE
  8
SIZE
  6
CONTINUOUS
 62
    30
 10
105.0025007698878
 20
45.00000137075881
 30
0.0
 11
105.0025007698878
 21
135.61814444511359
 31
0.0
  0
LINE
  8
SIZE
  6
CONTINUOUS
 62
    30
 10
-92.997452894430353
 20
115.6181444451136
 30
0.0
 11
93.002500769887774
 21
115.6181444451136
 31
0.0
  0
CIRCLE
  8
SIZE
  6
CONTINUOUS
 62
    30
 10
-104.9974528944304
 20
115.6181444451136
 30
0.0
 40
6.0
  0
LINE
  8
SIZE
  6
CONTINUOUS
 62
    30
 10
-104.9974528944304
 20
115.6181444451136
 30
0.0
 11
-92.997452894430396
 21
115.6181444451136
 31
0.0
  0
CIRCLE
  8
SIZE
  6
CONTINUOUS
 62
    30
 10
105.0025007698878
 20
115.6181444451136
 30
0.0
 40
6.0
  0
LINE
  8
SIZE
  6
CONTINUOUS
 62
    30
 10
105.0025007698878
 20
115.6181444451136
 30
0.0
 11
93.002500769887803
 21
115.6181444451136
 31
0.0
  0
TEXT
  8
SIZE
  6
CONTINUOUS
 62
    30
 10
-75.165476062271296
 20
140.61814444511359
 30
0.0
 40
64.0
  1
210
 50
0.0
 41
0.9
 51
0.0
  7
STANDARD
 71
     0
 72
     1
 11
0.0025239377287107
 21
140.61814444511359
 31
0.0
210
0.0
220
0.0
230
1.0
  0
POINT
  8
DEFPOINTS
  6
CONTINUOUS
 62
    30
 10
-104.9974528944304
 20
24.999998629306901
 30
0.0
  0
POINT
  8
DEFPOINTS
  6
CONTINUOUS
 62
    30
 10
105.0025007698878
 20
25.00000137075881
 30
0.0
  0
POINT
  8
DEFPOINTS
  6
CONTINUOUS
 62
    30
 10
105.0025007698878
 20
115.6181444451136
 30
0.0
  0
LINE
  8
SIZE
  6
CONTINUOUS
 62
    30
 10
-304.99745289443041
 20
44.999996018399543
 30
0.0
 11
-304.99745289443041
 21
262.22742779247568
 31
0.0
  0
LINE
  8
SIZE
  6
CONTINUOUS
 62
    30
 10
305.00250076988777
 20
45.000003981666168
 30
0.0
 11
305.00250076988777
 21
262.22742779247568
 31
0.0
  0
LINE
  8
SIZE
  6
CONTINUOUS
 62
    30
 10
-292.99745289443041
 20
242.22742779247571
 30
0.0
 11
293.00250076988777
 21
242.22742779247571
 31
0.0
  0
CIRCLE
  8
SIZE
  6
CONTINUOUS
 62
    30
 10
-304.99745289443041
 20
242.22742779247571
 30
0.0
 40
6.0
  0
LINE
  8
SIZE
  6
CONTINUOUS
 62
    30
 10
-304.99745289443041
 20
242.22742779247571
 30
0.0
 11
-292.99745289443041
 21
242.22742779247571
 31
0.0
  0
CIRCLE
  8
SIZE
  6
CONTINUOUS
 62
    30
 10
305.00250076988777
 20
242.22742779247571
 30
0.0
 40
6.0
  0
LINE
  8
SIZE
  6
CONTINUOUS
 62
    30
 10
305.00250076988777
 20
242.22742779247571
 30
0.0
 11
293.00250076988777
 21
242.22742779247571
 31
0.0
  0
TEXT
  8
SIZE
  6
CONTINUOUS
 62
    30
 10
-75.165476062271296
 20
267.22742779247568
 30
0.0
 40
64.0
  1
610
 50
0.0
 41
0.9
 51
0.0
  7
STANDARD
 71
     0
 72
     1
 11
0.0025239377287107
 21
267.22742779247568
 31
0.0
210
0.0
220
0.0
230
1.0
  0
POINT
  8
DEFPOINTS
  6
CONTINUOUS
 62
    30
 10
-304.99745289443041
 20
24.999996018399539
 30
0.0
  0
POINT
  8
DEFPOINTS
  6
CONTINUOUS
 62
    30
 10
305.00250076988777
 20
25.000003981666168
 30
0.0
  0
POINT
  8
DEFPOINTS
  6
CONTINUOUS
 62
    30
 10
305.00250076988777
 20
242.22742779247571
 30
0.0
  0
LINE
  8
SIZE
  6
CONTINUOUS
 62
    30
 10
-450.00132884010532
 20
-64.000032899861736
 30
0.0
 11
-575.16755093408506
 21
-64.00003289986175
 31
0.0
  0
LINE
  8
SIZE
  6
CONTINUOUS
 62
    30
 10
-450.00092585367679
 20
-216.00003289986179
 30
0.0
 11
-575.16755093408506
 21
-216.00003289986179
 31
0.0
  0
LINE
  8
SIZE
  6
CONTINUOUS
 62
    30
 10
-555.16755093408506
 20
-52.000032899861743
 30
0.0
 11
-555.16755093408506
 21
-40.000032899861743
 31
0.0
  0
LINE
  8
SIZE
  6
CONTINUOUS
 62
    30
 10
-555.16755093408506
 20
-228.00003289986179
 30
0.0
 11
-555.16755093408506
 21
-240.00003289986179
 31
0.0
  0
LINE
  8
SIZE
  6
CONTINUOUS
 62
    30
 10
-555.16755093408506
 20
-64.00003289986175
 30
0.0
 11
-555.16755093408506
 21
-216.00003289986179
 31
0.0
  0
CIRCLE
  8
SIZE
  6
CONTINUOUS
 62
    30
 10
-555.16755093408506
 20
-64.00003289986175
 30
0.0
 40
6.0
  0
LINE
  8
SIZE
  6
CONTINUOUS
 62
    30
 10
-555.16755093408506
 20
-64.00003289986175
 30
0.0
 11
-555.16755093408506
 21
-52.00003289986175
 31
0.0
  0
CIRCLE
  8
SIZE
  6
CONTINUOUS
 62
    30
 10
-555.16755093408506
 20
-216.00003289986179
 30
0.0
 40
6.0
  0
LINE
  8
SIZE
  6
CONTINUOUS
 62
    30
 10
-555.16755093408506
 20
-216.00003289986179
 30
0.0
 11
-555.16755093408506
 21
-228.00003289986179
 31
0.0
  0
TEXT
  8
SIZE
  6
CONTINUOUS
 62
    30
 10
-580.16755093408494
 20
-214.59203289986158
 30
0.0
 40
64.0
  1
152
 50
90.0
 41
0.9
 51
0.0
  7
STANDARD
 71
     0
 72
     1
 11
-580.16755093408494
 21
-140.00003289986159
 31
0.0
210
0.0
220
0.0
230
1.0
  0
POINT
  8
DEFPOINTS
  6
CONTINUOUS
 62
    30
 10
-430.00132884010532
 20
-64.000032899861736
 30
0.0
  0
POINT
  8
DEFPOINTS
  6
CONTINUOUS
 62
    30
 10
-430.00092585367679
 20
-216.00003289986179
 30
0.0
  0
POINT
  8
DEFPOINTS
  6
CONTINUOUS
 62
    30
 10
-555.16755093408506
 20
-216.00003289986179
 30
0.0
  0
LINE
  8
SIZE
  6
CONTINUOUS
 62
    30
 10
470.00157491620871
 20
-245.00003289986179
 30
0.0
 11
696.69291616421538
 21
-245.00003289986179
 31
0.0
  0
LINE
  8
SIZE
  6
CONTINUOUS
 62
    30
 10
470.00157491621047
 20
-35.000032899861708
 30
0.0
 11
696.69291616421538
 21
-35.000032899861679
 31
0.0
  0
LINE
  8
SIZE
  6
CONTINUOUS
 62
    30
 10
676.69291616421538
 20
-233.00003289986179
 30
0.0
 11
676.69291616421538
 21
-47.000032899861687
 31
0.0
  0
CIRCLE
  8
SIZE
  6
CONTINUOUS
 62
    30
 10
676.69291616421538
 20
-245.00003289986179
 30
0.0
 40
6.0
  0
LINE
  8
SIZE
  6
CONTINUOUS
 62
    30
 10
676.69291616421538
 20
-245.00003289986179
 30
0.0
 11
676.69291616421538
 21
-233.00003289986179
 31
0.0
  0
CIRCLE
  8
SIZE
  6
CONTINUOUS
 62
    30
 10
676.69291616421538
 20
-35.000032899861687
 30
0.0
 40
6.0
  0
LINE
  8
SIZE
  6
CONTINUOUS
 62
    30
 10
676.69291616421538
 20
-35.000032899861687
 30
0.0
 11
676.69291616421538
 21
-47.000032899861687
 31
0.0
  0
TEXT
  8
SIZE
  6
CONTINUOUS
 62
    30
 10
651.69291616421526
 20
-215.16803289986191
 30
0.0
 40
64.0
  1
210
 50
90.0
 41
0.9
 51
0.0
  7
STANDARD
 71
     0
 72
     1
 11
651.69291616421526
 21
-140.00003289986191
 31
0.0
210
0.0
220
0.0
230
1.0
  0
POINT
  8
DEFPOINTS
  6
CONTINUOUS
 62
    30
 10
450.00157491620871
 20
-245.00003289986179
 30
0.0
  0
POINT
  8
DEFPOINTS
  6
CONTINUOUS
 62
    30
 10
450.00157491621047
 20
-35.000032899861722
 30
0.0
  0
POINT
  8
DEFPOINTS
  6
CONTINUOUS
 62
    30
 10
676.69291616421538
 20
-35.000032899861687
 30
0.0
  0
LINE
  8
SIZE
  6
CONTINUOUS
 62
    30
 10
470.00157491621047
 20
-35.000032899861708
 30
0.0
 11
696.69291616420298
 21
-35.000032899861679
 31
0.0
  0
LINE
  8
SIZE
  6
CONTINUOUS
 62
    30
 10
462.90279772351118
 20
0.000005781890653
 30
0.0
 11
696.69291616420298
 21
0.0000057818906906
 31
0.0
  0
LINE
  8
SIZE
  6
CONTINUOUS
 62
    30
 10
676.69291616420298
 20
-47.000032899861687
 30
0.0
 11
676.69291616420298
 21
-59.000032899861687
 31
0.0
  0
LINE
  8
SIZE
  6
CONTINUOUS
 62
    30
 10
676.69291616420298
 20
12.000005781890691
 30
0.0
 11
676.69291616420298
 21
167.25714863903349
 31
0.0
  0
LINE
  8
SIZE
  6
CONTINUOUS
 62
    30
 10
676.69291616420298
 20
-35.000032899861687
 30
0.0
 11
676.69291616420298
 21
0.0000057818906874
 31
0.0
  0
CIRCLE
  8
SIZE
  6
CONTINUOUS
 62
    30
 10
676.69291616420298
 20
-35.000032899861687
 30
0.0
 40
6.0
  0
LINE
  8
SIZE
  6
CONTINUOUS
 62
    30
 10
676.69291616420298
 20
-35.000032899861687
 30
0.0
 11
676.69291616420298
 21
-47.000032899861687
 31
0.0
  0
CIRCLE
  8
SIZE
  6
CONTINUOUS
 62
    30
 10
676.69291616420298
 20
0.0000057818906874
 30
0.0
 40
6.0
  0
LINE
  8
SIZE
  6
CONTINUOUS
 62
    30
 10
676.69291616420298
 20
0.0000057818906874
 30
0.0
 11
676.69291616420298
 21
12.000005781890687
 31
0.0
  0
TEXT
  8
SIZE
  6
CONTINUOUS
 62
    30
 10
651.69291616420287
 20
42.060577210461929
 30
0.0
 40
64.0
  1
35
 50
90.0
 41
0.9
 51
0.0
  7
STANDARD
 71
     0
 72
     1
 11
651.69291616420287
 21
95.628577210461913
 31
0.0
210
0.0
220
0.0
230
1.0
  0
POINT
  8
DEFPOINTS
  6
CONTINUOUS
 62
    30
 10
450.00157491621047
 20
-35.000032899861722
 30
0.0
  0
POINT
  8
DEFPOINTS
  6
CONTINUOUS
 62
    30
 10
442.90279772351118
 20
0.0000057818906498
 30
0.0
  0
POINT
  8
DEFPOINTS
  6
CONTINUOUS
 62
    30
 10
676.69291616420298
 20
0.0000057818906874
 30
0.0
  0
LINE
  8
SIZE
  6
CONTINUOUS
 62
    30
 10
-455.00092585367662
 20
-20.000032899861711
 30
0.0
 11
-455.00092585367662
 21
135.61814444511359
 31
0.0
  0
LINE
  8
SIZE
  6
CONTINUOUS
 62
    30
 10
-447.03745289443032
 20
15.9999942163513
 30
0.0
 11
-447.03745289443032
 21
135.61814444511359
 31
0.0
  0
LINE
  8
SIZE
  6
CONTINUOUS
 62
    30
 10
-467.00092585367662
 20
115.6181444451136
 30
0.0
 11
-479.00092585367662
 21
115.6181444451136
 31
0.0
  0
LINE
  8
SIZE
  6
CONTINUOUS
 62
    30
 10
-435.03745289443032
 20
115.6181444451136
 30
0.0
 11
-423.03745289443032
 21
115.6181444451136
 31
0.0
  0
LINE
  8
SIZE
  6
CONTINUOUS
 62
    30
 10
-455.00092585367662
 20
115.6181444451136
 30
0.0
 11
-447.03745289443032
 21
115.6181444451136
 31
0.0
  0
CIRCLE
  8
SIZE
  6
CONTINUOUS
 62
    30
 10
-455.00092585367662
 20
115.6181444451136
 30
0.0
 40
6.0
  0
LINE
  8
SIZE
  6
CONTINUOUS
 62
    30
 10
-455.00092585367662
 20
115.6181444451136
 30
0.0
 11
-467.00092585367662
 21
115.6181444451136
 31
0.0
  0
CIRCLE
  8
SIZE
  6
CONTINUOUS
 62
    30
 10
-447.03745289443032
 20
115.6181444451136
 30
0.0
 40
6.0
  0
LINE
  8
SIZE
  6
CONTINUOUS
 62
    30
 10
-447.03745289443032
 20
115.6181444451136
 30
0.0
 11
-435.03745289443032
 21
115.6181444451136
 31
0.0
  0
TEXT
  8
SIZE
  6
CONTINUOUS
 62
    30
 10
-477.80318937405337
 20
140.61814444511359
 30
0.0
 40
64.0
  1
8
 50
0.0
 41
0.9
 51
0.0
  7
STANDARD
 71
     0
 72
     1
 11
-451.01918937405338
 21
140.61814444511359
 31
0.0
210
0.0
220
0.0
230
1.0
  0
POINT
  8
DEFPOINTS
  6
CONTINUOUS
 62
    30
 10
-455.00092585367662
 20
-40.000032899861708
 30
0.0
  0
POINT
  8
DEFPOINTS
  6
CONTINUOUS
 62
    30
 10
-447.03745289443032
 20
-4.0000057836487031
 30
0.0
  0
POINT
  8
DEFPOINTS
  6
CONTINUOUS
 62
    30
 10
-447.03745289443032
 20
115.6181444451136
 30
0.0
  0
LINE
  8
SIZE
  6
CONTINUOUS
 62
    30
 10
455.0015749162103
 20
-20.000032899861711
 30
0.0
 11
455.0015749162103
 21
135.61814444511359
 31
0.0
  0
LINE
  8
SIZE
  6
CONTINUOUS
 62
    30
 10
446.90279772351101
 20
16.00000578189065
 30
0.0
 11
446.90279772351101
 21
135.61814444511359
 31
0.0
  0
LINE
  8
SIZE
  6
CONTINUOUS
 62
    30
 10
467.0015749162103
 20
115.6181444451136
 30
0.0
 11
479.0015749162103
 21
115.6181444451136
 31
0.0
  0
LINE
  8
SIZE
  6
CONTINUOUS
 62
    30
 10
434.90279772351101
 20
115.6181444451136
 30
0.0
 11
422.90279772351101
 21
115.6181444451136
 31
0.0
  0
LINE
  8
SIZE
  6
CONTINUOUS
 62
    30
 10
455.0015749162103
 20
115.6181444451136
 30
0.0
 11
446.90279772351101
 21
115.6181444451136
 31
0.0
  0
CIRCLE
  8
SIZE
  6
CONTINUOUS
 62
    30
 10
455.0015749162103
 20
115.6181444451136
 30
0.0
 40
6.0
  0
LINE
  8
SIZE
  6
CONTINUOUS
 62
    30
 10
455.0015749162103
 20
115.6181444451136
 30
0.0
 11
467.0015749162103
 21
115.6181444451136
 31
0.0
  0
CIRCLE
  8
SIZE
  6
CONTINUOUS
 62
    30
 10
446.90279772351101
 20
115.6181444451136
 30
0.0
 40
6.0
  0
LINE
  8
SIZE
  6
CONTINUOUS
 62
    30
 10
446.90279772351101
 20
115.6181444451136
 30
0.0
 11
434.90279772351101
 21
115.6181444451136
 31
0.0
  0
TEXT
  8
SIZE
  6
CONTINUOUS
 62
    30
 10
424.16818631986058
 20
140.61814444511359
 30
0.0
 40
64.0
  1
8
 50
0.0
 41
0.9
 51
0.0
  7
STANDARD
 71
     0
 72
     1
 11
450.95218631986057
 21
140.61814444511359
 31
0.0
210
0.0
220
0.0
230
1.0
  0
POINT
  8
DEFPOINTS
  6
CONTINUOUS
 62
    30
 10
455.0015749162103
 20
-40.000032899861708
 30
0.0
  0
POINT
  8
DEFPOINTS
  6
CONTINUOUS
 62
    30
 10
446.90279772351101
 20
-3.9999942181093502
 30
0.0
  0
POINT
  8
DEFPOINTS
  6
CONTINUOUS
 62
    30
 10
446.90279772351101
 20
115.6181444451136
 30
0.0
  0
LINE
  8
SIZE
  6
CONTINUOUS
 62
    30
 10
455.00157491620848
 20
-260.00003289986171
 30
0.0
 11
455.00157491620848
 21
-394.80632949760229
 31
0.0
  0
LINE
  8
SIZE
  6
CONTINUOUS
 62
    30
 10
-455.00092585367662
 20
-260.00003289986171
 30
0.0
 11
-455.00092585367662
 21
-394.80632949760229
 31
0.0
  0
LINE
  8
SIZE
  6
CONTINUOUS
 62
    30
 10
443.00157491620848
 20
-374.80632949760229
 30
0.0
 11
-443.00092585367662
 21
-374.80632949760229
 31
0.0
  0
CIRCLE
  8
SIZE
  6
CONTINUOUS
 62
    30
 10
455.00157491620848
 20
-374.80632949760229
 30
0.0
 40
6.0
  0
LINE
  8
SIZE
  6
CONTINUOUS
 62
    30
 10
455.00157491620848
 20
-374.80632949760229
 30
0.0
 11
443.00157491620848
 21
-374.80632949760229
 31
0.0
  0
CIRCLE
  8
SIZE
  6
CONTINUOUS
 62
    30
 10
-455.00092585367662
 20
-374.80632949760229
 30
0.0
 40
6.0
  0
LINE
  8
SIZE
  6
CONTINUOUS
 62
    30
 10
-455.00092585367662
 20
-374.80632949760229
 30
0.0
 11
-443.00092585367662
 21
-374.80632949760229
 31
0.0
  0
TEXT
  8
SIZE
  6
CONTINUOUS
 62
    30
 10
-75.167675468734046
 20
-349.80632949760229
 30
0.0
 40
64.0
  1
910
 50
0.0
 41
0.9
 51
0.0
  7
STANDARD
 71
     0
 72
     1
 11
0.0003245312659601
 21
-349.80632949760229
 31
0.0
210
0.0
220
0.0
230
1.0
  0
POINT
  8
DEFPOINTS
  6
CONTINUOUS
 62
    30
 10
455.00157491620848
 20
-240.00003289986171
 30
0.0
  0
POINT
  8
DEFPOINTS
  6
CONTINUOUS
 62
    30
 10
-455.00092585367662
 20
-240.00003289986171
 30
0.0
  0
POINT
  8
DEFPOINTS
  6
CONTINUOUS
 62
    30
 10
-455.00092585367662
 20
-374.80632949760229
 30
0.0
  0
LINE
  8
BASIS
  6
DASHDOT
 62
     6
 10
-304.99745289443041
 20
24.999996018399539
 30
0.0
 11
-304.99745289443041
 21
-25.000003981600461
 31
0.0
  0
LINE
  8
BASIS
  6
DASHDOT
 62
     6
 10
-279.99745289443041
 20
-0.0000039816004573
 30
0.0
 11
-329.99745289443041
 21
-0.0000039816004573
 31
0.0
  0
CIRCLE
  8
FIX
  6
CONTINUOUS
 62
    11
 10
-304.99745289443041
 20
-0.0000039816004573
 30
0.0
 40
6.0
  0
LINE
  8
BASIS
  6
DASHDOT
 62
     6
 10
-104.9974528944304
 20
24.999998629306901
 30
0.0
 11
-104.9974528944304
 21
-25.000001370693099
 31
0.0
  0
LINE
  8
BASIS
  6
DASHDOT
 62
     6
 10
-79.997452894430353
 20
-0.0000013706930986
 30
0.0
 11
-129.99745289443041
 21
-0.0000013706930986
 31
0.0
  0
CIRCLE
  8
FIX
  6
CONTINUOUS
 62
    11
 10
-104.9974528944304
 20
-0.0000013706930986
 30
0.0
 40
6.0
  0
LINE
  8
BASIS
  6
DASHDOT
 62
     6
 10
105.0025007698878
 20
25.00000137075881
 30
0.0
 11
105.0025007698878
 21
-24.99999862924119
 31
0.0
  0
LINE
  8
BASIS
  6
DASHDOT
 62
     6
 10
130.0025007698878
 20
0.0000013707588096
 30
0.0
 11
80.002500769887774
 21
0.0000013707588096
 31
0.0
  0
CIRCLE
  8
FIX
  6
CONTINUOUS
 62
    11
 10
105.0025007698878
 20
0.0000013707588096
 30
0.0
 40
6.0
  0
LINE
  8
BASIS
  6
DASHDOT
 62
     6
 10
305.00250076988777
 20
25.000003981666168
 30
0.0
 11
305.00250076988777
 21
-24.999996018333832
 31
0.0
  0
LINE
  8
BASIS
  6
DASHDOT
 62
     6
 10
330.00250076988777
 20
0.0000039816661683
 30
0.0
 11
280.00250076988777
 21
0.0000039816661683
 31
0.0
  0
CIRCLE
  8
FIX
  6
CONTINUOUS
 62
    11
 10
305.00250076988777
 20
0.0000039816661683
 30
0.0
 40
6.0
  0
LINE
  8
OUTLINE
  6
CONTINUOUS
 62
     3
 10
-455.00092585367662
 20
-40.000032899861708
 30
0.0
 11
-455.00092585367662
 21
-240.00003289986171
 31
0.0
  0
LINE
  8
OUTLINE
  6
CONTINUOUS
 62
     3
 10
450.00157491620848
 20
-245.00003289986171
 30
0.0
 11
-450.00092585367662
 21
-245.00003289986171
 31
0.0
  0
ARC
  8
OUTLINE
  6
CONTINUOUS
 62
     3
 10
-450.00092585367662
 20
-240.00003289986171
 30
0.0
 40
5.0
 50
180.0
 51
270.0
  0
LINE
  8
OUTLINE
  6
CONTINUOUS
 62
     3
 10
450.0015749162103
 20
-35.000032899861708
 30
0.0
 11
444.00249999999869
 21
-35.000032899861708
 31
0.0
  0
LINE
  8
OUTLINE
  6
CONTINUOUS
 62
     3
 10
-444.00092585367747
 20
-35.000032899861942
 30
0.0
 11
-450.00092585367662
 21
-35.000032899861708
 31
0.0
  0
ARC
  8
OUTLINE
  6
CONTINUOUS
 62
     3
 10
-450.00092585367662
 20
-40.000032899861708
 30
0.0
 40
5.0
 50
90.0
 51
180.0
  0
ARC
  8
OUTLINE
  6
CONTINUOUS
 62
     3
 10
-440.80092585367669
 20
-5.2006328998618301
 30
0.0
 40
3.2000000000000441
 50
134.3399949737445
 51
180.0
  0
LINE
  8
OUTLINE
  6
CONTINUOUS
 62
     3
 10
-444.00092585367747
 20
-5.2006328998618301
 30
0.0
 11
-444.00092585367747
 21
-35.000032899861708
 31
0.0
  0
LINE
  8
OUTLINE
  6
CONTINUOUS
 62
     3
 10
-443.03745289443123
 20
-2.0000057836487031
 30
0.0
 11
-443.03745289443123
 21
-2.911976788521542
 31
0.0
  0
ARC
  8
OUTLINE
  6
CONTINUOUS
 62
     3
 10
-443.03745289443032
 20
-4.0000057836487031
 30
0.0
 40
4.0
 50
90.0
 51
180.0
  0
ARC
  8
OUTLINE
  6
CONTINUOUS
 62
     3
 10
-443.03745289443032
 20
-4.0000057836487031
 30
0.0
 40
2.0
 50
90.0
 51
180.0
  0
LINE
  8
OUTLINE
  6
CONTINUOUS
 62
     3
 10
-447.03745289443032
 20
-4.0000057836487031
 30
0.0
 11
-447.03745289443032
 21
-28.564506302736621
 31
0.0
  0
LINE
  8
OUTLINE
  6
CONTINUOUS
 62
     3
 10
-445.03745289443032
 20
-4.0000057836487031
 30
0.0
 11
-445.03745289443032
 21
-28.564506302736621
 31
0.0
  0
LINE
  8
OUTLINE
  6
CONTINUOUS
 62
     3
 10
-443.03745289443032
 20
-0.0000057836487031
 30
0.0
 11
442.90279772351101
 21
0.0000057818906498
 31
0.0
  0
LINE
  8
OUTLINE
  6
CONTINUOUS
 62
     3
 10
-447.03745289443032
 20
-28.564506302736621
 30
0.0
 11
-445.03745289443032
 21
-28.564506302736621
 31
0.0
  0
LINE
  8
OUTLINE
  6
CONTINUOUS
 62
     3
 10
455.0015749162103
 20
-40.000032899861708
 30
0.0
 11
455.00157491620848
 21
-240.00003289986171
 31
0.0
  0
ARC
  8
OUTLINE
  6
CONTINUOUS
 62
     3
 10
450.00157491620848
 20
-240.00003289986171
 30
0.0
 40
5.0
 50
270.0
 51
0.0
  0
ARC
  8
OUTLINE
  6
CONTINUOUS
 62
     3
 10
450.0015749162103
 20
-40.000032899861708
 30
0.0
 40
5.0
 50
0.0
 51
90.0
  0
ARC
  8
OUTLINE
  6
CONTINUOUS
 62
     3
 10
440.80249999999978
 20
-5.2006213343224772
 30
0.0
 40
3.2000000000000441
 50
0.0
 51
48.978435129117351
  0
LINE
  8
OUTLINE
  6
CONTINUOUS
 62
     3
 10
444.00249999999869
 20
-5.2006213343224772
 30
0.0
 11
444.00249999999869
 21
-35.000032899861708
 31
0.0
  0
LINE
  8
OUTLINE
  6
CONTINUOUS
 62
     3
 10
442.90279772351101
 20
-1.99999421810935
 30
0.0
 11
442.90279772350999
 21
-2.7863410124427901
 31
0.0
  0
ARC
  8
OUTLINE
  6
CONTINUOUS
 62
     3
 10
442.90279772351101
 20
-3.9999942181093502
 30
0.0
 40
4.0
 50
0.0
 51
90.0
  0
ARC
  8
OUTLINE
  6
CONTINUOUS
 62
     3
 10
442.90279772351101
 20
-3.9999942181093502
 30
0.0
 40
2.0
 50
0.0
 51
90.0
  0
LINE
  8
OUTLINE
  6
CONTINUOUS
 62
     3
 10
446.90279772351101
 20
-3.9999942181093502
 30
0.0
 11
446.90279772351101
 21
-28.564494737197489
 31
0.0
  0
LINE
  8
OUTLINE
  6
CONTINUOUS
 62
     3
 10
444.90279772351101
 20
-3.9999942181093502
 30
0.0
 11
444.90279772351101
 21
-28.564494737197489
 31
0.0
  0
LINE
  8
OUTLINE
  6
CONTINUOUS
 62
     3
 10
444.90279772351101
 20
-28.564494737197489
 30
0.0
 11
446.90279772351101
 21
-28.564494737197489
 31
0.0
  0
LINE
  8
BASIS
  6
DASHDOT
 62
     6
 10
0.0
 20
25.7776693864771
 30
0.0
 11
0.0
 21
-269.54897649033461
 31
0.0
  0
POINT
  8
ARRANGE
  6
CONTINUOUS
 62
     1
 10
0.0
 20
0.0
 30
0.0
  0
CIRCLE
  8
ARRANGE
  6
CONTINUOUS
 62
     1
 10
0.0
 20
0.0
 30
0.0
 40
40.0
  0
TEXT
  8
ETC
  6
CONTINUOUS
 62
    61
 10
515.82571883101446
 20
483.07269418227003
 30
0.0
 40
64.0
  1
GK-2509YTH3_1
 41
0.9
  0
TEXT
  8
ETC
  6
CONTINUOUS
 62
    61
 10
511.63972483101497
 20
365.11738416743879
 30
0.0
 40
64.0
  1
産業扇
 41
0.9
  0
TEXT
  8
ETC
  6
CONTINUOUS
 62
    61
 10
562.34112307957002
 20
256.9686112812135
 30
0.0
 40
40.0
  1
GK-2509YTH3
 50
0.0
 41
0.9
 51
0.0
  7
STANDARD
 71
     0
 11
0.0
 21
0.0
 31
0.0
210
0.0
220
0.0
230
1.0
  0
LINE
  8
DETAIL
  6
CONTINUOUS
 62
     5
 10
-430.00092585367662
 20
-175.50003289986171
 30
0.0
 11
430.00157491621388
 21
-175.50003289986171
 31
0.0
  0
LINE
  8
DETAIL
  6
CONTINUOUS
 62
     5
 10
-430.00092585367662
 20
-178.50003289986171
 30
0.0
 11
430.00157491621388
 21
-178.50003289986171
 31
0.0
  0
LINE
  8
DETAIL
  6
CONTINUOUS
 62
     5
 10
-385.40044104547093
 20
-175.50003289986171
 30
0.0
 11
-385.40044104547093
 21
-165.50003289986171
 31
0.0
  0
LINE
  8
DETAIL
  6
CONTINUOUS
 62
     5
 10
385.40294104546962
 20
-175.50003289986171
 30
0.0
 11
385.40294104546962
 21
-165.50003289986171
 31
0.0
  0
LINE
  8
DETAIL
  6
CONTINUOUS
 62
     5
 10
-430.00092585367662
 20
-162.50003289986171
 30
0.0
 11
430.00157491621388
 21
-162.50003289986171
 31
0.0
  0
LINE
  8
DETAIL
  6
CONTINUOUS
 62
     5
 10
-430.00092585367662
 20
-165.50003289986171
 30
0.0
 11
430.00157491621388
 21
-165.50003289986171
 31
0.0
  0
LINE
  8
DETAIL
  6
CONTINUOUS
 62
     5
 10
-385.40044104547093
 20
-162.50003289986171
 30
0.0
 11
-385.40044104547093
 21
-152.50003289986171
 31
0.0
  0
LINE
  8
DETAIL
  6
CONTINUOUS
 62
     5
 10
385.40294104546962
 20
-162.50003289986171
 30
0.0
 11
385.40294104546962
 21
-152.50003289986171
 31
0.0
  0
LINE
  8
DETAIL
  6
CONTINUOUS
 62
     5
 10
-430.00092585367662
 20
-149.50003289986171
 30
0.0
 11
430.00157491621388
 21
-149.50003289986171
 31
0.0
  0
LINE
  8
DETAIL
  6
CONTINUOUS
 62
     5
 10
-430.00092585367662
 20
-152.50003289986171
 30
0.0
 11
430.00157491621388
 21
-152.50003289986171
 31
0.0
  0
LINE
  8
DETAIL
  6
CONTINUOUS
 62
     5
 10
-385.40044104547093
 20
-149.50003289986171
 30
0.0
 11
-385.40044104547093
 21
-139.50003289986171
 31
0.0
  0
LINE
  8
DETAIL
  6
CONTINUOUS
 62
     5
 10
385.40294104546962
 20
-149.50003289986171
 30
0.0
 11
385.40294104546962
 21
-139.50003289986171
 31
0.0
  0
LINE
  8
DETAIL
  6
CONTINUOUS
 62
     5
 10
-430.00092585367662
 20
-136.50003289986171
 30
0.0
 11
430.00157491621388
 21
-136.50003289986171
 31
0.0
  0
LINE
  8
DETAIL
  6
CONTINUOUS
 62
     5
 10
-430.00092585367662
 20
-139.50003289986171
 30
0.0
 11
430.00157491621388
 21
-139.50003289986171
 31
0.0
  0
LINE
  8
DETAIL
  6
CONTINUOUS
 62
     5
 10
-385.40044104547093
 20
-136.50003289986171
 30
0.0
 11
-385.40044104547093
 21
-126.50003289986169
 31
0.0
  0
LINE
  8
DETAIL
  6
CONTINUOUS
 62
     5
 10
385.40294104546962
 20
-136.50003289986171
 30
0.0
 11
385.40294104546962
 21
-126.50003289986169
 31
0.0
  0
LINE
  8
DETAIL
  6
CONTINUOUS
 62
     5
 10
-430.00092585367662
 20
-123.50003289986169
 30
0.0
 11
430.00157491621388
 21
-123.50003289986169
 31
0.0
  0
LINE
  8
DETAIL
  6
CONTINUOUS
 62
     5
 10
-430.00092585367662
 20
-126.50003289986169
 30
0.0
 11
430.00157491621388
 21
-126.50003289986169
 31
0.0
  0
LINE
  8
DETAIL
  6
CONTINUOUS
 62
     5
 10
-385.40044104547093
 20
-123.50003289986169
 30
0.0
 11
-385.40044104547093
 21
-113.50003289986169
 31
0.0
  0
LINE
  8
DETAIL
  6
CONTINUOUS
 62
     5
 10
385.40294104546962
 20
-123.50003289986169
 30
0.0
 11
385.40294104546962
 21
-113.50003289986169
 31
0.0
  0
LINE
  8
DETAIL
  6
CONTINUOUS
 62
     5
 10
-430.00092585367662
 20
-110.50003289986169
 30
0.0
 11
430.00157491621388
 21
-110.50003289986169
 31
0.0
  0
LINE
  8
DETAIL
  6
CONTINUOUS
 62
     5
 10
-430.00092585367662
 20
-113.50003289986169
 30
0.0
 11
430.00157491621388
 21
-113.50003289986169
 31
0.0
  0
LINE
  8
DETAIL
  6
CONTINUOUS
 62
     5
 10
-385.40044104547093
 20
-110.50003289986169
 30
0.0
 11
-385.40044104547093
 21
-100.50003289986169
 31
0.0
  0
LINE
  8
DETAIL
  6
CONTINUOUS
 62
     5
 10
385.40294104546962
 20
-110.50003289986169
 30
0.0
 11
385.40294104546962
 21
-100.50003289986169
 31
0.0
  0
LINE
  8
DETAIL
  6
CONTINUOUS
 62
     5
 10
-430.00092585367662
 20
-97.500032899861708
 30
0.0
 11
430.00157491621388
 21
-97.500032899861708
 31
0.0
  0
LINE
  8
DETAIL
  6
CONTINUOUS
 62
     5
 10
-430.00092585367662
 20
-100.50003289986169
 30
0.0
 11
430.00157491621388
 21
-100.50003289986169
 31
0.0
  0
TEXT
  8
NOTE
  6
CONTINUOUS
 62
     4
 10
340.00317796439958
 20
272.04888531812998
 30
0.0
 40
64.0
  1
EL
 50
0.0
 41
0.9
 51
0.0
  7
STANDARD
 71
     0
 11
0.0
 21
0.0
 31
0.0
210
0.0
220
0.0
230
1.0
  0
LINE
  8
NOTE
  6
CONTINUOUS
 62
     4
 10
339.91317796439978
 20
259.24888531813008
 30
0.0
 11
425.03174939297122
 21
259.24888531813008
 31
0.0
  0
LINE
  8
NOTE
  6
CONTINUOUS
 62
     4
 10
140.13985053394231
 20
-14.740664674346394
 30
0.0
 11
113.8578275375057
 21
-34.909343425686977
 31
0.0
  0
LINE
  8
NOTE
  6
CONTINUOUS
 62
     4
 10
113.8578275375057
 20
-34.909343425686977
 30
0.0
 11
126.53434161565134
 21
-4.3017246652120811
 31
0.0
  0
LINE
  8
NOTE
  6
CONTINUOUS
 62
     4
 10
113.8578275375057
 20
-34.909343425686977
 30
0.0
 11
152.81636461208797
 21
15.866954086128501
 31
0.0
  0
LINE
  8
NOTE
  6
CONTINUOUS
 62
     4
 10
152.81636461208791
 20
15.866954086128541
 30
0.0
 11
339.55317796439982
 21
259.24888531813008
 31
0.0
  0
LINE
  8
NOTE
  6
CONTINUOUS
 62
     4
 10
339.55317796439982
 20
259.24888531813008
 30
0.0
 11
339.91317796439978
 21
259.24888531813008
 31
0.0
  0
ENDSEC
  0
EOF
