  0
SECTION
  2
HEADER
  9
$ACADVER
  1
AC1006
  9
$INSBASE
 10
0.0
 20
0.0
 30
0.0
  9
$EXTMIN
 10
-581.859891
 20
-687.311905
  9
$EXTMAX
 10
1467.192662
 20
300.58717
  9
$LIMMIN
 10
-2970.0
 20
-2100.0
  9
$LIMMAX
 10
2970.0
 20
2100.0
  9
$ORTHOMODE
 70
     1
  9
$REGENMODE
 70
     0
  9
$FILLMODE
 70
     1
  9
$QTEXTMODE
 70
     0
  9
$MIRRTEXT
 70
     0
  9
$DRAGMODE
 70
     2
  9
$LTSCALE
 40
20.0
  9
$OSMODE
 70
     0
  9
$ATTMODE
 70
     1
  9
$TEXTSIZE
 40
64.0
  9
$TRACEWID
 40
0.05
  9
$TEXTSTYLE
  7
STANDARD
  9
$CLAYER
  8
0
  9
$CELTYPE
  6
CONTINUOUS
  9
$CECOLOR
 62
     4
  9
$DIMSCALE
 40
1.0
  9
$DIMASZ
 40
2.0
  9
$DIMEXO
 40
20.0
  9
$DIMDLI
 40
200.0
  9
$DIMRND
 40
0.0
  9
$DIMDLE
 40
0.0
  9
$DIMEXE
 40
30.0
  9
$DIMTP
 40
0.0
  9
$DIMTM
 40
0.0
  9
$DIMTXT
 40
64.0
  9
$DIMCEN
 40
0.09
  9
$DIMTSZ
 40
0.0
  9
$DIMTOL
 70
     0
  9
$DIMLIM
 70
     0
  9
$DIMTIH
 70
     0
  9
$DIMTOH
 70
     0
  9
$DIMSE1
 70
     0
  9
$DIMSE2
 70
     0
  9
$DIMTAD
 70
     1
  9
$DIMZIN
 70
     8
  9
$DIMBLK
  1
DOT1
  9
$DIMASO
 70
     1
  9
$DIMSHO
 70
     0
  9
$DIMPOST
  1

  9
$DIMAPOST
  1

  9
$DIMALT
 70
     0
  9
$DIMALTD
 70
     2
  9
$DIMALTF
 40
25.4
  9
$DIMLFAC
 40
1.0
  9
$DIMTOFL
 70
     1
  9
$DIMTVP
 40
0.0
  9
$DIMTIX
 70
     1
  9
$DIMSOXD
 70
     0
  9
$DIMSAH
 70
     0
  9
$DIMBLK1
  1

  9
$DIMBLK2
  1

  9
$LUNITS
 70
     2
  9
$LUPREC
 70
     4
  9
$AXISMODE
 70
     0
  9
$AXISUNIT
 10
0.0
 20
0.0
  9
$SKETCHINC
 40
0.1
  9
$FILLETRAD
 40
40.0
  9
$AUNITS
 70
     1
  9
$AUPREC
 70
     3
  9
$MENU
  1
ACAD
  9
$ELEVATION
 40
0.0
  9
$THICKNESS
 40
0.0
  9
$LIMCHECK
 70
     0
  9
$BLIPMODE
 70
     0
  9
$CHAMFERA
 40
0.0
  9
$CHAMFERB
 40
0.0
  9
$SKPOLY
 70
     0
  9
$TDCREATE
 40
2450042.4787268518
  9
$TDUPDATE
 40
2451694.3813194446
  9
$TDINDWG
 40
0.0076620370
  9
$TDUSRTIMER
 40
0.0076620370
  9
$USRTIMER
 70
     1
  9
$ANGBASE
 50
0.0
  9
$ANGDIR
 70
     0
  9
$PDMODE
 70
     3
  9
$PDSIZE
 40
-2.0
  9
$PLINEWID
 40
0.0
  9
$COORDS
 70
     2
  9
$SPLFRAME
 70
     0
  9
$SPLINETYPE
 70
     6
  9
$SPLINESEGS
 70
     8
  9
$ATTDIA
 70
     0
  9
$ATTREQ
 70
     1
  9
$HANDLING
 70
     0
  9
$HANDSEED
  5
0
  9
$SURFTAB1
 70
     6
  9
$SURFTAB2
 70
     6
  9
$SURFTYPE
 70
     6
  9
$SURFU
 70
     6
  9
$SURFV
 70
     6
  9
$FLATLAND
 70
     1
  9
$UCSNAME
  2

  9
$UCSORG
 10
0.0
 20
0.0
 30
0.0
  9
$UCSXDIR
 10
1.0
 20
0.0
 30
0.0
  9
$UCSYDIR
 10
0.0
 20
1.0
 30
0.0
  9
$USERI1
 70
     0
  9
$USERI2
 70
     0
  9
$USERI3
 70
     0
  9
$USERI4
 70
     0
  9
$USERI5
 70
     0
  9
$USERR1
 40
20.0
  9
$USERR2
 40
0.0
  9
$USERR3
 40
0.0
  9
$USERR4
 40
0.0
  9
$USERR5
 40
0.0
  9
$WORLDVIEW
 70
     1
  9
$VIEWCTR
 10
-0.0
 20
41.309904
  9
$VIEWSIZE
 40
4282.619808
  9
$SNAPMODE
 70
     0
  9
$SNAPUNIT
 10
100.0
 20
100.0
  9
$SNAPBASE
 10
0.0
 20
0.0
  9
$SNAPANG
 50
0.0
  9
$SNAPSTYLE
 70
     0
  9
$SNAPISOPAIR
 70
     1
  9
$GRIDMODE
 70
     0
  9
$GRIDUNIT
 10
200.0
 20
200.0
  9
$FASTZOOM
 70
     1
  9
$VIEWDIR
 10
0.0
 20
0.0
 30
1.0
  0
ENDSEC
  0
SECTION
  2
TABLES
  0
TABLE
  2
VPORT
 70
     2
  0
VPORT
  2
*ACTIVE
 70
     0
 10
0.0
 20
0.0
 11
1.0
 21
1.0
 12
-0.0
 22
41.309904
 13
0.0
 23
0.0
 14
100.0
 24
100.0
 15
200.0
 25
200.0
 16
0.0
 26
0.0
 36
1.0
 17
0.0
 27
0.0
 37
0.0
 40
4282.619808
 41
1.387001
 42
50.0
 43
0.0
 44
0.0
 50
0.0
 51
0.0
 71
     0
 72
  1000
 73
     1
 74
     0
 75
     0
 76
     0
 77
     0
 78
     1
  0
ENDTAB
  0
TABLE
  2
LTYPE
 70
     7
  0
LTYPE
  2
CONTINUOUS
 70
    64
  3
実線
 72
    65
 73
     0
 40
0.0
  0
LTYPE
  2
DOT
 70
    64
  3
...............................................
 72
    65
 73
     2
 40
0.8
 49
0.5
 49
-0.3
  0
LTYPE
  2
DASHED
 70
    64
  3
_ _ _ _ _ _ _ _ _ _ _ _ _ _ _ _ _ _ _ _ _ _ _
 72
    65
 73
     2
 40
2.0
 49
1.2
 49
-0.8
  0
LTYPE
  2
DASHDOT
 70
    64
  3
____ _ ____ _ ____ _ ____ _ ____ _ ____ _ ____
 72
    65
 73
     4
 40
5.5
 49
4.0
 49
-0.6
 49
0.3
 49
-0.6
  0
LTYPE
  2
DASHDOT1
 70
    64
  3
____ _ ____ _ ____ _ ____ _ ____ _ ____ _ ____
 72
    65
 73
     4
 40
2.0
 49
1.5
 49
-0.2
 49
0.1
 49
-0.2
  0
LTYPE
  2
DIVIDE
 70
    64
  3
_____ _ _ _____ _ _ _____ _ _ _____ _ _ ____
 72
    65
 73
     6
 40
6.4
 49
4.0
 49
-0.6
 49
0.3
 49
-0.6
 49
0.3
 49
-0.6
  0
LTYPE
  2
DIVIDE1
 70
    64
  3
_____ _ _ _____ _ _ _____ _ _ _____ _ _ ____
 72
    65
 73
     6
 40
3.2
 49
2.0
 49
-0.3
 49
0.15
 49
-0.3
 49
0.15
 49
-0.3
  0
ENDTAB
  0
TABLE
  2
LAYER
 70
    12
  0
LAYER
  2
0
 70
     0
 62
     2
  6
CONTINUOUS
  0
LAYER
  2
OUTLINE
 70
    64
 62
     4
  6
CONTINUOUS
  0
LAYER
  2
DETAIL
 70
    64
 62
     1
  6
CONTINUOUS
  0
LAYER
  2
BASIS
 70
    64
 62
     1
  6
CONTINUOUS
  0
LAYER
  2
SIZE
 70
    64
 62
     4
  6
CONTINUOUS
  0
LAYER
  2
NOTE
 70
    64
 62
     1
  6
CONTINUOUS
  0
LAYER
  2
DEFPOINTS
 70
     0
 62
     7
  6
CONTINUOUS
  0
LAYER
  2
FIX
 70
    64
 62
     7
  6
CONTINUOUS
  0
LAYER
  2
ETC
 70
    64
 62
     7
  6
CONTINUOUS
  0
LAYER
  2
ARRANGE
 70
    64
 62
     7
  6
CONTINUOUS
  0
LAYER
  2
SERVICESPACE
 70
     0
 62
     7
  6
CONTINUOUS
  0
LAYER
  2
SYMBOLLINE
 70
     0
 62
     7
  6
CONTINUOUS
  0
ENDTAB
  0
TABLE
  2
STYLE
 70
     1
  0
STYLE
  2
STANDARD
 70
    64
 40
0.0
 41
0.9
 50
0.0
 71
     0
 42
64.0
  3
SIMPLEX
  4
BIGFONT
  0
ENDTAB
  0
TABLE
  2
VIEW
 70
     1
  0
VIEW
  2
ALL
 70
     0
 40
4282.619808
 10
-0.0
 20
41.309904
 41
5940.0
 11
0.0
 21
0.0
 31
1.0
 12
0.0
 22
0.0
 32
0.0
 42
50.0
 43
0.0
 44
0.0
 50
0.0
 71
     0
  0
ENDTAB
  0
TABLE
  2
UCS
 70
     0
  0
ENDTAB
  0
TABLE
  2
DWGMGR
 70
     0
  0
ENDTAB
  0
ENDSEC
  0
SECTION
  2
BLOCKS
  0
ENDSEC
  0
SECTION
  2
ENTITIES
  0
TEXT
  8
ETC
  6
CONTINUOUS
 62
    10
 10
1149.021234
 20
-154.047555
 40
64.0
  1
GK0223
 41
0.9
  0
TEXT
  8
NOTE
  6
CONTINUOUS
 62
     4
 10
515.348171
 20
-340.054079
 40
64.0
  1
8-10×21
 41
0.9
  0
POINT
  8
ARRANGE
  6
CONTINUOUS
 62
     1
 10
0.0
 20
0.0
  0
LINE
  8
NOTE
  6
CONTINUOUS
 62
     4
 10
910.873501
 20
-363.858633
 11
471.815465
 21
-363.858633
  0
LINE
  8
NOTE
  6
CONTINUOUS
 62
     4
 10
305.0
 20
-150.0
 11
471.815465
 21
-363.858633
  0
LINE
  8
BASIS
  6
DASHDOT
 62
     6
 10
-0.0
 20
-242.622713
 11
0.0
 21
45.26191
  0
LINE
  8
DETAIL
  6
CONTINUOUS
 62
     5
 10
455.0
 20
-220.0
 11
455.0
 21
0.0
  0
LINE
  8
DETAIL
  6
CONTINUOUS
 62
     5
 10
-455.0
 20
-220.0
 11
-455.0
 21
0.0
  0
LINE
  8
DETAIL
  6
CONTINUOUS
 62
     5
 10
-455.0
 20
0.0
 11
455.0
 21
0.0
  0
LINE
  8
DETAIL
  6
CONTINUOUS
 62
     5
 10
-455.0
 20
-220.0
 11
455.0
 21
-220.0
  0
LINE
  8
BASIS
  6
DASHDOT
 62
     6
 10
-484.785474
 20
-110.0
 11
489.283606
 21
-110.0
  0
TEXT
  8
NOTE
  6
CONTINUOUS
 62
     4
 10
74.814612
 20
172.282447
 40
64.0
  1
EL
 41
0.9
  0
LINE
  8
NOTE
  6
CONTINUOUS
 62
     4
 10
-65.0
 20
0.0
 11
58.449958
 21
151.818967
  0
LINE
  8
NOTE
  6
CONTINUOUS
 62
     4
 10
58.449958
 20
151.818967
 11
167.107261
 21
151.818967
  0
LINE
  8
DETAIL
  6
CONTINUOUS
 62
     5
 10
-447.0
 20
-200.0
 11
-447.0
 21
0.0
  0
LINE
  8
DETAIL
  6
CONTINUOUS
 62
     5
 10
447.0
 20
-200.0
 11
447.0
 21
0.0
  0
LINE
  8
DETAIL
  6
CONTINUOUS
 62
     5
 10
-447.0
 20
-200.0
 11
447.0
 21
-200.0
  0
LINE
  8
DETAIL
  6
CONTINUOUS
 62
     5
 10
110.5
 20
-155.0
 11
99.5
 21
-155.0
  0
LINE
  8
DETAIL
  6
CONTINUOUS
 62
     5
 10
110.5
 20
-145.0
 11
99.5
 21
-145.0
  0
ARC
  8
DETAIL
  6
CONTINUOUS
 62
     5
 10
99.5
 20
-150.0
 40
5.0
 50
90.0
 51
270.0
  0
ARC
  8
DETAIL
  6
CONTINUOUS
 62
     5
 10
110.5
 20
-150.0
 40
5.0
 50
270.0
 51
90.0
  0
ARC
  8
DETAIL
  6
CONTINUOUS
 62
     5
 10
310.5
 20
-150.0
 40
5.0
 50
270.0
 51
90.0
  0
ARC
  8
DETAIL
  6
CONTINUOUS
 62
     5
 10
299.5
 20
-150.0
 40
5.0
 50
90.0
 51
270.0
  0
LINE
  8
DETAIL
  6
CONTINUOUS
 62
     5
 10
310.5
 20
-145.0
 11
299.5
 21
-145.0
  0
LINE
  8
DETAIL
  6
CONTINUOUS
 62
     5
 10
310.5
 20
-155.0
 11
299.5
 21
-155.0
  0
LINE
  8
DETAIL
  6
CONTINUOUS
 62
     5
 10
-99.5
 20
-155.0
 11
-110.5
 21
-155.0
  0
LINE
  8
DETAIL
  6
CONTINUOUS
 62
     5
 10
-99.5
 20
-145.0
 11
-110.5
 21
-145.0
  0
ARC
  8
DETAIL
  6
CONTINUOUS
 62
     5
 10
-110.5
 20
-150.0
 40
5.0
 50
90.0
 51
270.0
  0
ARC
  8
DETAIL
  6
CONTINUOUS
 62
     5
 10
-99.5
 20
-150.0
 40
5.0
 50
270.0
 51
90.0
  0
ARC
  8
DETAIL
  6
CONTINUOUS
 62
     5
 10
-299.5
 20
-150.0
 40
5.0
 50
270.0
 51
90.0
  0
ARC
  8
DETAIL
  6
CONTINUOUS
 62
     5
 10
-310.5
 20
-150.0
 40
5.0
 50
90.0
 51
270.0
  0
LINE
  8
DETAIL
  6
CONTINUOUS
 62
     5
 10
-299.5
 20
-145.0
 11
-310.5
 21
-145.0
  0
LINE
  8
DETAIL
  6
CONTINUOUS
 62
     5
 10
-299.5
 20
-155.0
 11
-310.5
 21
-155.0
  0
LINE
  8
DETAIL
  6
CONTINUOUS
 62
     5
 10
-299.5
 20
-25.0
 11
-310.5
 21
-25.0
  0
LINE
  8
DETAIL
  6
CONTINUOUS
 62
     5
 10
-299.5
 20
-15.0
 11
-310.5
 21
-15.0
  0
ARC
  8
DETAIL
  6
CONTINUOUS
 62
     5
 10
-310.5
 20
-20.0
 40
5.0
 50
90.0
 51
270.0
  0
ARC
  8
DETAIL
  6
CONTINUOUS
 62
     5
 10
-299.5
 20
-20.0
 40
5.0
 50
270.0
 51
90.0
  0
ARC
  8
DETAIL
  6
CONTINUOUS
 62
     5
 10
-99.5
 20
-20.0
 40
5.0
 50
270.0
 51
90.0
  0
ARC
  8
DETAIL
  6
CONTINUOUS
 62
     5
 10
-110.5
 20
-20.0
 40
5.0
 50
90.0
 51
270.0
  0
LINE
  8
DETAIL
  6
CONTINUOUS
 62
     5
 10
-99.5
 20
-15.0
 11
-110.5
 21
-15.0
  0
LINE
  8
DETAIL
  6
CONTINUOUS
 62
     5
 10
-99.5
 20
-25.0
 11
-110.5
 21
-25.0
  0
LINE
  8
DETAIL
  6
CONTINUOUS
 62
     5
 10
310.5
 20
-25.0
 11
299.5
 21
-25.0
  0
LINE
  8
DETAIL
  6
CONTINUOUS
 62
     5
 10
310.5
 20
-15.0
 11
299.5
 21
-15.0
  0
ARC
  8
DETAIL
  6
CONTINUOUS
 62
     5
 10
299.5
 20
-20.0
 40
5.0
 50
90.0
 51
270.0
  0
ARC
  8
DETAIL
  6
CONTINUOUS
 62
     5
 10
310.5
 20
-20.0
 40
5.0
 50
270.0
 51
90.0
  0
ARC
  8
DETAIL
  6
CONTINUOUS
 62
     5
 10
110.5
 20
-20.0
 40
5.0
 50
270.0
 51
90.0
  0
ARC
  8
DETAIL
  6
CONTINUOUS
 62
     5
 10
99.5
 20
-20.0
 40
5.0
 50
90.0
 51
270.0
  0
LINE
  8
DETAIL
  6
CONTINUOUS
 62
     5
 10
110.5
 20
-15.0
 11
99.5
 21
-15.0
  0
LINE
  8
DETAIL
  6
CONTINUOUS
 62
     5
 10
110.5
 20
-25.0
 11
99.5
 21
-25.0
  0
LINE
  8
SIZE
  6
CONTINUOUS
 62
     8
 10
635.940662
 20
-10.0
 11
635.940662
 21
108.466364
  0
LINE
  8
SIZE
  6
CONTINUOUS
 62
     8
 10
449.0
 20
-529.140334
 11
575.077393
 21
-529.140334
  0
LINE
  8
SIZE
  6
CONTINUOUS
 62
     8
 10
-453.0
 20
-529.140334
 11
-581.859891
 21
-529.140334
  0
LINE
  8
NOTE
  6
CONTINUOUS
 62
     4
 10
305.0
 20
-170.0
 11
305.0
 21
-130.0
  0
LINE
  8
NOTE
  6
CONTINUOUS
 62
     4
 10
325.0
 20
-150.0
 11
285.0
 21
-150.0
  0
LINE
  8
NOTE
  6
CONTINUOUS
 62
     4
 10
305.0
 20
-40.0
 11
305.0
 21
0.0
  0
LINE
  8
NOTE
  6
CONTINUOUS
 62
     4
 10
325.0
 20
-20.0
 11
285.0
 21
-20.0
  0
LINE
  8
NOTE
  6
CONTINUOUS
 62
     4
 10
-305.0
 20
-40.0
 11
-305.0
 21
0.0
  0
LINE
  8
NOTE
  6
CONTINUOUS
 62
     4
 10
-285.0
 20
-20.0
 11
-325.0
 21
-20.0
  0
LINE
  8
NOTE
  6
CONTINUOUS
 62
     4
 10
-305.0
 20
-170.0
 11
-305.0
 21
-130.0
  0
LINE
  8
NOTE
  6
CONTINUOUS
 62
     4
 10
-285.0
 20
-150.0
 11
-325.0
 21
-150.0
  0
LINE
  8
NOTE
  6
CONTINUOUS
 62
     4
 10
-65.0
 20
-20.0
 11
-65.0
 21
20.0
  0
LINE
  8
NOTE
  6
CONTINUOUS
 62
     4
 10
-45.0
 20
0.0
 11
-85.0
 21
0.0
  0
LINE
  8
NOTE
  6
CONTINUOUS
 62
     4
 10
105.0
 20
-40.0
 11
105.0
 21
0.0
  0
LINE
  8
NOTE
  6
CONTINUOUS
 62
     4
 10
125.0
 20
-20.0
 11
85.0
 21
-20.0
  0
LINE
  8
NOTE
  6
CONTINUOUS
 62
     4
 10
105.0
 20
-170.0
 11
105.0
 21
-130.0
  0
LINE
  8
NOTE
  6
CONTINUOUS
 62
     4
 10
125.0
 20
-150.0
 11
85.0
 21
-150.0
  0
LINE
  8
NOTE
  6
CONTINUOUS
 62
     4
 10
-105.0
 20
-170.0
 11
-105.0
 21
-130.0
  0
LINE
  8
NOTE
  6
CONTINUOUS
 62
     4
 10
-85.0
 20
-150.0
 11
-125.0
 21
-150.0
  0
LINE
  8
NOTE
  6
CONTINUOUS
 62
     4
 10
-105.0
 20
-40.0
 11
-105.0
 21
0.0
  0
LINE
  8
NOTE
  6
CONTINUOUS
 62
     4
 10
-85.0
 20
-20.0
 11
-125.0
 21
-20.0
  0
TEXT
  8
ETC
  6
CONTINUOUS
 62
    10
 10
1140.754693
 20
-57.316458
 40
64.0
  1
産業扇
 41
0.9
  0
CIRCLE
  8
ARRANGE
  6
CONTINUOUS
 62
     1
 10
0.0
 20
0.0
 40
40.0
  0
CIRCLE
  8
FIX
  6
CONTINUOUS
 62
     9
 10
-105.0
 20
-20.0
 40
40.0
  0
CIRCLE
  8
FIX
  6
CONTINUOUS
 62
     9
 10
-105.0
 20
-150.0
 40
40.0
  0
CIRCLE
  8
FIX
  6
CONTINUOUS
 62
     9
 10
105.0
 20
-150.0
 40
40.0
  0
CIRCLE
  8
FIX
  6
CONTINUOUS
 62
     9
 10
105.0
 20
-20.0
 40
40.0
  0
CIRCLE
  8
FIX
  6
CONTINUOUS
 62
     9
 10
-305.0
 20
-150.0
 40
40.0
  0
CIRCLE
  8
FIX
  6
CONTINUOUS
 62
     9
 10
-305.0
 20
-20.0
 40
40.0
  0
CIRCLE
  8
FIX
  6
CONTINUOUS
 62
     9
 10
305.0
 20
-20.0
 40
40.0
  0
CIRCLE
  8
FIX
  6
CONTINUOUS
 62
     9
 10
305.0
 20
-150.0
 40
40.0
  0
LINE
  8
OUTLINE
  6
CONTINUOUS
 62
     3
 10
-455.0
 20
0.0
 11
455.0
 21
0.0
  0
LINE
  8
OUTLINE
  6
CONTINUOUS
 62
     3
 10
-455.0
 20
-220.0
 11
-455.0
 21
0.0
  0
LINE
  8
OUTLINE
  6
CONTINUOUS
 62
     3
 10
-455.0
 20
-220.0
 11
455.0
 21
-220.0
  0
LINE
  8
OUTLINE
  6
CONTINUOUS
 62
     3
 10
455.0
 20
-220.0
 11
455.0
 21
0.0
  0
LINE
  8
SIZE
  6
BYBLOCK
 62
     8
 10
-65.0
 20
40.0
 11
-65.0
 21
234.58717
  0
LINE
  8
SIZE
  6
BYBLOCK
 62
     8
 10
-455.0
 20
20.0
 11
-455.0
 21
234.58717
  0
LINE
  8
SIZE
  6
BYBLOCK
 62
     8
 10
-67.0
 20
204.58717
 11
-453.0
 21
204.58717
  0
TEXT
  8
SIZE
  6
BYBLOCK
 62
     8
 10
-334.057143
 20
236.58717
 40
64.0
  1
390
 41
0.9
  0
LINE
  8
SIZE
  6
BYBLOCK
 62
     8
 10
-447.0
 20
-220.0
 11
-447.0
 21
-559.140334
  0
LINE
  8
SIZE
  6
BYBLOCK
 62
     8
 10
-455.0
 20
-240.0
 11
-455.0
 21
-559.140334
  0
LINE
  8
SIZE
  6
BYBLOCK
 62
     8
 10
-449.0
 20
-529.140334
 11
-451.0
 21
-529.140334
  0
LINE
  8
SIZE
  6
BYBLOCK
 62
     8
 10
-453.0
 20
-529.140334
 11
-451.0
 21
-529.140334
  0
TEXT
  8
SIZE
  6
BYBLOCK
 62
     8
 10
-542.50858
 20
-494.646975
 40
64.0
  1
8
 41
0.9
  0
LINE
  8
SIZE
  6
BYBLOCK
 62
     8
 10
455.0
 20
-240.0
 11
455.0
 21
-559.140334
  0
LINE
  8
SIZE
  6
BYBLOCK
 62
     8
 10
447.0
 20
-220.0
 11
447.0
 21
-559.140334
  0
LINE
  8
SIZE
  6
BYBLOCK
 62
     8
 10
453.0
 20
-529.140334
 11
451.0
 21
-529.140334
  0
LINE
  8
SIZE
  6
BYBLOCK
 62
     8
 10
449.0
 20
-529.140334
 11
451.0
 21
-529.140334
  0
TEXT
  8
SIZE
  6
BYBLOCK
 62
     8
 10
506.60198
 20
-502.127053
 40
64.0
  1
8
 41
0.9
  0
LINE
  8
SIZE
  6
BYBLOCK
 62
     8
 10
455.0
 20
-240.0
 11
455.0
 21
-687.026778
  0
LINE
  8
SIZE
  6
BYBLOCK
 62
     8
 10
-455.0
 20
-240.0
 11
-455.0
 21
-687.026778
  0
LINE
  8
SIZE
  6
BYBLOCK
 62
     8
 10
453.0
 20
-657.026778
 11
0.0
 21
-657.026778
  0
LINE
  8
SIZE
  6
BYBLOCK
 62
     8
 10
-453.0
 20
-657.026778
 11
0.0
 21
-657.026778
  0
TEXT
  8
SIZE
  6
BYBLOCK
 62
     8
 10
-68.571429
 20
-625.026778
 40
64.0
  1
910
 41
0.9
  0
LINE
  8
SIZE
  6
BYBLOCK
 62
     8
 10
305.0
 20
-190.0
 11
305.0
 21
-559.140334
  0
LINE
  8
SIZE
  6
BYBLOCK
 62
     8
 10
-305.0
 20
-190.0
 11
-305.0
 21
-559.140334
  0
LINE
  8
SIZE
  6
BYBLOCK
 62
     8
 10
303.0
 20
-529.140334
 11
-0.0
 21
-529.140334
  0
LINE
  8
SIZE
  6
BYBLOCK
 62
     8
 10
-303.0
 20
-529.140334
 11
-0.0
 21
-529.140334
  0
TEXT
  8
SIZE
  6
BYBLOCK
 62
     8
 10
-68.571429
 20
-497.140334
 40
64.0
  1
610
 41
0.9
  0
LINE
  8
SIZE
  6
BYBLOCK
 62
     8
 10
-105.0
 20
-190.0
 11
-105.0
 21
-416.338972
  0
LINE
  8
SIZE
  6
BYBLOCK
 62
     8
 10
105.0
 20
-190.0
 11
105.0
 21
-416.338972
  0
LINE
  8
SIZE
  6
BYBLOCK
 62
     8
 10
-103.0
 20
-386.338972
 11
103.0
 21
-386.338972
  0
TEXT
  8
SIZE
  6
BYBLOCK
 62
     8
 10
-68.571429
 20
-354.338972
 40
64.0
  1
210
 41
0.9
  0
LINE
  8
SIZE
  6
BYBLOCK
 62
     8
 10
475.0
 20
0.0
 11
985.828446
 21
0.0
  0
LINE
  8
SIZE
  6
BYBLOCK
 62
     8
 10
475.0
 20
-220.0
 11
985.828446
 21
-220.0
  0
LINE
  8
SIZE
  6
BYBLOCK
 62
     8
 10
955.828446
 20
-2.0
 11
955.828446
 21
-218.0
  0
TEXT
  8
SIZE
  6
BYBLOCK
 62
     8
 10
923.828446
 20
-184.057143
 40
64.0
  1
220
 50
90.0
 41
0.9
  0
LINE
  8
SIZE
  6
BYBLOCK
 62
     8
 10
475.0
 20
0.0
 11
829.193738
 21
0.0
  0
LINE
  8
SIZE
  6
BYBLOCK
 62
     8
 10
467.0
 20
-200.0
 11
829.193738
 21
-200.0
  0
LINE
  8
SIZE
  6
BYBLOCK
 62
     8
 10
799.193738
 20
-2.0
 11
799.193738
 21
-198.0
  0
TEXT
  8
SIZE
  6
BYBLOCK
 62
     8
 10
767.193738
 20
-174.057143
 40
64.0
  1
200
 50
90.0
 41
0.9
  0
LINE
  8
SIZE
  6
BYBLOCK
 62
     8
 10
345.0
 20
-20.0
 11
665.940662
 21
-20.0
  0
LINE
  8
SIZE
  6
BYBLOCK
 62
     8
 10
345.0
 20
-150.0
 11
665.940662
 21
-150.0
  0
LINE
  8
SIZE
  6
BYBLOCK
 62
     8
 10
635.940662
 20
-152.0
 11
635.940662
 21
-154.0
  0
LINE
  8
SIZE
  6
BYBLOCK
 62
     8
 10
635.940662
 20
-18.0
 11
635.940662
 21
-16.0
  0
LINE
  8
SIZE
  6
BYBLOCK
 62
     8
 10
635.940662
 20
-150.0
 11
635.940662
 21
-20.0
  0
TEXT
  8
SIZE
  6
BYBLOCK
 62
     8
 10
603.940662
 20
-153.571429
 40
64.0
  1
130
 50
90.0
 41
0.9
  0
LINE
  8
SIZE
  6
BYBLOCK
 62
     8
 10
475.0
 20
0.0
 11
665.940662
 21
0.0
  0
LINE
  8
SIZE
  6
BYBLOCK
 62
     8
 10
345.0
 20
-20.0
 11
665.940662
 21
-20.0
  0
LINE
  8
SIZE
  6
BYBLOCK
 62
     8
 10
635.940662
 20
-2.0
 11
635.940662
 21
-10.0
  0
LINE
  8
SIZE
  6
BYBLOCK
 62
     8
 10
635.940662
 20
-18.0
 11
635.940662
 21
-10.0
  0
TEXT
  8
SIZE
  6
BYBLOCK
 62
     8
 10
603.940662
 20
18.380454
 40
64.0
  1
20
 50
90.0
 41
0.9
  0
CIRCLE
  8
SIZE
  6
CONTINUOUS
 62
     8
 10
635.940662
 20
-20.0
 40
6.0
  0
CIRCLE
  8
SIZE
  6
CONTINUOUS
 62
     8
 10
635.940662
 20
0.0
 40
6.0
  0
CIRCLE
  8
SIZE
  6
CONTINUOUS
 62
     8
 10
635.940662
 20
-20.0
 40
6.0
  0
CIRCLE
  8
SIZE
  6
CONTINUOUS
 62
     8
 10
635.940662
 20
-150.0
 40
6.0
  0
CIRCLE
  8
SIZE
  6
CONTINUOUS
 62
     8
 10
799.193738
 20
-200.0
 40
6.0
  0
CIRCLE
  8
SIZE
  6
CONTINUOUS
 62
     8
 10
799.193738
 20
0.0
 40
6.0
  0
CIRCLE
  8
SIZE
  6
CONTINUOUS
 62
     8
 10
955.828446
 20
-220.0
 40
6.0
  0
CIRCLE
  8
SIZE
  6
CONTINUOUS
 62
     8
 10
955.828446
 20
0.0
 40
6.0
  0
CIRCLE
  8
SIZE
  6
CONTINUOUS
 62
     8
 10
105.0
 20
-386.338972
 40
6.0
  0
CIRCLE
  8
SIZE
  6
CONTINUOUS
 62
     8
 10
-105.0
 20
-386.338972
 40
6.0
  0
CIRCLE
  8
SIZE
  6
CONTINUOUS
 62
     8
 10
-305.0
 20
-529.140334
 40
6.0
  0
CIRCLE
  8
SIZE
  6
CONTINUOUS
 62
     8
 10
305.0
 20
-529.140334
 40
6.0
  0
CIRCLE
  8
SIZE
  6
CONTINUOUS
 62
     8
 10
-455.0
 20
-657.026778
 40
6.0
  0
CIRCLE
  8
SIZE
  6
CONTINUOUS
 62
     8
 10
455.0
 20
-657.026778
 40
6.0
  0
CIRCLE
  8
SIZE
  6
CONTINUOUS
 62
     8
 10
447.0
 20
-529.140334
 40
6.0
  0
CIRCLE
  8
SIZE
  6
CONTINUOUS
 62
     8
 10
455.0
 20
-529.140334
 40
6.0
  0
CIRCLE
  8
SIZE
  6
CONTINUOUS
 62
     8
 10
-455.0
 20
-529.140334
 40
6.0
  0
CIRCLE
  8
SIZE
  6
CONTINUOUS
 62
     8
 10
-447.0
 20
-529.140334
 40
6.0
  0
CIRCLE
  8
SIZE
  6
CONTINUOUS
 62
     8
 10
-455.0
 20
204.58717
 40
6.0
  0
CIRCLE
  8
SIZE
  6
CONTINUOUS
 62
     8
 10
-65.0
 20
204.58717
 40
6.0
  0
POLYLINE
  8
NOTE
  6
CONTINUOUS
 62
     4
 66
     1
  0
VERTEX
  8
NOTE
  6
CONTINUOUS
 62
     4
 10
-47.719056
 20
36.074492
 50
229.403948
  0
VERTEX
  8
NOTE
  6
CONTINUOUS
 62
     4
 10
-65.0
 20
0.0
 50
229.403948
  0
VERTEX
  8
NOTE
  6
CONTINUOUS
 62
     4
 10
-31.997017
 20
22.600954
 50
229.403948
  0
SEQEND
  8
NOTE
  6
CONTINUOUS
 62
     4
  0
POLYLINE
  8
NOTE
  6
CONTINUOUS
 62
     4
 66
     1
  0
VERTEX
  8
NOTE
  6
CONTINUOUS
 62
     4
 10
337.771928
 20
-172.934706
 50
130.014603
  0
VERTEX
  8
NOTE
  6
CONTINUOUS
 62
     4
 10
305.0
 20
-150.0
 50
130.014603
  0
VERTEX
  8
NOTE
  6
CONTINUOUS
 62
     4
 10
321.91397
 20
-186.248002
 50
130.014603
  0
SEQEND
  8
NOTE
  6
CONTINUOUS
 62
     4
  0
ENDSEC
  0
EOF
