  0
SECTION
  2
HEADER
  9
$ACADVER
  1
AC1009
  9
$DWGCODEPAGE
  3
dos932
  9
$INSBASE
 10
0.0
 20
0.0
 30
0.0
  9
$EXTMIN
 10
-668.90257138165543
 20
-474.88402153235438
 30
-0.0015258207003583
  9
$EXTMAX
 10
866.94489663576678
 20
552.42920719602625
 30
0.0000000349246037
  9
$LIMMIN
 10
-2970.0
 20
-2100.0
  9
$LIMMAX
 10
2970.0
 20
2100.0
  9
$ORTHOMODE
 70
     1
  9
$REGENMODE
 70
     1
  9
$FILLMODE
 70
     1
  9
$QTEXTMODE
 70
     0
  9
$MIRRTEXT
 70
     0
  9
$LTSCALE
 40
20.0
  9
$ATTMODE
 70
     1
  9
$TEXTSIZE
 40
64.0
  9
$TRACEWID
 40
0.05
  9
$TEXTSTYLE
  7
STANDARD
  9
$CLAYER
  8
SIZE
  9
$CELTYPE
  6
CONTINUOUS
  9
$CECOLOR
 62
     7
  9
$DIMSCALE
 40
1.0
  9
$DIMASZ
 40
12.0
  9
$DIMEXO
 40
20.0
  9
$DIMDLI
 40
200.0
  9
$DIMRND
 40
0.0
  9
$DIMDLE
 40
0.0
  9
$DIMEXE
 40
20.0
  9
$DIMTP
 40
0.0
  9
$DIMTM
 40
0.0
  9
$DIMTXT
 40
64.0
  9
$DIMCEN
 40
0.09
  9
$DIMTSZ
 40
0.0
  9
$DIMTOL
 70
     0
  9
$DIMLIM
 70
     0
  9
$DIMTIH
 70
     0
  9
$DIMTOH
 70
     0
  9
$DIMSE1
 70
     0
  9
$DIMSE2
 70
     0
  9
$DIMTAD
 70
     1
  9
$DIMZIN
 70
     8
  9
$DIMBLK
  1

  9
$DIMASO
 70
     1
  9
$DIMSHO
 70
     0
  9
$DIMPOST
  1

  9
$DIMAPOST
  1

  9
$DIMALT
 70
     0
  9
$DIMALTD
 70
     2
  9
$DIMALTF
 40
25.399999999999999
  9
$DIMLFAC
 40
1.0
  9
$DIMTOFL
 70
     1
  9
$DIMTVP
 40
0.0
  9
$DIMTIX
 70
     1
  9
$DIMSOXD
 70
     0
  9
$DIMSAH
 70
     0
  9
$DIMBLK1
  1

  9
$DIMBLK2
  1

  9
$DIMSTYLE
  2
STANDARD
  9
$DIMCLRD
 70
     7
  9
$DIMCLRE
 70
     7
  9
$DIMCLRT
 70
     7
  9
$DIMTFAC
 40
1.0
  9
$DIMGAP
 40
25.0
  9
$LUNITS
 70
     2
  9
$LUPREC
 70
     4
  9
$SKETCHINC
 40
0.1
  9
$FILLETRAD
 40
3.0
  9
$AUNITS
 70
     1
  9
$AUPREC
 70
     3
  9
$MENU
  1
ACAD
  9
$ELEVATION
 40
0.0
  9
$PELEVATION
 40
0.0
  9
$THICKNESS
 40
0.0
  9
$LIMCHECK
 70
     0
  9
$CHAMFERA
 40
0.0
  9
$CHAMFERB
 40
0.0
  9
$SKPOLY
 70
     0
  9
$TDCREATE
 40
2453019.62301037
  9
$TDUPDATE
 40
2459025.608571609
  9
$TDINDWG
 40
1.7131525579
  9
$TDUSRTIMER
 40
1.7131525579
  9
$USRTIMER
 70
     1
  9
$ANGBASE
 50
0.0
  9
$ANGDIR
 70
     0
  9
$PDMODE
 70
     3
  9
$PDSIZE
 40
-2.0
  9
$PLINEWID
 40
0.0
  9
$SPLFRAME
 70
     0
  9
$SPLINETYPE
 70
     6
  9
$SPLINESEGS
 70
     8
  9
$SURFTAB1
 70
     6
  9
$SURFTAB2
 70
     6
  9
$SURFTYPE
 70
     6
  9
$SURFU
 70
     6
  9
$SURFV
 70
     6
  9
$UCSNAME
  2

  9
$UCSORG
 10
0.0
 20
0.0
 30
0.0
  9
$UCSXDIR
 10
1.0
 20
0.0
 30
0.0
  9
$UCSYDIR
 10
0.0
 20
1.0
 30
0.0
  9
$PUCSNAME
  2

  9
$PUCSORG
 10
0.0
 20
0.0
 30
0.0
  9
$PUCSXDIR
 10
1.0
 20
0.0
 30
0.0
  9
$PUCSYDIR
 10
0.0
 20
1.0
 30
0.0
  9
$USERI1
 70
     0
  9
$USERI2
 70
     0
  9
$USERI3
 70
     0
  9
$USERI4
 70
     0
  9
$USERI5
 70
     0
  9
$USERR1
 40
20.0
  9
$USERR2
 40
0.0
  9
$USERR3
 40
0.0
  9
$USERR4
 40
0.0
  9
$USERR5
 40
0.0
  9
$WORLDVIEW
 70
     1
  9
$SHADEDGE
 70
     3
  9
$SHADEDIF
 70
    70
  9
$TILEMODE
 70
     1
  9
$MAXACTVP
 70
    48
  9
$PINSBASE
 10
0.0
 20
0.0
 30
0.0
  9
$PLIMCHECK
 70
     0
  9
$PEXTMIN
 10
-100000000000000000000.0
 20
-100000000000000000000.0
 30
-100000000000000000000.0
  9
$PEXTMAX
 10
100000000000000000000.0
 20
100000000000000000000.0
 30
100000000000000000000.0
  9
$PLIMMIN
 10
0.0
 20
0.0
  9
$PLIMMAX
 10
12.0
 20
9.0
  9
$UNITMODE
 70
     0
  9
$VISRETAIN
 70
     0
  9
$PLINEGEN
 70
     0
  9
$PSLTSCALE
 70
     0
  9
$TREEDEPTH
 70
  3020
  9
$ATTDIA
 70
     0
  9
$ATTREQ
 70
     1
  9
$BLIPMODE
 70
     1
  9
$COORDS
 70
     1
  9
$DRAGMODE
 70
     2
  9
$OSMODE
 70
     0
  9
$HANDLING
 70
     0
  9
$HANDSEED
  5
EEBC
  0
ENDSEC
  0
SECTION
  2
TABLES
  0
TABLE
  2
LTYPE
 70
     2
  0
LTYPE
  2
CONTINUOUS
 70
     0
  3
実線
 72
    65
 73
     0
 40
0.0
  0
LTYPE
  2
DASHDOT
 70
     0
  3
____ _ ____ _ ____ _ ____ _ ____ _ ____ _ ____
 72
    65
 73
     4
 40
5.5
 49
4.0
 49
-0.6
 49
0.3
 49
-0.6
  0
ENDTAB
  0
TABLE
  2
LAYER
 70
    12
  0
LAYER
  2
0
 70
     0
 62
     7
  6
CONTINUOUS
  0
LAYER
  2
BASIS
 70
     0
 62
     6
  6
DASHDOT
  0
LAYER
  2
OUTLINE
 70
     0
 62
     3
  6
CONTINUOUS
  0
LAYER
  2
DETAIL
 70
     0
 62
     5
  6
CONTINUOUS
  0
LAYER
  2
SIZE
 70
     0
 62
    30
  6
CONTINUOUS
  0
LAYER
  2
ARRANGE
 70
     0
 62
     1
  6
CONTINUOUS
  0
LAYER
  2
DEFPOINTS
 70
     0
 62
     7
  6
CONTINUOUS
  0
LAYER
  2
ETC
 70
     0
 62
    61
  6
CONTINUOUS
  0
LAYER
  2
FIX
 70
     0
 62
    11
  6
CONTINUOUS
  0
LAYER
  2
NOTE
 70
     0
 62
     4
  6
CONTINUOUS
  0
LAYER
  2
SERVICESPACE
 70
    64
 62
     2
  6
DASHDOT
  0
LAYER
  2
SYMBOLLINE
 70
    64
 62
    15
  6
CONTINUOUS
  0
ENDTAB
  0
TABLE
  2
STYLE
 70
     1
  0
STYLE
  2
STANDARD
 70
     0
 40
64.0
 41
0.9
 50
0.0
 71
     0
 42
64.0
  3
SIMPLEX.shx
  4
BIGFONT.shx
  0
ENDTAB
  0
TABLE
  2
APPID
 70
    19
  0
APPID
  2
ACAD
 70
     0
  0
APPID
  2
AUTOCAD_POSTSCRIPT_FIGURE
 70
     0
  0
APPID
  2
ACAD_EXEMPT_FROM_CAD_STANDARDS
 70
     0
  0
APPID
  2
ACAD_PSEXT
 70
     0
  0
APPID
  2
ACAUTHENVIRON
 70
     0
  0
APPID
  2
GENIUS_GENOENT_13
 70
     0
  0
APPID
  2
GENIUS_GENCFG_13
 70
     0
  0
APPID
  2
GENIUS_GENCFG0_13
 70
     0
  0
APPID
  2
GENIUS_GENCFG1_13
 70
     0
  0
APPID
  2
GENIUS_GENCFG2_13
 70
     0
  0
APPID
  2
GENIUS_GENCFG3_13
 70
     0
  0
APPID
  2
GENIUS_GENCFG4_13
 70
     0
  0
APPID
  2
GENIUS_GEVCFG0_13
 70
     0
  0
APPID
  2
CONTENTBLOCKICON
 70
     0
  0
APPID
  2
CONTENTBLOCKDESCRIPTION
 70
     0
  0
APPID
  2
ACAD_NAV_VCDISPLAY
 70
     0
  0
APPID
  2
ACAD_MLEADERVER
 70
     0
  0
APPID
  2
ACDBDYNAMICBLOCKTRUENAME
 70
     0
  0
APPID
  2
ACDBDYNAMICBLOCKGUID
 70
     0
  0
ENDTAB
  0
TABLE
  2
DIMSTYLE
 70
     1
  0
DIMSTYLE
  2
STANDARD
 70
     0
  3

  4

  5
_ORIGIN
  6

  7

 40
1.0
 41
12.0
 42
20.0
 43
200.0
 44
20.0
 45
0.0
 46
0.0
 47
0.0
 48
0.0
140
64.0
141
0.09
142
0.0
143
25.399999999999999
144
1.0
145
0.0
146
1.0
147
25.0
 71
     0
 72
     0
 73
     0
 74
     0
 75
     0
 76
     0
 77
     1
 78
     8
170
     0
171
     2
172
     1
173
     0
174
     1
175
     0
176
     7
177
     7
178
     7
  0
ENDTAB
  0
TABLE
  2
VIEW
 70
     1
  0
VIEW
  2
ALL
 70
     0
 40
4282.6198079999986
 10
0.0
 20
41.309904000000003
 41
5940.0
 11
0.0
 21
0.0
 31
1.0
 12
0.0
 22
0.0
 32
0.0
 42
50.0
 43
0.0
 44
0.0
 50
0.0
 71
     0
  0
ENDTAB
  0
TABLE
  2
UCS
 70
     0
  0
ENDTAB
  0
TABLE
  2
VPORT
 70
     1
  0
VPORT
  2
*ACTIVE
 70
     0
 10
0.0
 20
0.0
 11
1.0
 21
1.0
 12
99.021162627055645
 22
38.772592831835937
 13
0.0
 23
0.0
 14
1.0
 24
1.0
 15
0.0
 25
0.0
 16
0.0
 26
0.0
 36
1.0
 17
0.0
 27
0.0
 37
0.0
 40
1034.1241451619389
 41
1.747787610619469
 42
50.0
 43
0.0
 44
0.0
 50
0.0
 51
0.0
 71
     0
 72
  1000
 73
     1
 74
     3
 75
     0
 76
     0
 77
     0
 78
     0
  0
ENDTAB
  0
ENDSEC
  0
SECTION
  2
BLOCKS
  0
BLOCK
  8
0
  2
_ORIGIN
 70
     0
 10
0.0
 20
0.0
 30
0.0
  3
_ORIGIN
  1
_ORIGIN
  0
CIRCLE
  8
0
  6
CONTINUOUS
 62
     7
 10
0.0
 20
0.0
 30
0.0
 40
0.5
  0
LINE
  8
0
  6
CONTINUOUS
 62
     7
 10
0.0
 20
0.0
 30
0.0
 11
-1.0
 21
0.0
 31
0.0
  0
ENDBLK
  8
0
  0
ENDSEC
  0
SECTION
  2
ENTITIES
  0
TEXT
  8
ETC
  6
CONTINUOUS
 62
    61
 10
315.73235128160968
 20
488.11289472958418
 30
0.0
 40
64.0
  1
JE-12SA2_2
 41
0.9
  0
TEXT
  8
ETC
  6
CONTINUOUS
 62
    61
 10
309.73235728160972
 20
388.37761472958442
 30
0.0
 40
64.0
  1
産業扇
 41
0.9
  0
TEXT
  8
ETC
  6
CONTINUOUS
 62
    61
 10
351.89699788025541
 20
288.21144820173868
 30
0.0
 40
50.0
  1
JE-12SA2
 41
0.9
  0
LINE
  8
BASIS
  6
DASHDOT
 62
     6
 10
-143.54390900000001
 20
-100.0
 30
0.0
 11
134.1270079999999
 21
-100.0
 31
0.0
  0
LINE
  8
BASIS
  6
DASHDOT
 62
     6
 10
0.0
 20
33.369882000000018
 30
0.0
 11
0.0
 21
-235.941102
 31
0.0
  0
CIRCLE
  8
ARRANGE
  6
CONTINUOUS
 62
     1
 10
0.0
 20
0.0
 30
0.0
 40
40.0
  0
POINT
  8
ARRANGE
  6
CONTINUOUS
 62
     1
 10
0.0
 20
0.0
 30
0.0
  0
CIRCLE
  8
DETAIL
  6
CONTINUOUS
 62
     5
 10
0.0
 20
-100.0
 30
0.0
 40
100.0
  0
CIRCLE
  8
DETAIL
  6
CONTINUOUS
 62
     5
 10
0.0
 20
-100.0
 30
0.0
 40
79.0
  0
ARC
  8
DETAIL
  6
CONTINUOUS
 62
     5
 10
0.0
 20
-100.0
 30
0.0
 40
80.0
 50
1.4148540000004839
 51
357.23768800000119
  0
CIRCLE
  8
DETAIL
  6
CONTINUOUS
 62
     5
 10
0.0
 20
-100.0
 30
0.0
 40
70.0
  0
CIRCLE
  8
DETAIL
  6
CONTINUOUS
 62
     5
 10
0.0
 20
-100.0
 30
0.0
 40
71.0
  0
LINE
  8
DETAIL
  6
CONTINUOUS
 62
     5
 10
102.9223010000001
 20
-101.0
 30
0.0
 11
82.903557999999975
 21
-101.0
 31
0.0
  0
LINE
  8
DETAIL
  6
CONTINUOUS
 62
     5
 10
124.0
 20
-100.0
 30
0.0
 11
81.945103999999901
 21
-100.0
 31
0.0
  0
LINE
  8
DETAIL
  6
CONTINUOUS
 62
     5
 10
99.994999999999891
 20
-100.0
 30
0.0
 11
80.975304999999935
 21
-100.0
 31
0.0
  0
LINE
  8
DETAIL
  6
CONTINUOUS
 62
     5
 10
102.9223010000001
 20
-99.0
 30
0.0
 11
80.975304999999935
 21
-99.0
 31
0.0
  0
ARC
  8
DETAIL
  6
CONTINUOUS
 62
     5
 10
81.945103999999901
 20
-103.0
 30
0.0
 40
3.0
 50
90.0
 51
177.90334500000131
  0
ARC
  8
DETAIL
  6
CONTINUOUS
 62
     5
 10
82.903557999999975
 20
-104.0
 30
0.0
 40
3.0
 50
90.0
 51
177.23768800000121
  0
ARC
  8
DETAIL
  6
CONTINUOUS
 62
     5
 10
80.975304999999935
 20
-98.0
 30
0.0
 40
2.0
 50
181.4148540000005
 51
270.0
  0
ARC
  8
DETAIL
  6
CONTINUOUS
 62
     5
 10
80.975304999999935
 20
-98.0
 30
0.0
 40
1.0
 50
181.4148540000005
 51
270.0
  0
LINE
  8
DETAIL
  6
CONTINUOUS
 62
     5
 10
124.0
 20
-101.0
 30
0.0
 11
102.9223010000001
 21
-101.0
 31
0.0
  0
LINE
  8
DETAIL
  6
CONTINUOUS
 62
     5
 10
124.0
 20
-100.0
 30
0.0
 11
124.0
 21
-101.0
 31
0.0
  0
LINE
  8
DETAIL
  6
CONTINUOUS
 62
     5
 10
124.0
 20
-100.0
 30
0.0
 11
124.0
 21
-99.0
 31
0.0
  0
LINE
  8
DETAIL
  6
CONTINUOUS
 62
     5
 10
124.0
 20
-100.0
 30
0.0
 11
99.994999999999891
 21
-100.0
 31
0.0
  0
LINE
  8
DETAIL
  6
CONTINUOUS
 62
     5
 10
124.0
 20
-99.0
 30
0.0
 11
102.9223010000001
 21
-99.0
 31
0.0
  0
ARC
  8
DETAIL
  6
CONTINUOUS
 62
     5
 10
-81.945103999999901
 20
-103.0
 30
0.0
 40
3.0
 50
2.0966549999987558
 51
90.0
  0
ARC
  8
DETAIL
  6
CONTINUOUS
 62
     5
 10
-82.903557999999975
 20
-104.0
 30
0.0
 40
3.0
 50
2.7623119999987482
 51
90.0
  0
LINE
  8
DETAIL
  6
CONTINUOUS
 62
     5
 10
-102.9223010000001
 20
-101.0
 30
0.0
 11
-82.903557999999975
 21
-101.0
 31
0.0
  0
ARC
  8
DETAIL
  6
CONTINUOUS
 62
     5
 10
-80.975304999999935
 20
-98.0
 30
0.0
 40
2.0
 50
270.0
 51
358.58514599999933
  0
ARC
  8
DETAIL
  6
CONTINUOUS
 62
     5
 10
-80.975304999999935
 20
-98.0
 30
0.0
 40
1.0
 50
270.0
 51
358.58514599999933
  0
LINE
  8
DETAIL
  6
CONTINUOUS
 62
     5
 10
-102.9223010000001
 20
-100.0
 30
0.0
 11
-80.975304999999935
 21
-100.0
 31
0.0
  0
LINE
  8
DETAIL
  6
CONTINUOUS
 62
     5
 10
-102.9223010000001
 20
-99.0
 30
0.0
 11
-80.975304999999935
 21
-99.0
 31
0.0
  0
LINE
  8
DETAIL
  6
CONTINUOUS
 62
     5
 10
-124.0
 20
-100.0
 30
0.0
 11
-81.945103999999901
 21
-100.0
 31
0.0
  0
LINE
  8
DETAIL
  6
CONTINUOUS
 62
     5
 10
-124.0
 20
-101.0
 30
0.0
 11
-102.9223010000001
 21
-101.0
 31
0.0
  0
LINE
  8
DETAIL
  6
CONTINUOUS
 62
     5
 10
-124.0
 20
-99.0
 30
0.0
 11
-124.0
 21
-101.0
 31
0.0
  0
LINE
  8
DETAIL
  6
CONTINUOUS
 62
     5
 10
-124.0
 20
-99.0
 30
0.0
 11
-102.9223010000001
 21
-99.0
 31
0.0
  0
LINE
  8
DETAIL
  6
CONTINUOUS
 62
     5
 10
-124.0
 20
-100.0
 30
0.0
 11
-102.9223010000001
 21
-100.0
 31
0.0
  0
LINE
  8
DETAIL
  6
CONTINUOUS
 62
     5
 10
9.9526230000001306
 20
-179.47921299999999
 30
0.0
 11
11.16815999999994
 21
-186.37286700000001
 31
0.0
  0
LINE
  8
DETAIL
  6
CONTINUOUS
 62
     5
 10
9.9526230000001306
 20
-179.47921299999999
 30
0.0
 11
17.83108500000003
 21
-178.09002799999999
 31
0.0
  0
LINE
  8
DETAIL
  6
CONTINUOUS
 62
     5
 10
10.12627100000009
 20
-180.464021
 30
0.0
 11
18.004732999999991
 21
-179.07483500000001
 31
0.0
  0
LINE
  8
DETAIL
  6
CONTINUOUS
 62
     5
 10
9.7364820000000236
 20
-186.11759699999999
 30
0.0
 11
11.081335999999959
 21
-185.88046299999999
 31
0.0
  0
LINE
  8
DETAIL
  6
CONTINUOUS
 62
     5
 10
8.8682410000001255
 20
-181.19355899999999
 30
0.0
 11
10.21309500000007
 21
-180.956425
 31
0.0
  0
ARC
  8
DETAIL
  6
CONTINUOUS
 62
     5
 10
8.0
 20
-176.26952
 30
0.0
 40
5.0
 50
226.0874570000006
 51
280.00000000000517
  0
ARC
  8
DETAIL
  6
CONTINUOUS
 62
     5
 10
8.0
 20
-176.26952
 30
0.0
 40
10.0
 50
201.8402710000035
 51
280.00000000000517
  0
LINE
  8
DETAIL
  6
CONTINUOUS
 62
     5
 10
96.545640000000049
 20
-180.87247500000001
 30
0.0
 11
37.30357099999992
 21
-180.87247500000001
 31
0.0
  0
LINE
  8
DETAIL
  6
CONTINUOUS
 62
     5
 10
96.545640000000049
 20
-176.87247500000001
 30
0.0
 11
37.30357099999992
 21
-176.87247500000001
 31
0.0
  0
LINE
  8
DETAIL
  6
CONTINUOUS
 62
     5
 10
17.83108500000003
 20
-178.09002799999999
 30
0.0
 11
19.046621999999839
 21
-184.98368199999999
 31
0.0
  0
LINE
  8
DETAIL
  6
CONTINUOUS
 62
     5
 10
11.16815999999994
 20
-186.37286700000001
 30
0.0
 11
19.046621999999839
 21
-184.98368199999999
 31
0.0
  0
LINE
  8
DETAIL
  6
CONTINUOUS
 62
     5
 10
11.16815999999994
 20
-186.37286700000001
 30
0.0
 11
19.046621999999839
 21
-184.98368199999999
 31
0.0
  0
LINE
  8
DETAIL
  6
CONTINUOUS
 62
     5
 10
26.05685799999992
 20
-183.23987500000001
 30
0.0
 11
25.188617000000018
 21
-178.31583599999999
 31
0.0
  0
LINE
  8
DETAIL
  6
CONTINUOUS
 62
     5
 10
18.959797999999861
 20
-184.49127799999999
 30
0.0
 11
26.05685799999992
 21
-183.23987500000001
 31
0.0
  0
LINE
  8
DETAIL
  6
CONTINUOUS
 62
     5
 10
18.09155699999997
 20
-179.567239
 30
0.0
 11
25.188617000000018
 21
-178.31583599999999
 31
0.0
  0
LINE
  8
DETAIL
  6
CONTINUOUS
 62
     5
 10
25.970033999999941
 20
-182.74747099999999
 30
0.0
 11
35.914385999999922
 21
-180.994013
 31
0.0
  0
LINE
  8
DETAIL
  6
CONTINUOUS
 62
     5
 10
25.275441000000001
 20
-178.80824000000001
 30
0.0
 11
35.219792999999981
 21
-177.05478199999999
 31
0.0
  0
ARC
  8
DETAIL
  6
CONTINUOUS
 62
     5
 10
37.30357099999992
 20
-188.87247500000001
 30
0.0
 40
8.0
 50
90.0
 51
100.0000000000052
  0
ARC
  8
DETAIL
  6
CONTINUOUS
 62
     5
 10
37.30357099999992
 20
-188.87247500000001
 30
0.0
 40
12.0
 50
90.0
 51
100.0000000000052
  0
ARC
  8
DETAIL
  6
CONTINUOUS
 62
     5
 10
94.813588999999865
 20
-179.87247500000001
 30
0.0
 40
2.0
 50
330.00000000000512
 51
29.999999999994689
  0
ARC
  8
DETAIL
  6
CONTINUOUS
 62
     5
 10
94.813588999999865
 20
-177.87247500000001
 30
0.0
 40
2.0
 50
330.00000000000512
 51
29.999999999994689
  0
ARC
  8
DETAIL
  6
CONTINUOUS
 62
     5
 10
98.277691000000004
 20
-177.87247500000001
 30
0.0
 40
2.0
 50
150.00000000000529
 51
209.99999999999471
  0
ARC
  8
DETAIL
  6
CONTINUOUS
 62
     5
 10
102.806319
 20
-104.0
 30
0.0
 40
3.0
 50
90.0
 51
180.0
  0
ARC
  8
DETAIL
  6
CONTINUOUS
 62
     5
 10
102.806319
 20
-96.0
 30
0.0
 40
3.0
 50
180.0
 51
270.0
  0
ARC
  8
DETAIL
  6
CONTINUOUS
 62
     5
 10
-102.806319
 20
-104.0
 30
0.0
 40
3.0
 50
0.0
 51
90.0
  0
ARC
  8
DETAIL
  6
CONTINUOUS
 62
     5
 10
-102.806319
 20
-96.0
 30
0.0
 40
3.0
 50
270.0
 51
0.0
  0
LINE
  8
NOTE
  6
CONTINUOUS
 62
     4
 10
20.0
 20
-180.0
 30
0.0
 11
-20.0
 21
-180.0
 31
0.0
  0
LINE
  8
NOTE
  6
CONTINUOUS
 62
     4
 10
0.0
 20
-160.0
 30
0.0
 11
0.0
 21
-200.0
 31
0.0
  0
LINE
  8
DETAIL
  6
CONTINUOUS
 62
     5
 10
5.5
 20
-199.8486354438557
 30
0.0
 11
5.5
 21
-202.0
 31
0.0
  0
LINE
  8
DETAIL
  6
CONTINUOUS
 62
     5
 10
-5.5
 20
-202.0
 30
0.0
 11
5.5
 21
-202.0
 31
0.0
  0
LINE
  8
DETAIL
  6
CONTINUOUS
 62
     5
 10
-5.5
 20
-199.8486354438557
 30
0.0
 11
-5.5
 21
-202.0
 31
0.0
  0
LINE
  8
NOTE
  6
CONTINUOUS
 62
     4
 10
20.0
 20
-202.0
 30
0.0
 11
-20.0
 21
-202.0
 31
0.0
  0
LINE
  8
NOTE
  6
CONTINUOUS
 62
     4
 10
0.0
 20
-182.0
 30
0.0
 11
0.0
 21
-222.0
 31
0.0
  0
LINE
  8
SIZE
  6
CONTINUOUS
 62
    30
 10
71.0
 20
-80.0
 30
0.0
 11
71.0
 21
105.167534
 31
0.0
  0
LINE
  8
SIZE
  6
CONTINUOUS
 62
    30
 10
-71.0
 20
-80.0
 30
0.0
 11
-71.0
 21
105.167534
 31
0.0
  0
LINE
  8
SIZE
  6
CONTINUOUS
 62
    30
 10
59.0
 20
85.167534000000046
 30
0.0
 11
-59.0
 21
85.167534000000046
 31
0.0
  0
LINE
  8
SIZE
  6
CONTINUOUS
 62
    30
 10
367.90903100000008
 20
85.167534000000046
 30
0.0
 11
71.0
 21
85.167534000000046
 31
0.0
  0
TEXT
  8
SIZE
  6
CONTINUOUS
 62
    30
 10
139.3890314285714
 20
110.167534
 30
0.0
 40
64.0
  1
φ142
 41
0.9
 72
     1
 11
248.28045999999989
 21
110.167534
 31
0.0
  0
CIRCLE
  8
SIZE
  6
CONTINUOUS
 62
    30
 10
71.0
 20
85.167534000000046
 30
0.0
 40
6.0
  0
LINE
  8
SIZE
  6
CONTINUOUS
 62
    30
 10
71.0
 20
85.167534000000046
 30
0.0
 11
59.0
 21
85.167534000000046
 31
0.0
  0
CIRCLE
  8
SIZE
  6
CONTINUOUS
 62
    30
 10
-71.0
 20
85.167534000000046
 30
0.0
 40
6.0
  0
LINE
  8
SIZE
  6
CONTINUOUS
 62
    30
 10
-71.0
 20
85.167534000000046
 30
0.0
 11
-59.0
 21
85.167534000000046
 31
0.0
  0
POINT
  8
DEFPOINTS
  6
CONTINUOUS
 62
    30
 10
-71.0
 20
85.167534000000046
 30
0.0
  0
LINE
  8
SIZE
  6
CONTINUOUS
 62
    30
 10
79.0
 20
-80.0
 30
0.0
 11
79.0
 21
204.438638
 31
0.0
  0
LINE
  8
SIZE
  6
CONTINUOUS
 62
    30
 10
-79.0
 20
-80.0
 30
0.0
 11
-79.0
 21
204.438638
 31
0.0
  0
LINE
  8
SIZE
  6
CONTINUOUS
 62
    30
 10
91.0
 20
184.438638
 30
0.0
 11
103.0
 21
184.438638
 31
0.0
  0
LINE
  8
SIZE
  6
CONTINUOUS
 62
    30
 10
-91.0
 20
184.438638
 30
0.0
 11
-103.0
 21
184.438638
 31
0.0
  0
LINE
  8
SIZE
  6
CONTINUOUS
 62
    30
 10
79.0
 20
184.438638
 30
0.0
 11
-79.0
 21
184.438638
 31
0.0
  0
CIRCLE
  8
SIZE
  6
CONTINUOUS
 62
    30
 10
79.0
 20
184.438638
 30
0.0
 40
6.0
  0
LINE
  8
SIZE
  6
CONTINUOUS
 62
    30
 10
79.0
 20
184.438638
 30
0.0
 11
91.0
 21
184.438638
 31
0.0
  0
CIRCLE
  8
SIZE
  6
CONTINUOUS
 62
    30
 10
-79.0
 20
184.438638
 30
0.0
 40
6.0
  0
LINE
  8
SIZE
  6
CONTINUOUS
 62
    30
 10
-79.0
 20
184.438638
 30
0.0
 11
-91.0
 21
184.438638
 31
0.0
  0
TEXT
  8
SIZE
  6
CONTINUOUS
 62
    30
 10
-108.89142857142861
 20
209.438638
 30
0.0
 40
64.0
  1
φ158
 41
0.9
 72
     1
 11
0.0
 21
209.438638
 31
0.0
  0
POINT
  8
DEFPOINTS
  6
CONTINUOUS
 62
    30
 10
-79.0
 20
184.438638
 30
0.0
  0
LINE
  8
SIZE
  6
CONTINUOUS
 62
    30
 10
-100.0
 20
-80.0
 30
0.0
 11
-100.0
 21
327.10798999999997
 31
0.0
  0
LINE
  8
SIZE
  6
CONTINUOUS
 62
    30
 10
99.994999999999891
 20
-80.0
 30
0.0
 11
99.994999999999891
 21
327.10798999999997
 31
0.0
  0
LINE
  8
SIZE
  6
CONTINUOUS
 62
    30
 10
-112.0
 20
307.10798999999997
 30
0.0
 11
-124.0
 21
307.10798999999997
 31
0.0
  0
LINE
  8
SIZE
  6
CONTINUOUS
 62
    30
 10
111.99499999999991
 20
307.10798999999997
 30
0.0
 11
123.99499999999991
 21
307.10798999999997
 31
0.0
  0
LINE
  8
SIZE
  6
CONTINUOUS
 62
    30
 10
-100.0
 20
307.10798999999997
 30
0.0
 11
99.994999999999891
 21
307.10798999999997
 31
0.0
  0
CIRCLE
  8
SIZE
  6
CONTINUOUS
 62
    30
 10
-100.0
 20
307.10798999999997
 30
0.0
 40
6.0
  0
LINE
  8
SIZE
  6
CONTINUOUS
 62
    30
 10
-100.0
 20
307.10798999999997
 30
0.0
 11
-112.0
 21
307.10798999999997
 31
0.0
  0
CIRCLE
  8
SIZE
  6
CONTINUOUS
 62
    30
 10
99.994999999999891
 20
307.10798999999997
 30
0.0
 40
6.0
  0
LINE
  8
SIZE
  6
CONTINUOUS
 62
    30
 10
99.994999999999891
 20
307.10798999999997
 30
0.0
 11
111.99499999999991
 21
307.10798999999997
 31
0.0
  0
TEXT
  8
SIZE
  6
CONTINUOUS
 62
    30
 10
-114.3796428571429
 20
332.10798999999997
 30
0.0
 40
64.0
  1
φ200
 41
0.9
 72
     1
 11
-0.0025000000000546
 21
332.10798999999997
 31
0.0
  0
POINT
  8
DEFPOINTS
  6
CONTINUOUS
 62
    30
 10
-100.0
 20
-100.0
 30
0.0
  0
POINT
  8
DEFPOINTS
  6
CONTINUOUS
 62
    30
 10
99.994999999999891
 20
307.10798999999997
 30
0.0
  0
CIRCLE
  8
FIX
  6
CONTINUOUS
 62
    11
 10
-109.0
 20
-100.0
 30
0.0
 40
5.0
  0
LINE
  8
NOTE
  6
CONTINUOUS
 62
     4
 10
-109.0
 20
-80.0
 30
0.0
 11
-109.0
 21
-120.0
 31
0.0
  0
LINE
  8
NOTE
  6
CONTINUOUS
 62
     4
 10
-89.0
 20
-100.0
 30
0.0
 11
-129.0
 21
-100.0
 31
0.0
  0
LINE
  8
NOTE
  6
CONTINUOUS
 62
     4
 10
109.0
 20
-80.0
 30
0.0
 11
109.0
 21
-120.0
 31
0.0
  0
LINE
  8
NOTE
  6
CONTINUOUS
 62
     4
 10
89.0
 20
-100.0
 30
0.0
 11
129.0
 21
-100.0
 31
0.0
  0
CIRCLE
  8
FIX
  6
CONTINUOUS
 62
    11
 10
109.0
 20
-100.0
 30
0.0
 40
5.0
  0
LINE
  8
SIZE
  6
CONTINUOUS
 62
    30
 10
124.0
 20
-79.0
 30
0.0
 11
124.0
 21
456.99457100000001
 31
0.0
  0
LINE
  8
SIZE
  6
CONTINUOUS
 62
    30
 10
-124.0
 20
-79.0
 30
0.0
 11
-124.0
 21
456.99457100000001
 31
0.0
  0
LINE
  8
SIZE
  6
CONTINUOUS
 62
    30
 10
112.0
 20
436.99457100000001
 30
0.0
 11
-112.0
 21
436.99457100000001
 31
0.0
  0
CIRCLE
  8
SIZE
  6
CONTINUOUS
 62
    30
 10
124.0
 20
436.99457100000001
 30
0.0
 40
6.0
  0
LINE
  8
SIZE
  6
CONTINUOUS
 62
    30
 10
124.0
 20
436.99457100000001
 30
0.0
 11
112.0
 21
436.99457100000001
 31
0.0
  0
CIRCLE
  8
SIZE
  6
CONTINUOUS
 62
    30
 10
-124.0
 20
436.99457100000001
 30
0.0
 40
6.0
  0
LINE
  8
SIZE
  6
CONTINUOUS
 62
    30
 10
-124.0
 20
436.99457100000001
 30
0.0
 11
-112.0
 21
436.99457100000001
 31
0.0
  0
TEXT
  8
SIZE
  6
CONTINUOUS
 62
    30
 10
-74.05714285714285
 20
461.99457100000001
 30
0.0
 40
64.0
  1
248
 41
0.9
 72
     1
 11
0.0
 21
461.99457100000001
 31
0.0
  0
POINT
  8
DEFPOINTS
  6
CONTINUOUS
 62
    30
 10
124.0
 20
-99.0
 30
0.0
  0
POINT
  8
DEFPOINTS
  6
CONTINUOUS
 62
    30
 10
-124.0
 20
-99.0
 30
0.0
  0
POINT
  8
DEFPOINTS
  6
CONTINUOUS
 62
    30
 10
-124.0
 20
436.99457100000001
 30
0.0
  0
LINE
  8
NOTE
  6
CONTINUOUS
 62
     4
 10
-109.0
 20
-100.0
 30
0.0
 11
-213.77607499999999
 21
55.039748000000031
 31
0.0
  0
LINE
  8
NOTE
  6
CONTINUOUS
 62
     4
 10
-139.1975130000001
 20
-73.768146000000002
 30
0.0
 11
-109.0
 21
-100.0
 31
0.0
  0
LINE
  8
NOTE
  6
CONTINUOUS
 62
     4
 10
-109.0
 20
-100.0
 30
0.0
 11
-122.0358860000001
 21
-62.183790999999992
 31
0.0
  0
LINE
  8
SIZE
  6
CONTINUOUS
 62
    30
 10
109.0
 20
-140.0
 30
0.0
 11
109.0
 21
-474.69960594437231
 31
0.0
  0
LINE
  8
SIZE
  6
CONTINUOUS
 62
    30
 10
-109.0
 20
-140.0
 30
0.0
 11
-109.0
 21
-474.69960594437231
 31
0.0
  0
LINE
  8
SIZE
  6
CONTINUOUS
 62
    30
 10
97.0
 20
-454.69960594437231
 30
0.0
 11
-97.0
 21
-454.69960594437231
 31
0.0
  0
CIRCLE
  8
SIZE
  6
CONTINUOUS
 62
    30
 10
109.0
 20
-454.69960594437231
 30
0.0
 40
6.0
  0
LINE
  8
SIZE
  6
CONTINUOUS
 62
    30
 10
109.0
 20
-454.69960594437231
 30
0.0
 11
97.0
 21
-454.69960594437231
 31
0.0
  0
CIRCLE
  8
SIZE
  6
CONTINUOUS
 62
    30
 10
-109.0
 20
-454.69960594437231
 30
0.0
 40
6.0
  0
LINE
  8
SIZE
  6
CONTINUOUS
 62
    30
 10
-109.0
 20
-454.69960594437231
 30
0.0
 11
-97.0
 21
-454.69960594437231
 31
0.0
  0
TEXT
  8
SIZE
  6
CONTINUOUS
 62
    30
 10
-68.571428571428555
 20
-429.69960594437231
 30
0.0
 40
64.0
  1
218
 41
0.9
 72
     1
 11
0.0
 21
-429.69960594437231
 31
0.0
  0
POINT
  8
DEFPOINTS
  6
CONTINUOUS
 62
    30
 10
109.0
 20
-120.0
 30
0.0
  0
POINT
  8
DEFPOINTS
  6
CONTINUOUS
 62
    30
 10
-109.0
 20
-120.0
 30
0.0
  0
POINT
  8
DEFPOINTS
  6
CONTINUOUS
 62
    30
 10
-109.0
 20
-454.69960594437231
 30
0.0
  0
LINE
  8
NOTE
  6
CONTINUOUS
 62
     4
 10
-289.0475550000001
 20
-322.28970500000008
 30
0.0
 11
-172.62918799999991
 21
-322.28970500000008
 31
0.0
  0
TEXT
  8
NOTE
  6
CONTINUOUS
 62
     4
 10
-273.20591999999988
 20
-297.11024099999997
 30
0.0
 40
64.0
  1
EL
 41
0.9
  0
LINE
  8
NOTE
  6
CONTINUOUS
 62
     4
 10
229.89840976554359
 20
-364.37824636789207
 30
0.0
 11
866.5234337655429
 21
-364.37824636789207
 31
0.0
  0
TEXT
  8
NOTE
  6
CONTINUOUS
 62
     4
 10
245.7400457655435
 20
-322.65358936789221
 30
0.0
 40
64.0
  1
D(ドレンキャップ)
 41
0.9
  0
LINE
  8
NOTE
  6
CONTINUOUS
 62
     4
 10
0.0
 20
-202.0
 30
0.0
 11
229.89840976554359
 21
-364.37824636789207
 31
0.0
  0
LINE
  8
NOTE
  6
CONTINUOUS
 62
     4
 10
0.0
 20
-180.0
 30
0.0
 11
-172.62918799999991
 21
-322.28970500000008
 31
0.0
  0
LINE
  8
NOTE
  6
CONTINUOUS
 62
     4
 10
37.416726439195372
 20
-216.14173100620559
 30
0.0
 11
0.0
 21
-202.0
 31
0.0
  0
LINE
  8
NOTE
  6
CONTINUOUS
 62
     4
 10
0.0
 20
-202.0
 30
0.0
 11
25.332969880858851
 21
-232.95546230946161
 31
0.0
  0
LINE
  8
NOTE
  6
CONTINUOUS
 62
     4
 10
-22.97454700000003
 20
-212.74401
 30
0.0
 11
0.0
 21
-180.0
 31
0.0
  0
LINE
  8
NOTE
  6
CONTINUOUS
 62
     4
 10
0.0
 20
-180.0
 30
0.0
 11
-36.268546000000008
 21
-196.86987099999999
 31
0.0
  0
LINE
  8
SIZE
  6
CONTINUOUS
 62
    30
 10
20.0
 20
0.0
 30
0.0
 11
327.39485100000002
 21
0.0
 31
0.0
  0
LINE
  8
SIZE
  6
CONTINUOUS
 62
    30
 10
25.5
 20
-202.0
 30
0.0
 11
327.39485100000002
 21
-202.0
 31
0.0
  0
LINE
  8
SIZE
  6
CONTINUOUS
 62
    30
 10
307.39485100000002
 20
-12.0
 30
0.0
 11
307.39485100000002
 21
-190.0
 31
0.0
  0
CIRCLE
  8
SIZE
  6
CONTINUOUS
 62
    30
 10
307.39485100000002
 20
0.0
 30
0.0
 40
6.0
  0
LINE
  8
SIZE
  6
CONTINUOUS
 62
    30
 10
307.39485100000002
 20
0.0
 30
0.0
 11
307.39485100000002
 21
-12.0
 31
0.0
  0
CIRCLE
  8
SIZE
  6
CONTINUOUS
 62
    30
 10
307.39485100000002
 20
-202.0
 30
0.0
 40
6.0
  0
LINE
  8
SIZE
  6
CONTINUOUS
 62
    30
 10
307.39485100000002
 20
-202.0
 30
0.0
 11
307.39485100000002
 21
-190.0
 31
0.0
  0
TEXT
  8
SIZE
  6
CONTINUOUS
 62
    30
 10
282.39485100000002
 20
-175.05714285714279
 30
0.0
 40
64.0
  1
202
 50
90.0
 41
0.9
 72
     1
 11
282.39485100000002
 21
-101.0
 31
0.0
  0
POINT
  8
DEFPOINTS
  6
CONTINUOUS
 62
    30
 10
0.0
 20
0.0
 30
0.0
  0
POINT
  8
DEFPOINTS
  6
CONTINUOUS
 62
    30
 10
5.5
 20
-202.0
 30
0.0
  0
POINT
  8
DEFPOINTS
  6
CONTINUOUS
 62
    30
 10
307.39485100000002
 20
-202.0
 30
0.0
  0
LINE
  8
OUTLINE
  6
CONTINUOUS
 62
     3
 10
-124.0
 20
-99.0
 30
0.0
 11
-124.0
 21
-101.0
 31
0.0
  0
ARC
  8
OUTLINE
  6
CONTINUOUS
 62
     3
 10
-102.806319
 20
-104.0
 30
0.0
 40
3.0
 50
17.974334421043999
 51
90.0
  0
LINE
  8
OUTLINE
  6
CONTINUOUS
 62
     3
 10
-124.0
 20
-101.0
 30
0.0
 11
-102.9223010000001
 21
-101.0
 31
0.0
  0
ARC
  8
OUTLINE
  6
CONTINUOUS
 62
     3
 10
-102.806319
 20
-96.0
 30
0.0
 40
3.0
 50
270.0
 51
0.0
  0
LINE
  8
OUTLINE
  6
CONTINUOUS
 62
     3
 10
-124.0
 20
-99.0
 30
0.0
 11
-102.9223010000001
 21
-99.0
 31
0.0
  0
LINE
  8
OUTLINE
  6
CONTINUOUS
 62
     3
 10
124.0
 20
-100.0
 30
0.0
 11
124.0
 21
-99.0
 31
0.0
  0
ARC
  8
OUTLINE
  6
CONTINUOUS
 62
     3
 10
102.806319
 20
-104.0
 30
0.0
 40
3.0
 50
90.0
 51
162.02566557895599
  0
LINE
  8
OUTLINE
  6
CONTINUOUS
 62
     3
 10
124.0
 20
-101.0
 30
0.0
 11
102.9223010000001
 21
-101.0
 31
0.0
  0
LINE
  8
OUTLINE
  6
CONTINUOUS
 62
     3
 10
124.0
 20
-100.0
 30
0.0
 11
124.0
 21
-101.0
 31
0.0
  0
ARC
  8
OUTLINE
  6
CONTINUOUS
 62
     3
 10
102.806319
 20
-96.0
 30
0.0
 40
3.0
 50
180.0
 51
270.0
  0
LINE
  8
OUTLINE
  6
CONTINUOUS
 62
     3
 10
124.0
 20
-99.0
 30
0.0
 11
102.9223010000001
 21
-99.0
 31
0.0
  0
LINE
  8
OUTLINE
  6
CONTINUOUS
 62
     3
 10
5.5
 20
-199.8486354438557
 30
0.0
 11
5.5
 21
-202.0
 31
0.0
  0
LINE
  8
OUTLINE
  6
CONTINUOUS
 62
     3
 10
-5.5
 20
-202.0
 30
0.0
 11
5.5
 21
-202.0
 31
0.0
  0
LINE
  8
OUTLINE
  6
CONTINUOUS
 62
     3
 10
-5.5
 20
-199.8486354438557
 30
0.0
 11
-5.5
 21
-202.0
 31
0.0
  0
ARC
  8
OUTLINE
  6
CONTINUOUS
 62
     3
 10
0.0
 20
-100.0
 30
0.0
 40
100.0
 50
1.761679993572449
 51
178.23832000642761
  0
ARC
  8
OUTLINE
  6
CONTINUOUS
 62
     3
 10
0.0
 20
-100.0
 30
0.0
 40
100.0
 50
181.76167999357239
 51
266.8471411959564
  0
TEXT
  8
NOTE
  6
CONTINUOUS
 62
     4
 10
-94.197757218365723
 20
-331.31315836262559
 30
0.0
 40
64.0
  1
吹出口
 41
0.9
  0
ARC
  8
OUTLINE
  6
CONTINUOUS
 62
     3
 10
0.0
 20
-100.0
 30
0.0
 40
100.0
 50
273.1528588040436
 51
358.23832000642761
  0
TEXT
  8
NOTE
  6
CONTINUOUS
 62
     4
 10
-652.65728964162395
 20
80.21921199999997
 30
0.0
 40
64.0
  1
AH 4-φ10
 41
0.9
  0
LINE
  8
NOTE
  6
CONTINUOUS
 62
     4
 10
-668.49892564162417
 20
55.039748000000031
 30
0.0
 11
-213.77607499999999
 21
55.039748000000031
 31
0.0
  0
ENDSEC
  0
EOF
