  0
SECTION
  2
HEADER
  9
$ACADVER
  1
AC1009
  9
$DWGCODEPAGE
  3
dos932
  9
$INSBASE
 10
0.0
 20
0.0
 30
0.0
  9
$EXTMIN
 10
-559.68473678185364
 20
-615.23436349261829
 30
-0.0000000000000091
  9
$EXTMAX
 10
1287.0483517146749
 20
728.98865564375592
 30
0.0000000000000062
  9
$LIMMIN
 10
-2970.0
 20
-2100.0
  9
$LIMMAX
 10
2970.0
 20
2100.0
  9
$ORTHOMODE
 70
     1
  9
$REGENMODE
 70
     1
  9
$FILLMODE
 70
     1
  9
$QTEXTMODE
 70
     0
  9
$MIRRTEXT
 70
     0
  9
$LTSCALE
 40
20.0
  9
$ATTMODE
 70
     1
  9
$TEXTSIZE
 40
64.0
  9
$TRACEWID
 40
0.05
  9
$TEXTSTYLE
  7
STANDARD
  9
$CLAYER
  8
SIZE
  9
$CELTYPE
  6
CONTINUOUS
  9
$CECOLOR
 62
     7
  9
$DIMSCALE
 40
1.0
  9
$DIMASZ
 40
12.0
  9
$DIMEXO
 40
20.0
  9
$DIMDLI
 40
200.0
  9
$DIMRND
 40
0.0
  9
$DIMDLE
 40
0.0
  9
$DIMEXE
 40
20.0
  9
$DIMTP
 40
0.0
  9
$DIMTM
 40
0.0
  9
$DIMTXT
 40
64.0
  9
$DIMCEN
 40
0.09
  9
$DIMTSZ
 40
0.0
  9
$DIMTOL
 70
     0
  9
$DIMLIM
 70
     0
  9
$DIMTIH
 70
     0
  9
$DIMTOH
 70
     0
  9
$DIMSE1
 70
     0
  9
$DIMSE2
 70
     0
  9
$DIMTAD
 70
     1
  9
$DIMZIN
 70
     8
  9
$DIMBLK
  1

  9
$DIMASO
 70
     1
  9
$DIMSHO
 70
     0
  9
$DIMPOST
  1

  9
$DIMAPOST
  1

  9
$DIMALT
 70
     0
  9
$DIMALTD
 70
     2
  9
$DIMALTF
 40
25.399999999999999
  9
$DIMLFAC
 40
1.0
  9
$DIMTOFL
 70
     1
  9
$DIMTVP
 40
0.0
  9
$DIMTIX
 70
     1
  9
$DIMSOXD
 70
     0
  9
$DIMSAH
 70
     0
  9
$DIMBLK1
  1

  9
$DIMBLK2
  1

  9
$DIMSTYLE
  2
STANDARD
  9
$DIMCLRD
 70
     7
  9
$DIMCLRE
 70
     7
  9
$DIMCLRT
 70
     7
  9
$DIMTFAC
 40
1.0
  9
$DIMGAP
 40
25.0
  9
$LUNITS
 70
     2
  9
$LUPREC
 70
     4
  9
$SKETCHINC
 40
0.1
  9
$FILLETRAD
 40
3.0
  9
$AUNITS
 70
     1
  9
$AUPREC
 70
     3
  9
$MENU
  1
ACAD
  9
$ELEVATION
 40
0.0
  9
$PELEVATION
 40
0.0
  9
$THICKNESS
 40
50.0
  9
$LIMCHECK
 70
     0
  9
$CHAMFERA
 40
0.0
  9
$CHAMFERB
 40
0.0
  9
$SKPOLY
 70
     0
  9
$TDCREATE
 40
2453019.62301037
  9
$TDUPDATE
 40
2458926.756786227
  9
$TDINDWG
 40
1.7288213657
  9
$TDUSRTIMER
 40
1.7288213657
  9
$USRTIMER
 70
     1
  9
$ANGBASE
 50
0.0
  9
$ANGDIR
 70
     0
  9
$PDMODE
 70
     3
  9
$PDSIZE
 40
-2.0
  9
$PLINEWID
 40
0.0
  9
$SPLFRAME
 70
     0
  9
$SPLINETYPE
 70
     6
  9
$SPLINESEGS
 70
     8
  9
$SURFTAB1
 70
     6
  9
$SURFTAB2
 70
     6
  9
$SURFTYPE
 70
     6
  9
$SURFU
 70
     6
  9
$SURFV
 70
     6
  9
$UCSNAME
  2

  9
$UCSORG
 10
0.0
 20
0.0
 30
0.0
  9
$UCSXDIR
 10
1.0
 20
0.0
 30
0.0
  9
$UCSYDIR
 10
0.0
 20
1.0
 30
0.0
  9
$PUCSNAME
  2

  9
$PUCSORG
 10
0.0
 20
0.0
 30
0.0
  9
$PUCSXDIR
 10
1.0
 20
0.0
 30
0.0
  9
$PUCSYDIR
 10
0.0
 20
1.0
 30
0.0
  9
$USERI1
 70
     0
  9
$USERI2
 70
     0
  9
$USERI3
 70
     0
  9
$USERI4
 70
     0
  9
$USERI5
 70
     0
  9
$USERR1
 40
20.0
  9
$USERR2
 40
0.0
  9
$USERR3
 40
0.0
  9
$USERR4
 40
0.0
  9
$USERR5
 40
0.0
  9
$WORLDVIEW
 70
     1
  9
$SHADEDGE
 70
     3
  9
$SHADEDIF
 70
    70
  9
$TILEMODE
 70
     1
  9
$MAXACTVP
 70
    48
  9
$PINSBASE
 10
0.0
 20
0.0
 30
0.0
  9
$PLIMCHECK
 70
     0
  9
$PEXTMIN
 10
-100000000000000000000.0
 20
-100000000000000000000.0
 30
-100000000000000000000.0
  9
$PEXTMAX
 10
100000000000000000000.0
 20
100000000000000000000.0
 30
100000000000000000000.0
  9
$PLIMMIN
 10
0.0
 20
0.0
  9
$PLIMMAX
 10
12.0
 20
9.0
  9
$UNITMODE
 70
     0
  9
$VISRETAIN
 70
     0
  9
$PLINEGEN
 70
     0
  9
$PSLTSCALE
 70
     0
  9
$TREEDEPTH
 70
  3020
  9
$ATTDIA
 70
     0
  9
$ATTREQ
 70
     1
  9
$BLIPMODE
 70
     1
  9
$COORDS
 70
     1
  9
$DRAGMODE
 70
     2
  9
$OSMODE
 70
     0
  9
$HANDLING
 70
     0
  9
$HANDSEED
  5
E96A
  0
ENDSEC
  0
SECTION
  2
TABLES
  0
TABLE
  2
LTYPE
 70
     2
  0
LTYPE
  2
CONTINUOUS
 70
     0
  3
実線
 72
    65
 73
     0
 40
0.0
  0
LTYPE
  2
DASHDOT
 70
     0
  3
____ _ ____ _ ____ _ ____ _ ____ _ ____ _ ____
 72
    65
 73
     4
 40
5.5
 49
4.0
 49
-0.6
 49
0.3
 49
-0.6
  0
ENDTAB
  0
TABLE
  2
LAYER
 70
    12
  0
LAYER
  2
0
 70
     0
 62
     7
  6
CONTINUOUS
  0
LAYER
  2
BASIS
 70
     0
 62
     6
  6
DASHDOT
  0
LAYER
  2
OUTLINE
 70
     0
 62
     3
  6
CONTINUOUS
  0
LAYER
  2
DETAIL
 70
     0
 62
     5
  6
CONTINUOUS
  0
LAYER
  2
SIZE
 70
     0
 62
    30
  6
CONTINUOUS
  0
LAYER
  2
ARRANGE
 70
     0
 62
     1
  6
CONTINUOUS
  0
LAYER
  2
DEFPOINTS
 70
     0
 62
     7
  6
CONTINUOUS
  0
LAYER
  2
ETC
 70
     0
 62
    61
  6
CONTINUOUS
  0
LAYER
  2
FIX
 70
     0
 62
    11
  6
CONTINUOUS
  0
LAYER
  2
NOTE
 70
     0
 62
     4
  6
CONTINUOUS
  0
LAYER
  2
SERVICESPACE
 70
    64
 62
     2
  6
DASHDOT
  0
LAYER
  2
SYMBOLLINE
 70
    64
 62
    15
  6
CONTINUOUS
  0
ENDTAB
  0
TABLE
  2
STYLE
 70
     1
  0
STYLE
  2
STANDARD
 70
     0
 40
64.0
 41
0.9
 50
0.0
 71
     0
 42
64.0
  3
SIMPLEX.shx
  4
BIGFONT.shx
  0
ENDTAB
  0
TABLE
  2
APPID
 70
    16
  0
APPID
  2
ACAD
 70
     0
  0
APPID
  2
AUTOCAD_POSTSCRIPT_FIGURE
 70
     0
  0
APPID
  2
ACAD_EXEMPT_FROM_CAD_STANDARDS
 70
     0
  0
APPID
  2
ACAD_PSEXT
 70
     0
  0
APPID
  2
ACAUTHENVIRON
 70
     0
  0
APPID
  2
GENIUS_GENOENT_13
 70
     0
  0
APPID
  2
GENIUS_GENCFG_13
 70
     0
  0
APPID
  2
GENIUS_GENCFG0_13
 70
     0
  0
APPID
  2
GENIUS_GENCFG1_13
 70
     0
  0
APPID
  2
GENIUS_GENCFG2_13
 70
     0
  0
APPID
  2
GENIUS_GENCFG3_13
 70
     0
  0
APPID
  2
GENIUS_GENCFG4_13
 70
     0
  0
APPID
  2
GENIUS_GEVCFG0_13
 70
     0
  0
APPID
  2
CONTENTBLOCKICON
 70
     0
  0
APPID
  2
CONTENTBLOCKDESCRIPTION
 70
     0
  0
APPID
  2
ACAD_NAV_VCDISPLAY
 70
     0
  0
ENDTAB
  0
TABLE
  2
DIMSTYLE
 70
     1
  0
DIMSTYLE
  2
STANDARD
 70
     0
  3

  4

  5
_ORIGIN
  6

  7

 40
1.0
 41
12.0
 42
20.0
 43
200.0
 44
20.0
 45
0.0
 46
0.0
 47
0.0
 48
0.0
140
64.0
141
0.09
142
0.0
143
25.399999999999999
144
1.0
145
0.0
146
1.0
147
25.0
 71
     0
 72
     0
 73
     0
 74
     0
 75
     0
 76
     0
 77
     1
 78
     8
170
     0
171
     2
172
     1
173
     0
174
     1
175
     0
176
     7
177
     7
178
     7
  0
ENDTAB
  0
TABLE
  2
VIEW
 70
     1
  0
VIEW
  2
ALL
 70
     0
 40
4282.6198079999986
 10
0.0
 20
41.309904000000003
 41
5940.0
 11
0.0
 21
0.0
 31
1.0
 12
0.0
 22
0.0
 32
0.0
 42
50.0
 43
0.0
 44
0.0
 50
0.0
 71
     0
  0
ENDTAB
  0
TABLE
  2
UCS
 70
     0
  0
ENDTAB
  0
TABLE
  2
VPORT
 70
     1
  0
VPORT
  2
*ACTIVE
 70
     0
 10
0.0
 20
0.0
 11
1.0
 21
1.0
 12
363.68180746641048
 22
56.877146075568817
 13
0.0
 23
0.0
 14
1.0
 24
1.0
 15
0.0
 25
0.0
 16
0.0
 26
0.0
 36
1.0
 17
0.0
 27
0.0
 37
0.0
 40
1353.8475276266111
 41
1.7980884109916371
 42
50.0
 43
0.0
 44
0.0
 50
0.0
 51
0.0
 71
     0
 72
  1000
 73
     1
 74
     3
 75
     0
 76
     0
 77
     0
 78
     0
  0
ENDTAB
  0
ENDSEC
  0
SECTION
  2
BLOCKS
  0
BLOCK
  8
0
  2
_ORIGIN
 70
     0
 10
0.0
 20
0.0
 30
0.0
  3
_ORIGIN
  1
_ORIGIN
  0
CIRCLE
  8
0
  6
CONTINUOUS
 62
     7
 10
0.0
 20
0.0
 30
0.0
 40
0.5
  0
LINE
  8
0
  6
CONTINUOUS
 62
     7
 10
0.0
 20
0.0
 30
0.0
 11
-1.0
 21
0.0
 31
0.0
  0
ENDBLK
  8
0
  0
ENDSEC
  0
SECTION
  2
ENTITIES
  0
TEXT
  8
ETC
  6
CONTINUOUS
 62
    61
 10
773.92842838877141
 20
654.12508340199565
 30
0.0
 40
64.0
  1
JF-160SA2_1
 41
0.9
  0
TEXT
  8
ETC
  6
CONTINUOUS
 62
    61
 10
767.92843438877139
 20
554.38980340199578
 30
0.0
 40
64.0
  1
産業扇
 41
0.9
  0
LINE
  8
BASIS
  6
DASHDOT
 62
     6
 10
0.0
 20
-252.54924
 30
0.0
 11
0.0
 21
242.8073939999999
 31
0.0
  0
LINE
  8
BASIS
  6
DASHDOT
 62
     6
 10
-288.50919500000009
 20
0.0
 30
0.0
 11
291.41093499999988
 21
0.0
 31
0.0
  0
LINE
  8
DETAIL
  6
CONTINUOUS
 62
     5
 10
-161.5
 20
-169.0
 30
0.0
 11
161.5
 21
-169.0
 31
0.0
  0
LINE
  8
DETAIL
  6
CONTINUOUS
 62
     5
 10
-161.5
 20
169.0
 30
0.0
 11
161.5
 21
169.0
 31
0.0
  0
LINE
  8
DETAIL
  6
CONTINUOUS
 62
     5
 10
-161.5
 20
-217.0
 30
0.0
 11
-161.5
 21
-169.0
 31
0.0
  0
LINE
  8
DETAIL
  6
CONTINUOUS
 62
     5
 10
161.5
 20
-217.0
 30
0.0
 11
161.5
 21
-169.0
 31
0.0
  0
LINE
  8
DETAIL
  6
CONTINUOUS
 62
     5
 10
-271.5
 20
68.0
 30
0.0
 11
-251.5
 21
68.0
 31
0.0
  0
LINE
  8
DETAIL
  6
CONTINUOUS
 62
     5
 10
-271.5
 20
68.0
 30
0.0
 11
-271.5
 21
130.5
 31
0.0
  0
LINE
  8
DETAIL
  6
CONTINUOUS
 62
     5
 10
236.5
 20
-17.093265999999971
 30
0.0
 11
236.5
 21
-2.5
 31
0.0
  0
LINE
  8
DETAIL
  6
CONTINUOUS
 62
     5
 10
-236.5
 20
-17.093265999999971
 30
0.0
 11
-236.5
 21
-2.5
 31
0.0
  0
LINE
  8
DETAIL
  6
CONTINUOUS
 62
     5
 10
-161.5
 20
169.0
 30
0.0
 11
-161.5
 21
217.0
 31
0.0
  0
LINE
  8
DETAIL
  6
CONTINUOUS
 62
     5
 10
161.5
 20
169.0
 30
0.0
 11
161.5
 21
217.0
 31
0.0
  0
LINE
  8
DETAIL
  6
CONTINUOUS
 62
     5
 10
-236.5
 20
2.5
 30
0.0
 11
-236.5
 21
17.093265999999971
 31
0.0
  0
LINE
  8
DETAIL
  6
CONTINUOUS
 62
     5
 10
236.5
 20
2.5
 30
0.0
 11
236.5
 21
17.093265999999971
 31
0.0
  0
LINE
  8
NOTE
  6
CONTINUOUS
 62
     4
 10
156.5
 20
-102.0
 30
0.0
 11
156.5
 21
-142.0
 31
0.0
  0
LINE
  8
NOTE
  6
CONTINUOUS
 62
     4
 10
176.5
 20
-122.0
 30
0.0
 11
136.5
 21
-122.0
 31
0.0
  0
CIRCLE
  8
DETAIL
  6
CONTINUOUS
 62
     5
 10
156.5
 20
-122.0
 30
0.0
 40
6.0
  0
LINE
  8
DETAIL
  6
CONTINUOUS
 62
     5
 10
-161.5
 20
217.0
 30
0.0
 11
161.5
 21
217.0
 31
0.0
  0
LINE
  8
DETAIL
  6
CONTINUOUS
 62
     5
 10
-161.5
 20
-217.0
 30
0.0
 11
161.5
 21
-217.0
 31
0.0
  0
LINE
  8
DETAIL
  6
CONTINUOUS
 62
     5
 10
-251.5
 20
68.0
 30
0.0
 11
-251.5
 21
98.999999000000003
 31
0.0
  0
LINE
  8
DETAIL
  6
CONTINUOUS
 62
     5
 10
-238.5
 20
68.0
 30
0.0
 11
-238.5
 21
99.0
 31
0.0
  0
LINE
  8
NOTE
  6
CONTINUOUS
 62
     4
 10
-245.0
 20
79.0
 30
0.0
 11
-245.0
 21
119.0
 31
0.0
  0
LINE
  8
NOTE
  6
CONTINUOUS
 62
     4
 10
-265.0
 20
99.0
 30
0.0
 11
-225.0
 21
99.0
 31
0.0
  0
CIRCLE
  8
FIX
  6
CONTINUOUS
 62
    11
 10
-245.0
 20
99.0
 30
0.0
 40
6.5
  0
LINE
  8
DETAIL
  6
CONTINUOUS
 62
     5
 10
-238.5
 20
68.0
 30
0.0
 11
-218.43430699999999
 21
68.0
 31
0.0
  0
LINE
  8
DETAIL
  6
CONTINUOUS
 62
     5
 10
-234.17088599999991
 20
-35.0
 30
0.0
 11
234.17088599999991
 21
-35.0
 31
0.0
  0
LINE
  8
DETAIL
  6
CONTINUOUS
 62
     5
 10
-234.17088599999991
 20
35.0
 30
0.0
 11
234.17088599999991
 21
35.0
 31
0.0
  0
LINE
  8
DETAIL
  6
CONTINUOUS
 62
     5
 10
-227.9012339999999
 20
50.707080000000019
 30
0.0
 11
-161.5
 21
169.0
 31
0.0
  0
LINE
  8
DETAIL
  6
CONTINUOUS
 62
     5
 10
227.9012339999999
 20
50.707080000000019
 30
0.0
 11
161.5
 21
169.0
 31
0.0
  0
LINE
  8
DETAIL
  6
CONTINUOUS
 62
     5
 10
-227.9012339999999
 20
-50.707080000000019
 30
0.0
 11
-161.5
 21
-169.0
 31
0.0
  0
LINE
  8
DETAIL
  6
CONTINUOUS
 62
     5
 10
227.9012339999999
 20
-50.707080000000019
 30
0.0
 11
161.5
 21
-169.0
 31
0.0
  0
LINE
  8
DETAIL
  6
CONTINUOUS
 62
     5
 10
-184.21897799999991
 20
130.5
 30
0.0
 11
-271.5
 21
130.5
 31
0.0
  0
ARC
  8
DETAIL
  6
CONTINUOUS
 62
     5
 10
-245.0
 20
99.0
 30
0.0
 40
6.5
 50
0.0
 51
180.0
  0
ARC
  8
DETAIL
  6
CONTINUOUS
 62
     5
 10
245.0
 20
99.0
 30
0.0
 40
6.5
 50
0.0
 51
180.0
  0
LINE
  8
DETAIL
  6
CONTINUOUS
 62
     5
 10
184.21897799999991
 20
130.5
 30
0.0
 11
271.5
 21
130.5
 31
0.0
  0
LINE
  8
DETAIL
  6
CONTINUOUS
 62
     5
 10
238.5
 20
68.0
 30
0.0
 11
218.43430699999999
 21
68.0
 31
0.0
  0
CIRCLE
  8
FIX
  6
CONTINUOUS
 62
    11
 10
245.0
 20
99.0
 30
0.0
 40
6.5
  0
LINE
  8
NOTE
  6
CONTINUOUS
 62
     4
 10
245.0
 20
79.0
 30
0.0
 11
245.0
 21
119.0
 31
0.0
  0
LINE
  8
NOTE
  6
CONTINUOUS
 62
     4
 10
265.0
 20
99.0
 30
0.0
 11
225.0
 21
99.0
 31
0.0
  0
LINE
  8
DETAIL
  6
CONTINUOUS
 62
     5
 10
238.5
 20
68.0
 30
0.0
 11
238.5
 21
99.0
 31
0.0
  0
LINE
  8
DETAIL
  6
CONTINUOUS
 62
     5
 10
251.5
 20
68.0
 30
0.0
 11
251.5
 21
98.999999000000003
 31
0.0
  0
LINE
  8
DETAIL
  6
CONTINUOUS
 62
     5
 10
271.5
 20
68.0
 30
0.0
 11
271.5
 21
130.5
 31
0.0
  0
LINE
  8
DETAIL
  6
CONTINUOUS
 62
     5
 10
271.5
 20
68.0
 30
0.0
 11
251.5
 21
68.0
 31
0.0
  0
ARC
  8
DETAIL
  6
CONTINUOUS
 62
     5
 10
-245.0
 20
-99.0
 30
0.0
 40
6.5
 50
180.0
 51
0.0
  0
LINE
  8
DETAIL
  6
CONTINUOUS
 62
     5
 10
-184.21897799999991
 20
-130.5
 30
0.0
 11
-271.5
 21
-130.5
 31
0.0
  0
LINE
  8
DETAIL
  6
CONTINUOUS
 62
     5
 10
-238.5
 20
-68.0
 30
0.0
 11
-218.43430699999999
 21
-68.0
 31
0.0
  0
CIRCLE
  8
FIX
  6
CONTINUOUS
 62
    11
 10
-245.0
 20
-99.0
 30
0.0
 40
6.5
  0
LINE
  8
NOTE
  6
CONTINUOUS
 62
     4
 10
-245.0
 20
-79.0
 30
0.0
 11
-245.0
 21
-119.0
 31
0.0
  0
LINE
  8
NOTE
  6
CONTINUOUS
 62
     4
 10
-265.0
 20
-99.0
 30
0.0
 11
-225.0
 21
-99.0
 31
0.0
  0
LINE
  8
DETAIL
  6
CONTINUOUS
 62
     5
 10
-238.5
 20
-68.0
 30
0.0
 11
-238.5
 21
-99.0
 31
0.0
  0
LINE
  8
DETAIL
  6
CONTINUOUS
 62
     5
 10
-251.5
 20
-68.0
 30
0.0
 11
-251.5
 21
-98.999999000000003
 31
0.0
  0
LINE
  8
DETAIL
  6
CONTINUOUS
 62
     5
 10
-271.5
 20
-68.0
 30
0.0
 11
-271.5
 21
-130.5
 31
0.0
  0
LINE
  8
DETAIL
  6
CONTINUOUS
 62
     5
 10
-271.5
 20
-68.0
 30
0.0
 11
-251.5
 21
-68.0
 31
0.0
  0
LINE
  8
DETAIL
  6
CONTINUOUS
 62
     5
 10
271.5
 20
-68.0
 30
0.0
 11
251.5
 21
-68.0
 31
0.0
  0
LINE
  8
DETAIL
  6
CONTINUOUS
 62
     5
 10
271.5
 20
-68.0
 30
0.0
 11
271.5
 21
-130.5
 31
0.0
  0
LINE
  8
DETAIL
  6
CONTINUOUS
 62
     5
 10
251.5
 20
-68.0
 30
0.0
 11
251.5
 21
-98.999999000000003
 31
0.0
  0
LINE
  8
DETAIL
  6
CONTINUOUS
 62
     5
 10
238.5
 20
-68.0
 30
0.0
 11
238.5
 21
-99.0
 31
0.0
  0
LINE
  8
NOTE
  6
CONTINUOUS
 62
     4
 10
245.0
 20
-79.0
 30
0.0
 11
245.0
 21
-119.0
 31
0.0
  0
LINE
  8
NOTE
  6
CONTINUOUS
 62
     4
 10
265.0
 20
-99.0
 30
0.0
 11
225.0
 21
-99.0
 31
0.0
  0
CIRCLE
  8
FIX
  6
CONTINUOUS
 62
    11
 10
245.0
 20
-99.0
 30
0.0
 40
6.5
  0
LINE
  8
DETAIL
  6
CONTINUOUS
 62
     5
 10
238.5
 20
-68.0
 30
0.0
 11
218.43430699999999
 21
-68.0
 31
0.0
  0
LINE
  8
DETAIL
  6
CONTINUOUS
 62
     5
 10
184.21897799999991
 20
-130.5
 30
0.0
 11
271.5
 21
-130.5
 31
0.0
  0
ARC
  8
DETAIL
  6
CONTINUOUS
 62
     5
 10
245.0
 20
-99.0
 30
0.0
 40
6.5
 50
180.0
 51
0.0
  0
LINE
  8
NOTE
  6
CONTINUOUS
 62
     4
 10
245.0
 20
99.0
 30
0.0
 11
388.85043799999988
 21
240.26629600000001
 31
0.0
  0
LINE
  8
NOTE
  6
CONTINUOUS
 62
     4
 10
265.6746119999998
 20
133.24267
 30
0.0
 11
245.0
 21
99.0
 31
0.0
  0
LINE
  8
NOTE
  6
CONTINUOUS
 62
     4
 10
245.0
 20
99.0
 30
0.0
 11
280.02607399999988
 21
118.317716
 31
0.0
  0
ARC
  8
DETAIL
  6
CONTINUOUS
 62
     5
 10
166.5
 20
17.093265999999971
 30
0.0
 40
70.0
 50
0.0
 51
28.69829199999484
  0
ARC
  8
DETAIL
  6
CONTINUOUS
 62
     5
 10
166.5
 20
-17.093265999999971
 30
0.0
 40
70.0
 50
331.30170800000519
 51
0.0
  0
ARC
  8
DETAIL
  6
CONTINUOUS
 62
     5
 10
-166.5
 20
17.093265999999971
 30
0.0
 40
70.0
 50
151.30170800000519
 51
180.0
  0
ARC
  8
DETAIL
  6
CONTINUOUS
 62
     5
 10
-166.5
 20
-17.093265999999971
 30
0.0
 40
70.0
 50
180.0
 51
208.69829199999489
  0
POINT
  8
ARRANGE
  6
CONTINUOUS
 62
     1
 10
0.0
 20
0.0
 30
0.0
  0
CIRCLE
  8
ARRANGE
  6
CONTINUOUS
 62
     1
 10
0.0
 20
0.0
 30
0.0
 40
40.0
  0
LINE
  8
DETAIL
  6
CONTINUOUS
 62
     5
 10
-271.5
 20
130.80000000000001
 30
0.0
 11
-251.5
 21
130.80000000000001
 31
0.0
  0
TEXT
  8
NOTE
  6
CONTINUOUS
 62
     4
 10
408.70500099999981
 20
269.56927200000001
 30
0.0
 40
64.0
  1
AH-4
 41
0.9
  0
LINE
  8
NOTE
  6
CONTINUOUS
 62
     4
 10
388.85043799999988
 20
240.26629600000001
 30
0.0
 11
658.0803350000001
 21
240.26629600000001
 31
0.0
  0
LINE
  8
NOTE
  6
CONTINUOUS
 62
     4
 10
187.79993300000001
 20
-146.90610699999999
 30
0.0
 11
156.5
 21
-122.0
 31
0.0
  0
LINE
  8
NOTE
  6
CONTINUOUS
 62
     4
 10
156.5
 20
-122.0
 30
0.0
 11
171.15348399999991
 21
-159.21928799999989
 31
0.0
  0
LINE
  8
NOTE
  6
CONTINUOUS
 62
     4
 10
156.5
 20
-122.0
 30
0.0
 11
321.41498037401863
 21
-334.90680399599188
 31
0.0
  0
TEXT
  8
NOTE
  6
CONTINUOUS
 62
     4
 10
331.23384194544712
 20
-315.90972989023248
 30
0.0
 40
64.0
  1
EL
 41
0.9
  0
LINE
  8
NOTE
  6
CONTINUOUS
 62
     4
 10
321.41498037401863
 20
-334.90680399599188
 30
0.0
 11
426.39533737401848
 21
-334.90680399599188
 31
0.0
  0
LINE
  8
DETAIL
  6
CONTINUOUS
 62
     5
 10
-257.5
 20
-1.5
 30
0.0
 11
257.5
 21
-1.5
 31
0.0
  0
LINE
  8
DETAIL
  6
CONTINUOUS
 62
     5
 10
-257.5
 20
1.5
 30
0.0
 11
257.5
 21
1.5
 31
0.0
  0
LINE
  8
DETAIL
  6
CONTINUOUS
 62
     5
 10
-257.5
 20
2.5
 30
0.0
 11
257.5
 21
2.5
 31
0.0
  0
LINE
  8
DETAIL
  6
CONTINUOUS
 62
     5
 10
-257.5
 20
-2.5
 30
0.0
 11
257.5
 21
-2.5
 31
0.0
  0
LINE
  8
DETAIL
  6
CONTINUOUS
 62
     5
 10
-257.5
 20
-2.5
 30
0.0
 11
-257.5
 21
2.5
 31
0.0
  0
LINE
  8
DETAIL
  6
CONTINUOUS
 62
     5
 10
257.5
 20
-2.5
 30
0.0
 11
257.5
 21
2.5
 31
0.0
  0
LINE
  8
SIZE
  6
CONTINUOUS
 62
    30
 10
161.5
 20
-237.0
 30
0.0
 11
161.5
 21
-489.50662229809598
 31
0.0
  0
LINE
  8
SIZE
  6
CONTINUOUS
 62
    30
 10
-161.5
 20
-237.0
 30
0.0
 11
-161.5
 21
-489.50662229809598
 31
0.0
  0
LINE
  8
SIZE
  6
CONTINUOUS
 62
    30
 10
149.5
 20
-469.50662229809598
 30
0.0
 11
-149.5
 21
-469.50662229809598
 31
0.0
  0
CIRCLE
  8
SIZE
  6
CONTINUOUS
 62
    30
 10
161.5
 20
-469.50662229809598
 30
0.0
 40
6.0
  0
LINE
  8
SIZE
  6
CONTINUOUS
 62
    30
 10
161.5
 20
-469.50662229809598
 30
0.0
 11
149.5
 21
-469.50662229809598
 31
0.0
  0
CIRCLE
  8
SIZE
  6
CONTINUOUS
 62
    30
 10
-161.5
 20
-469.50662229809598
 30
0.0
 40
6.0
  0
LINE
  8
SIZE
  6
CONTINUOUS
 62
    30
 10
-161.5
 20
-469.50662229809598
 30
0.0
 11
-149.5
 21
-469.50662229809598
 31
0.0
  0
TEXT
  8
SIZE
  6
CONTINUOUS
 62
    30
 10
-104.2285714285714
 20
-444.50662229809598
 30
0.0
 40
64.0
  1
φ323
 41
0.9
 72
     1
 11
0.0
 21
-444.50662229809598
 31
0.0
  0
POINT
  8
DEFPOINTS
  6
CONTINUOUS
 62
    30
 10
161.5
 20
-217.0
 30
0.0
  0
POINT
  8
DEFPOINTS
  6
CONTINUOUS
 62
    30
 10
-161.5
 20
-217.0
 30
0.0
  0
POINT
  8
DEFPOINTS
  6
CONTINUOUS
 62
    30
 10
-161.5
 20
-469.50662229809598
 30
0.0
  0
LINE
  8
SIZE
  6
CONTINUOUS
 62
    30
 10
257.5
 20
-22.5
 30
0.0
 11
257.5
 21
-615.10835329809606
 31
0.0
  0
LINE
  8
SIZE
  6
CONTINUOUS
 62
    30
 10
-257.5
 20
-22.5
 30
0.0
 11
-257.5
 21
-615.10835329809606
 31
0.0
  0
LINE
  8
SIZE
  6
CONTINUOUS
 62
    30
 10
245.5
 20
-595.10835329809606
 30
0.0
 11
-245.5
 21
-595.10835329809606
 31
0.0
  0
CIRCLE
  8
SIZE
  6
CONTINUOUS
 62
    30
 10
257.5
 20
-595.10835329809606
 30
0.0
 40
6.0
  0
LINE
  8
SIZE
  6
CONTINUOUS
 62
    30
 10
257.5
 20
-595.10835329809606
 30
0.0
 11
245.5
 21
-595.10835329809606
 31
0.0
  0
CIRCLE
  8
SIZE
  6
CONTINUOUS
 62
    30
 10
-257.5
 20
-595.10835329809606
 30
0.0
 40
6.0
  0
LINE
  8
SIZE
  6
CONTINUOUS
 62
    30
 10
-257.5
 20
-595.10835329809606
 30
0.0
 11
-245.5
 21
-595.10835329809606
 31
0.0
  0
TEXT
  8
SIZE
  6
CONTINUOUS
 62
    30
 10
-98.742857142857147
 20
-570.10835329809606
 30
0.0
 40
64.0
  1
φ515
 41
0.9
 72
     1
 11
0.0
 21
-570.10835329809606
 31
0.0
  0
POINT
  8
DEFPOINTS
  6
CONTINUOUS
 62
    30
 10
257.5
 20
-2.5
 30
0.0
  0
POINT
  8
DEFPOINTS
  6
CONTINUOUS
 62
    30
 10
-257.5
 20
-2.5
 30
0.0
  0
POINT
  8
DEFPOINTS
  6
CONTINUOUS
 62
    30
 10
-257.5
 20
-595.10835329809606
 30
0.0
  0
LINE
  8
SIZE
  6
CONTINUOUS
 62
    30
 10
161.5
 20
237.0
 30
0.0
 11
161.5
 21
394.88134839817468
 31
0.0
  0
LINE
  8
SIZE
  6
CONTINUOUS
 62
    30
 10
-161.5
 20
237.0
 30
0.0
 11
-161.5
 21
394.88134839817468
 31
0.0
  0
LINE
  8
SIZE
  6
CONTINUOUS
 62
    30
 10
149.5
 20
374.88134839817468
 30
0.0
 11
-149.5
 21
374.88134839817468
 31
0.0
  0
CIRCLE
  8
SIZE
  6
CONTINUOUS
 62
    30
 10
161.5
 20
374.88134839817468
 30
0.0
 40
6.0
  0
LINE
  8
SIZE
  6
CONTINUOUS
 62
    30
 10
161.5
 20
374.88134839817468
 30
0.0
 11
149.5
 21
374.88134839817468
 31
0.0
  0
CIRCLE
  8
SIZE
  6
CONTINUOUS
 62
    30
 10
-161.5
 20
374.88134839817468
 30
0.0
 40
6.0
  0
LINE
  8
SIZE
  6
CONTINUOUS
 62
    30
 10
-161.5
 20
374.88134839817468
 30
0.0
 11
-149.5
 21
374.88134839817468
 31
0.0
  0
TEXT
  8
SIZE
  6
CONTINUOUS
 62
    30
 10
-104.2285714285714
 20
399.88134839817468
 30
0.0
 40
64.0
  1
φ323
 41
0.9
 72
     1
 11
0.0
 21
399.88134839817468
 31
0.0
  0
POINT
  8
DEFPOINTS
  6
CONTINUOUS
 62
    30
 10
161.5
 20
217.0
 30
0.0
  0
POINT
  8
DEFPOINTS
  6
CONTINUOUS
 62
    30
 10
-161.5
 20
217.0
 30
0.0
  0
POINT
  8
DEFPOINTS
  6
CONTINUOUS
 62
    30
 10
-161.5
 20
374.88134839817468
 30
0.0
  0
LINE
  8
SIZE
  6
CONTINUOUS
 62
    30
 10
245.0
 20
139.0
 30
0.0
 11
245.0
 21
530.07829039817466
 31
0.0
  0
LINE
  8
SIZE
  6
CONTINUOUS
 62
    30
 10
-245.0
 20
136.0
 30
0.0
 11
-245.0
 21
530.07829039817466
 31
0.0
  0
LINE
  8
SIZE
  6
CONTINUOUS
 62
    30
 10
233.0
 20
510.07829039817472
 30
0.0
 11
-233.0
 21
510.07829039817472
 31
0.0
  0
CIRCLE
  8
SIZE
  6
CONTINUOUS
 62
    30
 10
245.0
 20
510.07829039817472
 30
0.0
 40
6.0
  0
LINE
  8
SIZE
  6
CONTINUOUS
 62
    30
 10
245.0
 20
510.07829039817472
 30
0.0
 11
233.0
 21
510.07829039817472
 31
0.0
  0
CIRCLE
  8
SIZE
  6
CONTINUOUS
 62
    30
 10
-245.0
 20
510.07829039817472
 30
0.0
 40
6.0
  0
LINE
  8
SIZE
  6
CONTINUOUS
 62
    30
 10
-245.0
 20
510.07829039817472
 30
0.0
 11
-233.0
 21
510.07829039817472
 31
0.0
  0
TEXT
  8
SIZE
  6
CONTINUOUS
 62
    30
 10
-74.05714285714285
 20
535.07829039817466
 30
0.0
 40
64.0
  1
490
 41
0.9
 72
     1
 11
0.0
 21
535.07829039817466
 31
0.0
  0
POINT
  8
DEFPOINTS
  6
CONTINUOUS
 62
    30
 10
245.0
 20
119.0
 30
0.0
  0
POINT
  8
DEFPOINTS
  6
CONTINUOUS
 62
    30
 10
-245.0
 20
119.0
 30
0.0
  0
POINT
  8
DEFPOINTS
  6
CONTINUOUS
 62
    30
 10
-245.0
 20
510.07829039817472
 30
0.0
  0
LINE
  8
SIZE
  6
CONTINUOUS
 62
    30
 10
271.5
 20
150.5
 30
0.0
 11
271.5
 21
659.96294739817472
 31
0.0
  0
LINE
  8
SIZE
  6
CONTINUOUS
 62
    30
 10
-271.5
 20
147.5
 30
0.0
 11
-271.5
 21
659.96294739817472
 31
0.0
  0
LINE
  8
SIZE
  6
CONTINUOUS
 62
    30
 10
259.5
 20
639.96294739817472
 30
0.0
 11
-259.5
 21
639.96294739817472
 31
0.0
  0
CIRCLE
  8
SIZE
  6
CONTINUOUS
 62
    30
 10
271.5
 20
639.96294739817472
 30
0.0
 40
6.0
  0
LINE
  8
SIZE
  6
CONTINUOUS
 62
    30
 10
271.5
 20
639.96294739817472
 30
0.0
 11
259.5
 21
639.96294739817472
 31
0.0
  0
CIRCLE
  8
SIZE
  6
CONTINUOUS
 62
    30
 10
-271.5
 20
639.96294739817472
 30
0.0
 40
6.0
  0
LINE
  8
SIZE
  6
CONTINUOUS
 62
    30
 10
-271.5
 20
639.96294739817472
 30
0.0
 11
-259.5
 21
639.96294739817472
 31
0.0
  0
TEXT
  8
SIZE
  6
CONTINUOUS
 62
    30
 10
-74.05714285714285
 20
664.96294739817472
 30
0.0
 40
64.0
  1
543
 41
0.9
 72
     1
 11
0.0
 21
664.96294739817472
 31
0.0
  0
POINT
  8
DEFPOINTS
  6
CONTINUOUS
 62
    30
 10
271.5
 20
130.5
 30
0.0
  0
POINT
  8
DEFPOINTS
  6
CONTINUOUS
 62
    30
 10
-271.5
 20
130.5
 30
0.0
  0
POINT
  8
DEFPOINTS
  6
CONTINUOUS
 62
    30
 10
-271.5
 20
639.96294739817472
 30
0.0
  0
LINE
  8
SIZE
  6
CONTINUOUS
 62
    30
 10
291.5
 20
68.0
 30
0.0
 11
567.52169220898213
 21
68.0
 31
0.0
  0
LINE
  8
SIZE
  6
CONTINUOUS
 62
    30
 10
291.5
 20
-68.0
 30
0.0
 11
567.52169220898213
 21
-68.0
 31
0.0
  0
LINE
  8
SIZE
  6
CONTINUOUS
 62
    30
 10
547.52169220898213
 20
56.0
 30
0.0
 11
547.52169220898213
 21
-56.0
 31
0.0
  0
LINE
  8
SIZE
  6
CONTINUOUS
 62
    30
 10
547.52169220898213
 20
-318.204545
 30
0.0
 11
547.52169220898213
 21
-68.0
 31
0.0
  0
TEXT
  8
SIZE
  6
CONTINUOUS
 62
    30
 10
522.52169220898213
 20
-293.204545
 30
0.0
 40
64.0
  1
136
 50
90.0
 41
0.9
 72
     1
 11
522.52169220898213
 21
-226.00454500000001
 31
0.0
  0
CIRCLE
  8
SIZE
  6
CONTINUOUS
 62
    30
 10
547.52169220898213
 20
68.0
 30
0.0
 40
6.0
  0
LINE
  8
SIZE
  6
CONTINUOUS
 62
    30
 10
547.52169220898213
 20
68.0
 30
0.0
 11
547.52169220898213
 21
56.0
 31
0.0
  0
CIRCLE
  8
SIZE
  6
CONTINUOUS
 62
    30
 10
547.52169220898213
 20
-68.0
 30
0.0
 40
6.0
  0
LINE
  8
SIZE
  6
CONTINUOUS
 62
    30
 10
547.52169220898213
 20
-68.0
 30
0.0
 11
547.52169220898213
 21
-56.0
 31
0.0
  0
POINT
  8
DEFPOINTS
  6
CONTINUOUS
 62
    30
 10
271.5
 20
68.0
 30
0.0
  0
POINT
  8
DEFPOINTS
  6
CONTINUOUS
 62
    30
 10
271.5
 20
-68.0
 30
0.0
  0
POINT
  8
DEFPOINTS
  6
CONTINUOUS
 62
    30
 10
547.52169220898213
 20
-68.0
 30
0.0
  0
LINE
  8
SIZE
  6
CONTINUOUS
 62
    30
 10
285.0
 20
99.0
 30
0.0
 11
689.71140920898188
 21
99.0
 31
0.0
  0
LINE
  8
SIZE
  6
CONTINUOUS
 62
    30
 10
285.0
 20
-99.0
 30
0.0
 11
689.71140920898188
 21
-99.0
 31
0.0
  0
LINE
  8
SIZE
  6
CONTINUOUS
 62
    30
 10
669.71140920898188
 20
87.0
 30
0.0
 11
669.71140920898188
 21
-87.0
 31
0.0
  0
CIRCLE
  8
SIZE
  6
CONTINUOUS
 62
    30
 10
669.71140920898188
 20
99.0
 30
0.0
 40
6.0
  0
LINE
  8
SIZE
  6
CONTINUOUS
 62
    30
 10
669.71140920898188
 20
99.0
 30
0.0
 11
669.71140920898188
 21
87.0
 31
0.0
  0
CIRCLE
  8
SIZE
  6
CONTINUOUS
 62
    30
 10
669.71140920898188
 20
-99.0
 30
0.0
 40
6.0
  0
LINE
  8
SIZE
  6
CONTINUOUS
 62
    30
 10
669.71140920898188
 20
-99.0
 30
0.0
 11
669.71140920898188
 21
-87.0
 31
0.0
  0
TEXT
  8
SIZE
  6
CONTINUOUS
 62
    30
 10
644.71140920898188
 20
-68.571428571428569
 30
0.0
 40
64.0
  1
198
 50
90.0
 41
0.9
 72
     1
 11
644.71140920898188
 21
0.0
 31
0.0
  0
POINT
  8
DEFPOINTS
  6
CONTINUOUS
 62
    30
 10
265.0
 20
99.0
 30
0.0
  0
POINT
  8
DEFPOINTS
  6
CONTINUOUS
 62
    30
 10
265.0
 20
-99.0
 30
0.0
  0
POINT
  8
DEFPOINTS
  6
CONTINUOUS
 62
    30
 10
669.71140920898188
 20
-99.0
 30
0.0
  0
LINE
  8
SIZE
  6
CONTINUOUS
 62
    30
 10
291.5
 20
130.5
 30
0.0
 11
812.83251920898238
 21
130.5
 31
0.0
  0
LINE
  8
SIZE
  6
CONTINUOUS
 62
    30
 10
291.5
 20
-130.5
 30
0.0
 11
812.83251920898238
 21
-130.5
 31
0.0
  0
LINE
  8
SIZE
  6
CONTINUOUS
 62
    30
 10
792.83251920898238
 20
118.5
 30
0.0
 11
792.83251920898238
 21
-118.5
 31
0.0
  0
CIRCLE
  8
SIZE
  6
CONTINUOUS
 62
    30
 10
792.83251920898238
 20
130.5
 30
0.0
 40
6.0
  0
LINE
  8
SIZE
  6
CONTINUOUS
 62
    30
 10
792.83251920898238
 20
130.5
 30
0.0
 11
792.83251920898238
 21
118.5
 31
0.0
  0
CIRCLE
  8
SIZE
  6
CONTINUOUS
 62
    30
 10
792.83251920898238
 20
-130.5
 30
0.0
 40
6.0
  0
LINE
  8
SIZE
  6
CONTINUOUS
 62
    30
 10
792.83251920898238
 20
-130.5
 30
0.0
 11
792.83251920898238
 21
-118.5
 31
0.0
  0
TEXT
  8
SIZE
  6
CONTINUOUS
 62
    30
 10
767.83251920898238
 20
-61.714285714285701
 30
0.0
 40
64.0
  1
261
 50
90.0
 41
0.9
 72
     1
 11
767.83251920898238
 21
0.0
 31
0.0
  0
POINT
  8
DEFPOINTS
  6
CONTINUOUS
 62
    30
 10
271.5
 20
130.5
 30
0.0
  0
POINT
  8
DEFPOINTS
  6
CONTINUOUS
 62
    30
 10
271.5
 20
-130.5
 30
0.0
  0
POINT
  8
DEFPOINTS
  6
CONTINUOUS
 62
    30
 10
792.83251920898238
 20
-130.5
 30
0.0
  0
LINE
  8
SIZE
  6
CONTINUOUS
 62
    30
 10
-181.5
 20
217.0
 30
0.0
 11
-376.87065645917659
 21
217.0
 31
0.0
  0
LINE
  8
SIZE
  6
CONTINUOUS
 62
    30
 10
-181.5
 20
169.0
 30
0.0
 11
-376.87065645917659
 21
169.0
 31
0.0
  0
LINE
  8
SIZE
  6
CONTINUOUS
 62
    30
 10
-356.87065645917659
 20
229.0
 30
0.0
 11
-356.87065645917659
 21
241.0
 31
0.0
  0
LINE
  8
SIZE
  6
CONTINUOUS
 62
    30
 10
-356.87065645917659
 20
157.0
 30
0.0
 11
-356.87065645917659
 21
145.0
 31
0.0
  0
LINE
  8
SIZE
  6
CONTINUOUS
 62
    30
 10
-356.87065645917659
 20
400.92564399999992
 30
0.0
 11
-356.87065645917659
 21
217.0
 31
0.0
  0
TEXT
  8
SIZE
  6
CONTINUOUS
 62
    30
 10
-381.87065645917659
 20
282.66850057142858
 30
0.0
 40
64.0
  1
48
 50
90.0
 41
0.9
 72
     1
 11
-381.87065645917659
 21
329.29707200000013
 31
0.0
  0
LINE
  8
SIZE
  6
CONTINUOUS
 62
    30
 10
-356.87065645917659
 20
217.0
 30
0.0
 11
-356.87065645917659
 21
169.0
 31
0.0
  0
LINE
  8
SIZE
  6
CONTINUOUS
 62
    30
 10
-356.87065645917659
 20
217.0
 30
0.0
 11
-356.87065645917659
 21
169.0
 31
0.0
  0
CIRCLE
  8
SIZE
  6
CONTINUOUS
 62
    30
 10
-356.87065645917659
 20
217.0
 30
0.0
 40
6.0
  0
LINE
  8
SIZE
  6
CONTINUOUS
 62
    30
 10
-356.87065645917659
 20
217.0
 30
0.0
 11
-356.87065645917659
 21
229.0
 31
0.0
  0
CIRCLE
  8
SIZE
  6
CONTINUOUS
 62
    30
 10
-356.87065645917659
 20
169.0
 30
0.0
 40
6.0
  0
LINE
  8
SIZE
  6
CONTINUOUS
 62
    30
 10
-356.87065645917659
 20
169.0
 30
0.0
 11
-356.87065645917659
 21
157.0
 31
0.0
  0
POINT
  8
DEFPOINTS
  6
CONTINUOUS
 62
    30
 10
-161.5
 20
217.0
 30
0.0
  0
POINT
  8
DEFPOINTS
  6
CONTINUOUS
 62
    30
 10
-161.5
 20
169.0
 30
0.0
  0
POINT
  8
DEFPOINTS
  6
CONTINUOUS
 62
    30
 10
-356.87065645917659
 20
169.0
 30
0.0
  0
LINE
  8
SIZE
  6
CONTINUOUS
 62
    30
 10
-181.5
 20
-169.0
 30
0.0
 11
-376.87065645917659
 21
-169.0
 31
0.0
  0
LINE
  8
SIZE
  6
CONTINUOUS
 62
    30
 10
-181.5
 20
-217.0
 30
0.0
 11
-376.87065645917659
 21
-217.0
 31
0.0
  0
LINE
  8
SIZE
  6
CONTINUOUS
 62
    30
 10
-356.87065645917659
 20
-157.0
 30
0.0
 11
-356.87065645917659
 21
-145.0
 31
0.0
  0
LINE
  8
SIZE
  6
CONTINUOUS
 62
    30
 10
-356.87065645917659
 20
-229.0
 30
0.0
 11
-356.87065645917659
 21
-241.0
 31
0.0
  0
LINE
  8
SIZE
  6
CONTINUOUS
 62
    30
 10
-356.87065645917659
 20
-404.78742299999988
 30
0.0
 11
-356.87065645917659
 21
-217.0
 31
0.0
  0
TEXT
  8
SIZE
  6
CONTINUOUS
 62
    30
 10
-381.87065645917659
 20
-379.78742342857151
 30
0.0
 40
64.0
  1
48
 50
90.0
 41
0.9
 72
     1
 11
-381.87065645917659
 21
-333.15885200000002
 31
0.0
  0
LINE
  8
SIZE
  6
CONTINUOUS
 62
    30
 10
-356.87065645917659
 20
-169.0
 30
0.0
 11
-356.87065645917659
 21
-217.0
 31
0.0
  0
LINE
  8
SIZE
  6
CONTINUOUS
 62
    30
 10
-356.87065645917659
 20
-169.0
 30
0.0
 11
-356.87065645917659
 21
-217.0
 31
0.0
  0
CIRCLE
  8
SIZE
  6
CONTINUOUS
 62
    30
 10
-356.87065645917659
 20
-169.0
 30
0.0
 40
6.0
  0
LINE
  8
SIZE
  6
CONTINUOUS
 62
    30
 10
-356.87065645917659
 20
-169.0
 30
0.0
 11
-356.87065645917659
 21
-157.0
 31
0.0
  0
CIRCLE
  8
SIZE
  6
CONTINUOUS
 62
    30
 10
-356.87065645917659
 20
-217.0
 30
0.0
 40
6.0
  0
LINE
  8
SIZE
  6
CONTINUOUS
 62
    30
 10
-356.87065645917659
 20
-217.0
 30
0.0
 11
-356.87065645917659
 21
-229.0
 31
0.0
  0
POINT
  8
DEFPOINTS
  6
CONTINUOUS
 62
    30
 10
-161.5
 20
-169.0
 30
0.0
  0
POINT
  8
DEFPOINTS
  6
CONTINUOUS
 62
    30
 10
-161.5
 20
-217.0
 30
0.0
  0
POINT
  8
DEFPOINTS
  6
CONTINUOUS
 62
    30
 10
-356.87065645917659
 20
-217.0
 30
0.0
  0
POINT
  8
DEFPOINTS
  6
CONTINUOUS
 62
    30
 10
-161.5
 20
217.0
 30
0.0
  0
POINT
  8
DEFPOINTS
  6
CONTINUOUS
 62
    30
 10
-161.5
 20
-217.0
 30
0.0
  0
TEXT
  8
ETC
  6
CONTINUOUS
 62
    61
 10
811.94217925256271
 20
466.2893413335064
 30
0.0
 40
50.0
  1
JF-160SA2
 50
0.0
 41
0.9
 51
0.0
  7
STANDARD
 71
     0
 11
0.0
 21
0.0
 31
0.0
210
0.0
220
0.0
230
1.0
  0
TEXT
  8
ETC
  6
CONTINUOUS
 62
    61
 10
811.94217925256271
 20
383.7893413335064
 30
0.0
 40
50.0
  1
JF-160TA2
 50
0.0
 41
0.9
 51
0.0
  7
STANDARD
 71
     0
 11
0.0
 21
0.0
 31
0.0
210
0.0
220
0.0
230
1.0
  0
TEXT
  8
ETC
  6
CONTINUOUS
 62
    61
 10
811.94217925256271
 20
301.2893413335064
 30
0.0
 40
50.0
  1
JF-210SA2
 50
0.0
 41
0.9
 51
0.0
  7
STANDARD
 71
     0
 11
0.0
 21
0.0
 31
0.0
210
0.0
220
0.0
230
1.0
  0
TEXT
  8
ETC
  6
CONTINUOUS
 62
    61
 10
811.94217925256271
 20
218.7893413335064
 30
0.0
 40
50.0
  1
JF-210TA2
 50
0.0
 41
0.9
 51
0.0
  7
STANDARD
 71
     0
 11
0.0
 21
0.0
 31
0.0
210
0.0
220
0.0
230
1.0
  0
LINE
  8
OUTLINE
  6
CONTINUOUS
 62
     3
 10
-161.5
 20
-217.0
 30
0.0
 11
-161.5
 21
-169.0
 31
0.0
  0
LINE
  8
OUTLINE
  6
CONTINUOUS
 62
     3
 10
161.5
 20
-217.0
 30
0.0
 11
161.5
 21
-169.0
 31
0.0
  0
LINE
  8
OUTLINE
  6
CONTINUOUS
 62
     3
 10
-271.5
 20
68.0
 30
0.0
 11
-251.5
 21
68.0
 31
0.0
  0
LINE
  8
OUTLINE
  6
CONTINUOUS
 62
     3
 10
-271.5
 20
68.0
 30
0.0
 11
-271.5
 21
130.5
 31
0.0
  0
LINE
  8
OUTLINE
  6
CONTINUOUS
 62
     3
 10
236.5
 20
-17.093265999999971
 30
0.0
 11
236.5
 21
-2.5
 31
0.0
  0
LINE
  8
OUTLINE
  6
CONTINUOUS
 62
     3
 10
-236.5
 20
-17.093265999999971
 30
0.0
 11
-236.5
 21
-2.5
 31
0.0
  0
LINE
  8
OUTLINE
  6
CONTINUOUS
 62
     3
 10
-161.5
 20
169.0
 30
0.0
 11
-161.5
 21
217.0
 31
0.0
  0
LINE
  8
OUTLINE
  6
CONTINUOUS
 62
     3
 10
161.5
 20
169.0
 30
0.0
 11
161.5
 21
217.0
 31
0.0
  0
LINE
  8
OUTLINE
  6
CONTINUOUS
 62
     3
 10
-236.5
 20
2.5
 30
0.0
 11
-236.5
 21
17.093265999999971
 31
0.0
  0
LINE
  8
OUTLINE
  6
CONTINUOUS
 62
     3
 10
236.5
 20
2.5
 30
0.0
 11
236.5
 21
17.093265999999971
 31
0.0
  0
LINE
  8
OUTLINE
  6
CONTINUOUS
 62
     3
 10
-161.5
 20
217.0
 30
0.0
 11
161.5
 21
217.0
 31
0.0
  0
LINE
  8
OUTLINE
  6
CONTINUOUS
 62
     3
 10
-161.5
 20
-217.0
 30
0.0
 11
161.5
 21
-217.0
 31
0.0
  0
LINE
  8
OUTLINE
  6
CONTINUOUS
 62
     3
 10
-251.5
 20
68.0
 30
0.0
 11
-251.5
 21
98.999999000000003
 31
0.0
  0
LINE
  8
OUTLINE
  6
CONTINUOUS
 62
     3
 10
-238.5
 20
68.0
 30
0.0
 11
-238.5
 21
99.0
 31
0.0
  0
LINE
  8
OUTLINE
  6
CONTINUOUS
 62
     3
 10
-238.5
 20
68.0
 30
0.0
 11
-218.43430699999999
 21
68.0
 31
0.0
  0
LINE
  8
OUTLINE
  6
CONTINUOUS
 62
     3
 10
-227.9012339999999
 20
50.707080000000019
 30
0.0
 11
-218.43430693234191
 21
68.0
 31
0.0
  0
LINE
  8
OUTLINE
  6
CONTINUOUS
 62
     3
 10
227.9012339999999
 20
50.707080000000019
 30
0.0
 11
218.434306932342
 21
68.0
 31
0.0
  0
LINE
  8
OUTLINE
  6
CONTINUOUS
 62
     3
 10
-227.9012339999999
 20
-50.707080000000019
 30
0.0
 11
-218.43430693234191
 21
-68.0
 31
0.0
  0
LINE
  8
OUTLINE
  6
CONTINUOUS
 62
     3
 10
227.9012339999999
 20
-50.707080000000019
 30
0.0
 11
218.434306932342
 21
-68.0
 31
0.0
  0
LINE
  8
OUTLINE
  6
CONTINUOUS
 62
     3
 10
-184.21897799999991
 20
130.5
 30
0.0
 11
-271.5
 21
130.5
 31
0.0
  0
ARC
  8
OUTLINE
  6
CONTINUOUS
 62
     3
 10
-245.0
 20
99.0
 30
0.0
 40
6.5
 50
0.0
 51
180.0
  0
ARC
  8
OUTLINE
  6
CONTINUOUS
 62
     3
 10
245.0
 20
99.0
 30
0.0
 40
6.5
 50
0.0
 51
180.0
  0
LINE
  8
OUTLINE
  6
CONTINUOUS
 62
     3
 10
184.21897799999991
 20
130.5
 30
0.0
 11
271.5
 21
130.5
 31
0.0
  0
LINE
  8
OUTLINE
  6
CONTINUOUS
 62
     3
 10
238.5
 20
68.0
 30
0.0
 11
218.434306932342
 21
68.0
 31
0.0
  0
LINE
  8
OUTLINE
  6
CONTINUOUS
 62
     3
 10
238.5
 20
68.0
 30
0.0
 11
238.5
 21
99.0
 31
0.0
  0
LINE
  8
OUTLINE
  6
CONTINUOUS
 62
     3
 10
251.5
 20
68.0
 30
0.0
 11
251.5
 21
98.999999000000003
 31
0.0
  0
LINE
  8
OUTLINE
  6
CONTINUOUS
 62
     3
 10
271.5
 20
68.0
 30
0.0
 11
271.5
 21
130.5
 31
0.0
  0
LINE
  8
OUTLINE
  6
CONTINUOUS
 62
     3
 10
271.5
 20
68.0
 30
0.0
 11
251.5
 21
68.0
 31
0.0
  0
ARC
  8
OUTLINE
  6
CONTINUOUS
 62
     3
 10
-245.0
 20
-99.0
 30
0.0
 40
6.5
 50
180.0
 51
0.0
  0
LINE
  8
OUTLINE
  6
CONTINUOUS
 62
     3
 10
-184.21897799999991
 20
-130.5
 30
0.0
 11
-271.5
 21
-130.5
 31
0.0
  0
LINE
  8
OUTLINE
  6
CONTINUOUS
 62
     3
 10
-238.5
 20
-68.0
 30
0.0
 11
-218.43430699999999
 21
-68.0
 31
0.0
  0
LINE
  8
OUTLINE
  6
CONTINUOUS
 62
     3
 10
-238.5
 20
-68.0
 30
0.0
 11
-238.5
 21
-99.0
 31
0.0
  0
LINE
  8
OUTLINE
  6
CONTINUOUS
 62
     3
 10
-251.5
 20
-68.0
 30
0.0
 11
-251.5
 21
-98.999999000000003
 31
0.0
  0
LINE
  8
OUTLINE
  6
CONTINUOUS
 62
     3
 10
-271.5
 20
-68.0
 30
0.0
 11
-271.5
 21
-130.5
 31
0.0
  0
LINE
  8
OUTLINE
  6
CONTINUOUS
 62
     3
 10
-271.5
 20
-68.0
 30
0.0
 11
-251.5
 21
-68.0
 31
0.0
  0
LINE
  8
OUTLINE
  6
CONTINUOUS
 62
     3
 10
271.5
 20
-68.0
 30
0.0
 11
251.5
 21
-68.0
 31
0.0
  0
LINE
  8
OUTLINE
  6
CONTINUOUS
 62
     3
 10
271.5
 20
-68.0
 30
0.0
 11
271.5
 21
-130.5
 31
0.0
  0
LINE
  8
OUTLINE
  6
CONTINUOUS
 62
     3
 10
251.5
 20
-68.0
 30
0.0
 11
251.5
 21
-98.999999000000003
 31
0.0
  0
LINE
  8
OUTLINE
  6
CONTINUOUS
 62
     3
 10
238.5
 20
-68.0
 30
0.0
 11
238.5
 21
-99.0
 31
0.0
  0
LINE
  8
OUTLINE
  6
CONTINUOUS
 62
     3
 10
238.5
 20
-68.0
 30
0.0
 11
218.434306932342
 21
-68.0
 31
0.0
  0
LINE
  8
OUTLINE
  6
CONTINUOUS
 62
     3
 10
184.21897824704021
 20
-130.5
 30
0.0
 11
271.5
 21
-130.5
 31
0.0
  0
ARC
  8
OUTLINE
  6
CONTINUOUS
 62
     3
 10
245.0
 20
-99.0
 30
0.0
 40
6.5
 50
180.0
 51
0.0
  0
ARC
  8
OUTLINE
  6
CONTINUOUS
 62
     3
 10
166.5
 20
17.093265999999971
 30
0.0
 40
70.0
 50
0.0
 51
28.698291999996538
  0
ARC
  8
OUTLINE
  6
CONTINUOUS
 62
     3
 10
166.5
 20
-17.093265999999971
 30
0.0
 40
70.0
 50
331.30170800000349
 51
0.0
  0
ARC
  8
OUTLINE
  6
CONTINUOUS
 62
     3
 10
-166.5
 20
17.093265999999971
 30
0.0
 40
70.0
 50
151.3017080000034
 51
180.0
  0
ARC
  8
OUTLINE
  6
CONTINUOUS
 62
     3
 10
-166.5
 20
-17.093265999999971
 30
0.0
 40
70.0
 50
180.0
 51
208.69829199999651
  0
ARC
  8
OUTLINE
  6
CONTINUOUS
 62
     3
 10
-166.5
 20
-17.093265999999971
 30
0.0
 40
70.0
 50
180.0
 51
208.69829199999651
  0
ARC
  8
OUTLINE
  6
CONTINUOUS
 62
     3
 10
-166.5
 20
17.093265999999971
 30
0.0
 40
70.0
 50
151.3017080000034
 51
180.0
  0
ARC
  8
OUTLINE
  6
CONTINUOUS
 62
     3
 10
166.5
 20
-17.093265999999971
 30
0.0
 40
70.0
 50
331.30170800000349
 51
0.0
  0
ARC
  8
OUTLINE
  6
CONTINUOUS
 62
     3
 10
166.5
 20
17.093265999999971
 30
0.0
 40
70.0
 50
0.0
 51
28.698291999996538
  0
LINE
  8
OUTLINE
  6
CONTINUOUS
 62
     3
 10
227.9012339999999
 20
-50.707080000000019
 30
0.0
 11
218.434306932342
 21
-68.0
 31
0.0
  0
LINE
  8
OUTLINE
  6
CONTINUOUS
 62
     3
 10
-227.9012339999999
 20
-50.707080000000019
 30
0.0
 11
-218.43430693234191
 21
-68.0
 31
0.0
  0
LINE
  8
OUTLINE
  6
CONTINUOUS
 62
     3
 10
227.9012339999999
 20
50.707080000000019
 30
0.0
 11
218.434306932342
 21
68.0
 31
0.0
  0
LINE
  8
OUTLINE
  6
CONTINUOUS
 62
     3
 10
-227.9012339999999
 20
50.707080000000019
 30
0.0
 11
-218.43430693234191
 21
68.0
 31
0.0
  0
LINE
  8
OUTLINE
  6
CONTINUOUS
 62
     3
 10
236.5
 20
2.5
 30
0.0
 11
236.5
 21
17.093265999999971
 31
0.0
  0
LINE
  8
OUTLINE
  6
CONTINUOUS
 62
     3
 10
-236.5
 20
2.5
 30
0.0
 11
-236.5
 21
17.093265999999971
 31
0.0
  0
LINE
  8
OUTLINE
  6
CONTINUOUS
 62
     3
 10
-236.5
 20
-17.093265999999971
 30
0.0
 11
-236.5
 21
-2.5
 31
0.0
  0
LINE
  8
OUTLINE
  6
CONTINUOUS
 62
     3
 10
236.5
 20
-17.093265999999971
 30
0.0
 11
236.5
 21
-2.5
 31
0.0
  0
LINE
  8
OUTLINE
  6
CONTINUOUS
 62
     3
 10
-271.5
 20
130.80000000000001
 30
0.0
 11
-251.5
 21
130.80000000000001
 31
0.0
  0
LINE
  8
OUTLINE
  6
CONTINUOUS
 62
     3
 10
-257.5
 20
2.5
 30
0.0
 11
-236.5
 21
2.5
 31
0.0
  0
LINE
  8
OUTLINE
  6
CONTINUOUS
 62
     3
 10
-257.5
 20
-2.5
 30
0.0
 11
-236.5
 21
-2.5000000000000142
 31
0.0
  0
LINE
  8
OUTLINE
  6
CONTINUOUS
 62
     3
 10
-257.5
 20
-2.5
 30
0.0
 11
-257.5
 21
2.5
 31
0.0
  0
LINE
  8
OUTLINE
  6
CONTINUOUS
 62
     3
 10
257.5
 20
-2.5
 30
0.0
 11
257.5
 21
2.5
 31
0.0
  0
LINE
  8
OUTLINE
  6
CONTINUOUS
 62
     3
 10
-257.5
 20
-2.5
 30
0.0
 11
-236.5
 21
-2.5000000000000142
 31
0.0
  0
LINE
  8
OUTLINE
  6
CONTINUOUS
 62
     3
 10
-257.5
 20
2.5
 30
0.0
 11
-236.5
 21
2.5
 31
0.0
  0
LINE
  8
OUTLINE
  6
CONTINUOUS
 62
     3
 10
-257.5
 20
-2.5
 30
0.0
 11
-257.5
 21
2.5
 31
0.0
  0
LINE
  8
OUTLINE
  6
CONTINUOUS
 62
     3
 10
257.5
 20
-2.5
 30
0.0
 11
257.5
 21
2.5
 31
0.0
  0
LINE
  8
OUTLINE
  6
CONTINUOUS
 62
     3
 10
236.5
 20
2.5
 30
0.0
 11
257.5
 21
2.5
 31
0.0
  0
LINE
  8
OUTLINE
  6
CONTINUOUS
 62
     3
 10
236.5
 20
-2.5000000000000142
 30
0.0
 11
257.5
 21
-2.5
 31
0.0
  0
LINE
  8
OUTLINE
  6
CONTINUOUS
 62
     3
 10
236.5
 20
-2.5000000000000142
 30
0.0
 11
257.5
 21
-2.5
 31
0.0
  0
LINE
  8
OUTLINE
  6
CONTINUOUS
 62
     3
 10
236.5
 20
2.5
 30
0.0
 11
257.5
 21
2.5
 31
0.0
  0
LINE
  8
OUTLINE
  6
CONTINUOUS
 62
     3
 10
-184.21897824704021
 20
130.5
 30
0.0
 11
-161.5
 21
169.0
 31
0.0
  0
LINE
  8
OUTLINE
  6
CONTINUOUS
 62
     3
 10
184.21897824704021
 20
130.5
 30
0.0
 11
161.5
 21
169.0
 31
0.0
  0
LINE
  8
OUTLINE
  6
CONTINUOUS
 62
     3
 10
184.21897824704021
 20
130.5
 30
0.0
 11
161.5
 21
169.0
 31
0.0
  0
LINE
  8
OUTLINE
  6
CONTINUOUS
 62
     3
 10
-184.21897824704021
 20
130.5
 30
0.0
 11
-161.5
 21
169.0
 31
0.0
  0
LINE
  8
OUTLINE
  6
CONTINUOUS
 62
     3
 10
-184.21897824704021
 20
-130.5
 30
0.0
 11
-161.5
 21
-169.0
 31
0.0
  0
LINE
  8
OUTLINE
  6
CONTINUOUS
 62
     3
 10
184.21897824704021
 20
-130.5
 30
0.0
 11
161.5
 21
-169.0
 31
0.0
  0
LINE
  8
OUTLINE
  6
CONTINUOUS
 62
     3
 10
184.21897824704021
 20
-130.5
 30
0.0
 11
161.5
 21
-169.0
 31
0.0
  0
LINE
  8
OUTLINE
  6
CONTINUOUS
 62
     3
 10
-184.21897824704021
 20
-130.5
 30
0.0
 11
-161.5
 21
-169.0
 31
0.0
  0
LINE
  8
SIZE
  6
CONTINUOUS
 62
    30
 10
-181.5
 20
217.0
 30
0.0
 11
-490.67572045917638
 21
217.00000000000011
 31
0.0
  0
LINE
  8
SIZE
  6
CONTINUOUS
 62
    30
 10
-181.5
 20
-217.0
 30
0.0
 11
-490.67572045917649
 21
-216.99999999999989
 31
0.0
  0
LINE
  8
SIZE
  6
CONTINUOUS
 62
    30
 10
-470.67572045917638
 20
205.00000000000011
 30
0.0
 11
-470.67572045917649
 21
-204.99999999999989
 31
0.0
  0
CIRCLE
  8
SIZE
  6
CONTINUOUS
 62
    30
 10
-470.67572045917638
 20
217.00000000000011
 30
0.0
 40
6.0
  0
LINE
  8
SIZE
  6
CONTINUOUS
 62
    30
 10
-470.67572045917638
 20
217.00000000000011
 30
0.0
 11
-470.67572045917638
 21
205.00000000000011
 31
0.0
  0
CIRCLE
  8
SIZE
  6
CONTINUOUS
 62
    30
 10
-470.67572045917649
 20
-216.99999999999989
 30
0.0
 40
6.0
  0
LINE
  8
SIZE
  6
CONTINUOUS
 62
    30
 10
-470.67572045917649
 20
-216.99999999999989
 30
0.0
 11
-470.67572045917649
 21
-204.99999999999989
 31
0.0
  0
TEXT
  8
SIZE
  6
CONTINUOUS
 62
    30
 10
-495.67572045917655
 20
-81.503999999999976
 30
0.0
 40
64.0
  1
434
 50
90.0
 41
0.9
 51
0.0
  7
STANDARD
 71
     0
 72
     1
 11
-495.67572045917655
 21
0.0000000000000338
 31
0.0
210
0.0
220
0.0
230
1.0
  0
POINT
  8
DEFPOINTS
  6
CONTINUOUS
 62
    30
 10
-161.5
 20
217.0
 30
0.0
  0
POINT
  8
DEFPOINTS
  6
CONTINUOUS
 62
    30
 10
-161.5
 20
-217.0
 30
0.0
  0
POINT
  8
DEFPOINTS
  6
CONTINUOUS
 62
    30
 10
-470.67572045917649
 20
-216.99999999999989
 30
0.0
  0
TEXT
  8
NOTE
  6
CONTINUOUS
 62
     4
 10
-99.655074654541522
 20
263.89769324357673
 30
0.0
 40
64.0
  1
吸込口
 41
0.9
  0
TEXT
  8
NOTE
  6
CONTINUOUS
 62
     4
 10
-95.070337282455966
 20
-332.15595697114071
 30
0.0
 40
64.0
  1
吹出口
 41
0.9
  0
LINE
  8
SIZE
  6
CONTINUOUS
 62
    30
 10
251.5
 20
118.999999
 30
0.0
 11
251.5
 21
394.88134839817479
 31
0.0
  0
LINE
  8
SIZE
  6
CONTINUOUS
 62
    30
 10
238.5
 20
119.0
 30
0.0
 11
238.5
 21
394.88134839817479
 31
0.0
  0
LINE
  8
SIZE
  6
CONTINUOUS
 62
    30
 10
226.5
 20
374.88134839817479
 30
0.0
 11
214.5
 21
374.88134839817479
 31
0.0
  0
LINE
  8
SIZE
  6
CONTINUOUS
 62
    30
 10
263.5
 20
374.88134839817479
 30
0.0
 11
407.78571428571439
 21
374.88134839817479
 31
0.0
  0
LINE
  8
SIZE
  6
CONTINUOUS
 62
    30
 10
238.5
 20
374.88134839817479
 30
0.0
 11
251.5
 21
374.88134839817479
 31
0.0
  0
CIRCLE
  8
SIZE
  6
CONTINUOUS
 62
    30
 10
238.5
 20
374.88134839817479
 30
0.0
 40
6.0
  0
LINE
  8
SIZE
  6
CONTINUOUS
 62
    30
 10
238.5
 20
374.88134839817479
 30
0.0
 11
226.5
 21
374.88134839817479
 31
0.0
  0
CIRCLE
  8
SIZE
  6
CONTINUOUS
 62
    30
 10
251.5
 20
374.88134839817479
 30
0.0
 40
6.0
  0
LINE
  8
SIZE
  6
CONTINUOUS
 62
    30
 10
251.5
 20
374.88134839817479
 30
0.0
 11
263.5
 21
374.88134839817479
 31
0.0
  0
TEXT
  8
SIZE
  6
CONTINUOUS
 62
    30
 10
293.83485714285723
 20
399.88134839817479
 30
0.0
 40
64.0
  1
13
 50
0.0
 41
0.9
 51
0.0
  7
STANDARD
 71
     0
 72
     1
 11
341.64285714285722
 21
399.88134839817479
 31
0.0
210
0.0
220
0.0
230
1.0
  0
POINT
  8
DEFPOINTS
  6
CONTINUOUS
 62
    30
 10
251.5
 20
98.999999000000003
 30
0.0
  0
POINT
  8
DEFPOINTS
  6
CONTINUOUS
 62
    30
 10
238.5
 20
99.0
 30
0.0
  0
POINT
  8
DEFPOINTS
  6
CONTINUOUS
 62
    30
 10
238.5
 20
374.88134839817479
 30
0.0
  0
ENDSEC
  0
EOF
