  0
SECTION
  2
HEADER
  9
$ACADVER
  1
AC1009
  9
$DWGCODEPAGE
  3
dos932
  9
$INSBASE
 10
0.0
 20
0.0
 30
0.0
  9
$EXTMIN
 10
-1012.417586429998
 20
-856.20116064814101
 30
-0.0000000000000058
  9
$EXTMAX
 10
1362.7304196738751
 20
479.69055965041122
 30
0.0000000000000104
  9
$LIMMIN
 10
-2970.0
 20
-2100.0
  9
$LIMMAX
 10
2970.0
 20
2100.0
  9
$ORTHOMODE
 70
     1
  9
$REGENMODE
 70
     1
  9
$FILLMODE
 70
     1
  9
$QTEXTMODE
 70
     0
  9
$MIRRTEXT
 70
     0
  9
$LTSCALE
 40
20.0
  9
$ATTMODE
 70
     1
  9
$TEXTSIZE
 40
64.0
  9
$TRACEWID
 40
0.05
  9
$TEXTSTYLE
  7
STANDARD
  9
$CLAYER
  8
SIZE
  9
$CELTYPE
  6
CONTINUOUS
  9
$CECOLOR
 62
     7
  9
$DIMSCALE
 40
1.0
  9
$DIMASZ
 40
12.0
  9
$DIMEXO
 40
20.0
  9
$DIMDLI
 40
200.0
  9
$DIMRND
 40
0.0
  9
$DIMDLE
 40
0.0
  9
$DIMEXE
 40
20.0
  9
$DIMTP
 40
0.0
  9
$DIMTM
 40
0.0
  9
$DIMTXT
 40
64.0
  9
$DIMCEN
 40
0.09
  9
$DIMTSZ
 40
0.0
  9
$DIMTOL
 70
     0
  9
$DIMLIM
 70
     0
  9
$DIMTIH
 70
     0
  9
$DIMTOH
 70
     0
  9
$DIMSE1
 70
     0
  9
$DIMSE2
 70
     0
  9
$DIMTAD
 70
     1
  9
$DIMZIN
 70
     8
  9
$DIMBLK
  1

  9
$DIMASO
 70
     1
  9
$DIMSHO
 70
     0
  9
$DIMPOST
  1

  9
$DIMAPOST
  1

  9
$DIMALT
 70
     0
  9
$DIMALTD
 70
     2
  9
$DIMALTF
 40
25.399999999999999
  9
$DIMLFAC
 40
1.0
  9
$DIMTOFL
 70
     1
  9
$DIMTVP
 40
0.0
  9
$DIMTIX
 70
     1
  9
$DIMSOXD
 70
     0
  9
$DIMSAH
 70
     0
  9
$DIMBLK1
  1

  9
$DIMBLK2
  1

  9
$DIMSTYLE
  2
STANDARD
  9
$DIMCLRD
 70
     7
  9
$DIMCLRE
 70
     7
  9
$DIMCLRT
 70
     7
  9
$DIMTFAC
 40
1.0
  9
$DIMGAP
 40
25.0
  9
$LUNITS
 70
     2
  9
$LUPREC
 70
     4
  9
$SKETCHINC
 40
0.1
  9
$FILLETRAD
 40
3.0
  9
$AUNITS
 70
     1
  9
$AUPREC
 70
     3
  9
$MENU
  1
ACAD
  9
$ELEVATION
 40
0.0
  9
$PELEVATION
 40
0.0
  9
$THICKNESS
 40
50.0
  9
$LIMCHECK
 70
     0
  9
$CHAMFERA
 40
0.0
  9
$CHAMFERB
 40
0.0
  9
$SKPOLY
 70
     0
  9
$TDCREATE
 40
2453019.62301037
  9
$TDUPDATE
 40
2458926.757075475
  9
$TDINDWG
 40
1.7321590046
  9
$TDUSRTIMER
 40
1.7321590046
  9
$USRTIMER
 70
     1
  9
$ANGBASE
 50
0.0
  9
$ANGDIR
 70
     0
  9
$PDMODE
 70
     3
  9
$PDSIZE
 40
-2.0
  9
$PLINEWID
 40
0.0
  9
$SPLFRAME
 70
     0
  9
$SPLINETYPE
 70
     6
  9
$SPLINESEGS
 70
     8
  9
$SURFTAB1
 70
     6
  9
$SURFTAB2
 70
     6
  9
$SURFTYPE
 70
     6
  9
$SURFU
 70
     6
  9
$SURFV
 70
     6
  9
$UCSNAME
  2

  9
$UCSORG
 10
0.0
 20
0.0
 30
0.0
  9
$UCSXDIR
 10
1.0
 20
0.0
 30
0.0
  9
$UCSYDIR
 10
0.0
 20
1.0
 30
0.0
  9
$PUCSNAME
  2

  9
$PUCSORG
 10
0.0
 20
0.0
 30
0.0
  9
$PUCSXDIR
 10
1.0
 20
0.0
 30
0.0
  9
$PUCSYDIR
 10
0.0
 20
1.0
 30
0.0
  9
$USERI1
 70
     0
  9
$USERI2
 70
     0
  9
$USERI3
 70
     0
  9
$USERI4
 70
     0
  9
$USERI5
 70
     0
  9
$USERR1
 40
20.0
  9
$USERR2
 40
0.0
  9
$USERR3
 40
0.0
  9
$USERR4
 40
0.0
  9
$USERR5
 40
0.0
  9
$WORLDVIEW
 70
     1
  9
$SHADEDGE
 70
     3
  9
$SHADEDIF
 70
    70
  9
$TILEMODE
 70
     1
  9
$MAXACTVP
 70
    48
  9
$PINSBASE
 10
0.0
 20
0.0
 30
0.0
  9
$PLIMCHECK
 70
     0
  9
$PEXTMIN
 10
-100000000000000000000.0
 20
-100000000000000000000.0
 30
-100000000000000000000.0
  9
$PEXTMAX
 10
100000000000000000000.0
 20
100000000000000000000.0
 30
100000000000000000000.0
  9
$PLIMMIN
 10
0.0
 20
0.0
  9
$PLIMMAX
 10
12.0
 20
9.0
  9
$UNITMODE
 70
     0
  9
$VISRETAIN
 70
     0
  9
$PLINEGEN
 70
     0
  9
$PSLTSCALE
 70
     0
  9
$TREEDEPTH
 70
  3020
  9
$ATTDIA
 70
     0
  9
$ATTREQ
 70
     1
  9
$BLIPMODE
 70
     1
  9
$COORDS
 70
     1
  9
$DRAGMODE
 70
     2
  9
$OSMODE
 70
     0
  9
$HANDLING
 70
     0
  9
$HANDSEED
  5
F1ED
  0
ENDSEC
  0
SECTION
  2
TABLES
  0
TABLE
  2
LTYPE
 70
     2
  0
LTYPE
  2
CONTINUOUS
 70
     0
  3
実線
 72
    65
 73
     0
 40
0.0
  0
LTYPE
  2
DASHDOT
 70
     0
  3
____ _ ____ _ ____ _ ____ _ ____ _ ____ _ ____
 72
    65
 73
     4
 40
5.5
 49
4.0
 49
-0.6
 49
0.3
 49
-0.6
  0
ENDTAB
  0
TABLE
  2
LAYER
 70
    12
  0
LAYER
  2
0
 70
     0
 62
     7
  6
CONTINUOUS
  0
LAYER
  2
BASIS
 70
     0
 62
     6
  6
DASHDOT
  0
LAYER
  2
OUTLINE
 70
     0
 62
     3
  6
CONTINUOUS
  0
LAYER
  2
DETAIL
 70
     0
 62
     5
  6
CONTINUOUS
  0
LAYER
  2
SIZE
 70
     0
 62
    30
  6
CONTINUOUS
  0
LAYER
  2
ARRANGE
 70
     0
 62
     1
  6
CONTINUOUS
  0
LAYER
  2
DEFPOINTS
 70
     0
 62
     7
  6
CONTINUOUS
  0
LAYER
  2
ETC
 70
     0
 62
    61
  6
CONTINUOUS
  0
LAYER
  2
FIX
 70
     0
 62
    11
  6
CONTINUOUS
  0
LAYER
  2
NOTE
 70
     0
 62
     4
  6
CONTINUOUS
  0
LAYER
  2
SERVICESPACE
 70
    64
 62
     2
  6
DASHDOT
  0
LAYER
  2
SYMBOLLINE
 70
    64
 62
    15
  6
CONTINUOUS
  0
ENDTAB
  0
TABLE
  2
STYLE
 70
     1
  0
STYLE
  2
STANDARD
 70
     0
 40
64.0
 41
0.9
 50
0.0
 71
     0
 42
64.0
  3
SIMPLEX.shx
  4
BIGFONT.shx
  0
ENDTAB
  0
TABLE
  2
APPID
 70
    16
  0
APPID
  2
ACAD
 70
     0
  0
APPID
  2
AUTOCAD_POSTSCRIPT_FIGURE
 70
     0
  0
APPID
  2
ACAD_EXEMPT_FROM_CAD_STANDARDS
 70
     0
  0
APPID
  2
ACAD_PSEXT
 70
     0
  0
APPID
  2
ACAUTHENVIRON
 70
     0
  0
APPID
  2
GENIUS_GENOENT_13
 70
     0
  0
APPID
  2
GENIUS_GENCFG_13
 70
     0
  0
APPID
  2
GENIUS_GENCFG0_13
 70
     0
  0
APPID
  2
GENIUS_GENCFG1_13
 70
     0
  0
APPID
  2
GENIUS_GENCFG2_13
 70
     0
  0
APPID
  2
GENIUS_GENCFG3_13
 70
     0
  0
APPID
  2
GENIUS_GENCFG4_13
 70
     0
  0
APPID
  2
GENIUS_GEVCFG0_13
 70
     0
  0
APPID
  2
CONTENTBLOCKICON
 70
     0
  0
APPID
  2
CONTENTBLOCKDESCRIPTION
 70
     0
  0
APPID
  2
ACAD_NAV_VCDISPLAY
 70
     0
  0
ENDTAB
  0
TABLE
  2
DIMSTYLE
 70
     1
  0
DIMSTYLE
  2
STANDARD
 70
     0
  3

  4

  5
_ORIGIN
  6

  7

 40
1.0
 41
12.0
 42
20.0
 43
200.0
 44
20.0
 45
0.0
 46
0.0
 47
0.0
 48
0.0
140
64.0
141
0.09
142
0.0
143
25.399999999999999
144
1.0
145
0.0
146
1.0
147
25.0
 71
     0
 72
     0
 73
     0
 74
     0
 75
     0
 76
     0
 77
     1
 78
     8
170
     0
171
     2
172
     1
173
     0
174
     1
175
     0
176
     7
177
     7
178
     7
  0
ENDTAB
  0
TABLE
  2
VIEW
 70
     1
  0
VIEW
  2
ALL
 70
     0
 40
4282.6198079999986
 10
0.0
 20
41.309904000000003
 41
5940.0
 11
0.0
 21
0.0
 31
1.0
 12
0.0
 22
0.0
 32
0.0
 42
50.0
 43
0.0
 44
0.0
 50
0.0
 71
     0
  0
ENDTAB
  0
TABLE
  2
UCS
 70
     0
  0
ENDTAB
  0
TABLE
  2
VPORT
 70
     1
  0
VPORT
  2
*ACTIVE
 70
     0
 10
0.0
 20
0.0
 11
1.0
 21
1.0
 12
175.15641662193869
 22
-188.2553004988649
 13
0.0
 23
0.0
 14
1.0
 24
1.0
 15
0.0
 25
0.0
 16
0.0
 26
0.0
 36
1.0
 17
0.0
 27
0.0
 37
0.0
 40
1345.4565774844609
 41
1.7980884109916371
 42
50.0
 43
0.0
 44
0.0
 50
0.0
 51
0.0
 71
     0
 72
  1000
 73
     1
 74
     3
 75
     0
 76
     0
 77
     0
 78
     0
  0
ENDTAB
  0
ENDSEC
  0
SECTION
  2
BLOCKS
  0
BLOCK
  8
0
  2
_ORIGIN
 70
     0
 10
0.0
 20
0.0
 30
0.0
  3
_ORIGIN
  1
_ORIGIN
  0
CIRCLE
  8
0
  6
CONTINUOUS
 62
     7
 10
0.0
 20
0.0
 30
0.0
 40
0.5
  0
LINE
  8
0
  6
CONTINUOUS
 62
     7
 10
0.0
 20
0.0
 30
0.0
 11
-1.0
 21
0.0
 31
0.0
  0
ENDBLK
  8
0
  0
ENDSEC
  0
SECTION
  2
ENTITIES
  0
LINE
  8
BASIS
  6
DASHDOT
 62
     6
 10
252.54924000000011
 20
-257.5
 30
0.0
 11
-242.8073939999999
 21
-257.5
 31
0.0
  0
LINE
  8
BASIS
  6
DASHDOT
 62
     6
 10
0.0
 20
-546.00919499999998
 30
0.0
 11
0.0
 21
33.910934999999988
 31
0.0
  0
LINE
  8
DETAIL
  6
CONTINUOUS
 62
     5
 10
169.0
 20
-419.0
 30
0.0
 11
169.0
 21
-96.0
 31
0.0
  0
LINE
  8
DETAIL
  6
CONTINUOUS
 62
     5
 10
-169.0
 20
-419.0
 30
0.0
 11
-169.0
 21
-96.0
 31
0.0
  0
LINE
  8
DETAIL
  6
CONTINUOUS
 62
     5
 10
217.0
 20
-419.0
 30
0.0
 11
169.0
 21
-419.0
 31
0.0
  0
LINE
  8
DETAIL
  6
CONTINUOUS
 62
     5
 10
217.0
 20
-96.0
 30
0.0
 11
169.0
 21
-96.0
 31
0.0
  0
LINE
  8
DETAIL
  6
CONTINUOUS
 62
     5
 10
17.093265999999861
 20
-21.0
 30
0.0
 11
2.5
 21
-21.0
 31
0.0
  0
LINE
  8
DETAIL
  6
CONTINUOUS
 62
     5
 10
17.093265999999861
 20
-494.0
 30
0.0
 11
2.5
 21
-494.0
 31
0.0
  0
LINE
  8
DETAIL
  6
CONTINUOUS
 62
     5
 10
-169.0
 20
-419.0
 30
0.0
 11
-217.0
 21
-419.0
 31
0.0
  0
LINE
  8
DETAIL
  6
CONTINUOUS
 62
     5
 10
-169.0
 20
-96.0
 30
0.0
 11
-217.0
 21
-96.0
 31
0.0
  0
LINE
  8
DETAIL
  6
CONTINUOUS
 62
     5
 10
-2.5
 20
-494.0
 30
0.0
 11
-17.093265999999861
 21
-494.0
 31
0.0
  0
LINE
  8
DETAIL
  6
CONTINUOUS
 62
     5
 10
-2.5
 20
-21.0
 30
0.0
 11
-17.093265999999861
 21
-21.0
 31
0.0
  0
LINE
  8
DETAIL
  6
CONTINUOUS
 62
     5
 10
-217.0
 20
-419.0
 30
0.0
 11
-217.0
 21
-96.0
 31
0.0
  0
LINE
  8
DETAIL
  6
CONTINUOUS
 62
     5
 10
217.0
 20
-419.0
 30
0.0
 11
217.0
 21
-96.0
 31
0.0
  0
LINE
  8
DETAIL
  6
CONTINUOUS
 62
     5
 10
35.0
 20
-491.67088600000011
 30
0.0
 11
35.0
 21
-23.329114000000001
 31
0.0
  0
LINE
  8
DETAIL
  6
CONTINUOUS
 62
     5
 10
-35.0
 20
-491.67088600000011
 30
0.0
 11
-35.0
 21
-23.329114000000001
 31
0.0
  0
LINE
  8
DETAIL
  6
CONTINUOUS
 62
     5
 10
-50.707080000000133
 20
-485.40123399999987
 30
0.0
 11
-169.0
 21
-419.0
 31
0.0
  0
LINE
  8
DETAIL
  6
CONTINUOUS
 62
     5
 10
-50.707080000000133
 20
-29.598765999999959
 30
0.0
 11
-169.0
 21
-96.0
 31
0.0
  0
LINE
  8
DETAIL
  6
CONTINUOUS
 62
     5
 10
50.707080000000133
 20
-485.40123399999987
 30
0.0
 11
169.0
 21
-419.0
 31
0.0
  0
LINE
  8
DETAIL
  6
CONTINUOUS
 62
     5
 10
50.707080000000133
 20
-29.598765999999959
 30
0.0
 11
169.0
 21
-96.0
 31
0.0
  0
ARC
  8
DETAIL
  6
CONTINUOUS
 62
     5
 10
-17.093265999999861
 20
-91.0
 30
0.0
 40
70.0
 50
90.0
 51
118.69829200000081
  0
ARC
  8
DETAIL
  6
CONTINUOUS
 62
     5
 10
17.093265999999861
 20
-91.0
 30
0.0
 40
70.0
 50
61.301707999999181
 51
90.0
  0
ARC
  8
DETAIL
  6
CONTINUOUS
 62
     5
 10
-17.093265999999861
 20
-424.0
 30
0.0
 40
70.0
 50
241.30170799999919
 51
270.0
  0
ARC
  8
DETAIL
  6
CONTINUOUS
 62
     5
 10
17.093265999999861
 20
-424.0
 30
0.0
 40
70.0
 50
270.0
 51
298.69829200000078
  0
POINT
  8
ARRANGE
  6
CONTINUOUS
 62
     1
 10
0.0
 20
0.0
 30
0.0
  0
CIRCLE
  8
ARRANGE
  6
CONTINUOUS
 62
     1
 10
0.0
 20
0.0
 30
0.0
 40
40.0
  0
LINE
  8
DETAIL
  6
CONTINUOUS
 62
     5
 10
1.5
 20
-515.0
 30
0.0
 11
1.5
 21
0.0
 31
0.0
  0
LINE
  8
DETAIL
  6
CONTINUOUS
 62
     5
 10
-1.5
 20
-515.0
 30
0.0
 11
-1.5
 21
0.0
 31
0.0
  0
LINE
  8
DETAIL
  6
CONTINUOUS
 62
     5
 10
-2.5
 20
-515.0
 30
0.0
 11
-2.5
 21
0.0
 31
0.0
  0
LINE
  8
DETAIL
  6
CONTINUOUS
 62
     5
 10
2.5
 20
-515.0
 30
0.0
 11
2.5
 21
0.0
 31
0.0
  0
LINE
  8
DETAIL
  6
CONTINUOUS
 62
     5
 10
2.5
 20
-515.0
 30
0.0
 11
-2.5
 21
-515.0
 31
0.0
  0
LINE
  8
DETAIL
  6
CONTINUOUS
 62
     5
 10
2.5
 20
0.0
 30
0.0
 11
-2.5
 21
0.0
 31
0.0
  0
LINE
  8
SIZE
  6
CONTINUOUS
 62
    30
 10
237.0
 20
-96.0
 30
0.0
 11
614.76907505979534
 21
-96.0
 31
0.0
  0
LINE
  8
SIZE
  6
CONTINUOUS
 62
    30
 10
237.0
 20
-419.0
 30
0.0
 11
614.76907505979534
 21
-419.0
 31
0.0
  0
LINE
  8
SIZE
  6
CONTINUOUS
 62
    30
 10
594.76907505979557
 20
-108.0
 30
0.0
 11
594.76907505979557
 21
-407.0
 31
0.0
  0
CIRCLE
  8
SIZE
  6
CONTINUOUS
 62
    30
 10
594.76907505979557
 20
-96.0
 30
0.0
 40
6.0
  0
LINE
  8
SIZE
  6
CONTINUOUS
 62
    30
 10
594.76907505979557
 20
-96.0
 30
0.0
 11
594.76907505979557
 21
-108.0
 31
0.0
  0
CIRCLE
  8
SIZE
  6
CONTINUOUS
 62
    30
 10
594.76907505979557
 20
-419.0
 30
0.0
 40
6.0
  0
LINE
  8
SIZE
  6
CONTINUOUS
 62
    30
 10
594.76907505979557
 20
-419.0
 30
0.0
 11
594.76907505979557
 21
-407.0
 31
0.0
  0
TEXT
  8
SIZE
  6
CONTINUOUS
 62
    30
 10
569.76907505979557
 20
-361.7285714285714
 30
0.0
 40
64.0
  1
φ323
 50
90.0
 41
0.9
 72
     1
 11
569.76907505979557
 21
-257.5
 31
0.0
  0
POINT
  8
DEFPOINTS
  6
CONTINUOUS
 62
    30
 10
594.76907505979557
 20
-419.0
 30
0.0
  0
LINE
  8
SIZE
  6
CONTINUOUS
 62
    30
 10
22.5
 20
0.0
 30
0.0
 11
740.37080605979554
 21
0.0
 31
0.0
  0
LINE
  8
SIZE
  6
CONTINUOUS
 62
    30
 10
22.5
 20
-515.0
 30
0.0
 11
740.37080605979554
 21
-515.0
 31
0.0
  0
LINE
  8
SIZE
  6
CONTINUOUS
 62
    30
 10
720.37080605979554
 20
-12.0
 30
0.0
 11
720.37080605979554
 21
-503.0
 31
0.0
  0
CIRCLE
  8
SIZE
  6
CONTINUOUS
 62
    30
 10
720.37080605979554
 20
0.0
 30
0.0
 40
6.0
  0
LINE
  8
SIZE
  6
CONTINUOUS
 62
    30
 10
720.37080605979554
 20
0.0
 30
0.0
 11
720.37080605979554
 21
-12.0
 31
0.0
  0
CIRCLE
  8
SIZE
  6
CONTINUOUS
 62
    30
 10
720.37080605979554
 20
-515.0
 30
0.0
 40
6.0
  0
LINE
  8
SIZE
  6
CONTINUOUS
 62
    30
 10
720.37080605979554
 20
-515.0
 30
0.0
 11
720.37080605979554
 21
-503.0
 31
0.0
  0
TEXT
  8
SIZE
  6
CONTINUOUS
 62
    30
 10
695.37080605979554
 20
-356.24285714285708
 30
0.0
 40
64.0
  1
φ515
 50
90.0
 41
0.9
 72
     1
 11
695.37080605979554
 21
-257.5
 31
0.0
  0
POINT
  8
DEFPOINTS
  6
CONTINUOUS
 62
    30
 10
720.37080605979554
 20
-515.0
 30
0.0
  0
LINE
  8
SIZE
  6
CONTINUOUS
 62
    30
 10
-237.0
 20
-96.0
 30
0.0
 11
-541.36454761545929
 21
-96.0
 31
0.0
  0
LINE
  8
SIZE
  6
CONTINUOUS
 62
    30
 10
-237.0
 20
-419.0
 30
0.0
 11
-541.36454761545929
 21
-419.0
 31
0.0
  0
LINE
  8
SIZE
  6
CONTINUOUS
 62
    30
 10
-521.36454761545929
 20
-108.0
 30
0.0
 11
-521.36454761545929
 21
-407.0
 31
0.0
  0
CIRCLE
  8
SIZE
  6
CONTINUOUS
 62
    30
 10
-521.36454761545929
 20
-96.0
 30
0.0
 40
6.0
  0
LINE
  8
SIZE
  6
CONTINUOUS
 62
    30
 10
-521.36454761545929
 20
-96.0
 30
0.0
 11
-521.36454761545929
 21
-108.0
 31
0.0
  0
CIRCLE
  8
SIZE
  6
CONTINUOUS
 62
    30
 10
-521.36454761545929
 20
-419.0
 30
0.0
 40
6.0
  0
LINE
  8
SIZE
  6
CONTINUOUS
 62
    30
 10
-521.36454761545929
 20
-419.0
 30
0.0
 11
-521.36454761545929
 21
-407.0
 31
0.0
  0
TEXT
  8
SIZE
  6
CONTINUOUS
 62
    30
 10
-546.36454761545929
 20
-361.7285714285714
 30
0.0
 40
64.0
  1
φ323
 50
90.0
 41
0.9
 72
     1
 11
-546.36454761545929
 21
-257.5
 31
0.0
  0
LINE
  8
SIZE
  6
CONTINUOUS
 62
    30
 10
-217.0
 20
-439.0
 30
0.0
 11
-217.0
 21
-787.85479999999984
 31
0.0
  0
LINE
  8
SIZE
  6
CONTINUOUS
 62
    30
 10
-169.0
 20
-439.0
 30
0.0
 11
-169.0
 21
-787.85479999999984
 31
0.0
  0
LINE
  8
SIZE
  6
CONTINUOUS
 62
    30
 10
-229.0
 20
-767.85479999999984
 30
0.0
 11
-241.0
 21
-767.85479999999984
 31
0.0
  0
LINE
  8
SIZE
  6
CONTINUOUS
 62
    30
 10
-157.0
 20
-767.85479999999984
 30
0.0
 11
-145.0
 21
-767.85479999999984
 31
0.0
  0
LINE
  8
SIZE
  6
CONTINUOUS
 62
    30
 10
-400.92564399999992
 20
-767.85479999999984
 30
0.0
 11
-217.0
 21
-767.85479999999984
 31
0.0
  0
TEXT
  8
SIZE
  6
CONTINUOUS
 62
    30
 10
-375.9256434285715
 20
-742.85479999999984
 30
0.0
 40
64.0
  1
48
 41
0.9
 72
     1
 11
-329.29707200000013
 21
-742.85479999999984
 31
0.0
  0
LINE
  8
SIZE
  6
CONTINUOUS
 62
    30
 10
-217.0
 20
-767.85479999999984
 30
0.0
 11
-169.0
 21
-767.85479999999984
 31
0.0
  0
LINE
  8
SIZE
  6
CONTINUOUS
 62
    30
 10
-217.0
 20
-767.85479999999984
 30
0.0
 11
-169.0
 21
-767.85479999999984
 31
0.0
  0
CIRCLE
  8
SIZE
  6
CONTINUOUS
 62
    30
 10
-217.0
 20
-767.85479999999984
 30
0.0
 40
6.0
  0
LINE
  8
SIZE
  6
CONTINUOUS
 62
    30
 10
-217.0
 20
-767.85479999999984
 30
0.0
 11
-229.0
 21
-767.85479999999984
 31
0.0
  0
CIRCLE
  8
SIZE
  6
CONTINUOUS
 62
    30
 10
-169.0
 20
-767.85479999999984
 30
0.0
 40
6.0
  0
LINE
  8
SIZE
  6
CONTINUOUS
 62
    30
 10
-169.0
 20
-767.85479999999984
 30
0.0
 11
-157.0
 21
-767.85479999999984
 31
0.0
  0
POINT
  8
DEFPOINTS
  6
CONTINUOUS
 62
    30
 10
-169.0
 20
-767.85479999999984
 30
0.0
  0
LINE
  8
SIZE
  6
CONTINUOUS
 62
    30
 10
169.0
 20
-439.0
 30
0.0
 11
169.0
 21
-787.85479999999984
 31
0.0
  0
LINE
  8
SIZE
  6
CONTINUOUS
 62
    30
 10
217.0
 20
-439.0
 30
0.0
 11
217.0
 21
-787.85479999999984
 31
0.0
  0
LINE
  8
SIZE
  6
CONTINUOUS
 62
    30
 10
157.0
 20
-767.85479999999984
 30
0.0
 11
145.0
 21
-767.85479999999984
 31
0.0
  0
LINE
  8
SIZE
  6
CONTINUOUS
 62
    30
 10
229.0
 20
-767.85479999999984
 30
0.0
 11
241.0
 21
-767.85479999999984
 31
0.0
  0
LINE
  8
SIZE
  6
CONTINUOUS
 62
    30
 10
404.78742299999999
 20
-767.85479999999984
 30
0.0
 11
217.0
 21
-767.85479999999984
 31
0.0
  0
TEXT
  8
SIZE
  6
CONTINUOUS
 62
    30
 10
286.53028057142859
 20
-742.85479999999984
 30
0.0
 40
64.0
  1
48
 41
0.9
 72
     1
 11
333.15885200000002
 21
-742.85479999999984
 31
0.0
  0
LINE
  8
SIZE
  6
CONTINUOUS
 62
    30
 10
169.0
 20
-767.85479999999984
 30
0.0
 11
217.0
 21
-767.85479999999984
 31
0.0
  0
LINE
  8
SIZE
  6
CONTINUOUS
 62
    30
 10
169.0
 20
-767.85479999999984
 30
0.0
 11
217.0
 21
-767.85479999999984
 31
0.0
  0
CIRCLE
  8
SIZE
  6
CONTINUOUS
 62
    30
 10
169.0
 20
-767.85479999999984
 30
0.0
 40
6.0
  0
LINE
  8
SIZE
  6
CONTINUOUS
 62
    30
 10
169.0
 20
-767.85479999999984
 30
0.0
 11
157.0
 21
-767.85479999999984
 31
0.0
  0
CIRCLE
  8
SIZE
  6
CONTINUOUS
 62
    30
 10
217.0
 20
-767.85479999999984
 30
0.0
 40
6.0
  0
LINE
  8
SIZE
  6
CONTINUOUS
 62
    30
 10
217.0
 20
-767.85479999999984
 30
0.0
 11
229.0
 21
-767.85479999999984
 31
0.0
  0
POINT
  8
DEFPOINTS
  6
CONTINUOUS
 62
    30
 10
217.0
 20
-767.85479999999984
 30
0.0
  0
LINE
  8
NOTE
  6
CONTINUOUS
 62
     4
 10
-79.0
 20
-257.5
 30
0.0
 11
-119.0
 21
-257.5
 31
0.0
  0
LINE
  8
NOTE
  6
CONTINUOUS
 62
     4
 10
-99.0
 20
-277.5
 30
0.0
 11
-99.0
 21
-237.5
 31
0.0
  0
CIRCLE
  8
FIX
  6
CONTINUOUS
 62
    11
 10
-99.0
 20
-257.5
 30
0.0
 40
6.5
  0
LINE
  8
DETAIL
  6
CONTINUOUS
 62
     5
 10
-68.0
 20
-287.5
 30
0.0
 11
-68.0
 21
-250.0
 31
0.0
  0
LINE
  8
DETAIL
  6
CONTINUOUS
 62
     5
 10
-68.5
 20
-257.5
 30
0.0
 11
-68.5
 21
-250.0
 31
0.0
  0
LINE
  8
DETAIL
  6
CONTINUOUS
 62
     5
 10
-127.0
 20
-257.5
 30
0.0
 11
-68.5
 21
-257.5
 31
0.0
  0
LINE
  8
DETAIL
  6
CONTINUOUS
 62
     5
 10
-126.5
 20
-258.0
 30
0.0
 11
-68.5
 21
-258.0
 31
0.0
  0
LINE
  8
DETAIL
  6
CONTINUOUS
 62
     5
 10
-130.5
 20
-287.5
 30
0.0
 11
-130.5
 21
-261.0
 31
0.0
  0
LINE
  8
DETAIL
  6
CONTINUOUS
 62
     5
 10
-130.5
 20
-287.5
 30
0.0
 11
-130.0
 21
-287.5
 31
0.0
  0
LINE
  8
DETAIL
  6
CONTINUOUS
 62
     5
 10
-130.0
 20
-287.5
 30
0.0
 11
-130.0
 21
-261.5
 31
0.0
  0
ARC
  8
DETAIL
  6
CONTINUOUS
 62
     5
 10
-126.5
 20
-261.5
 30
0.0
 40
3.5
 50
90.0
 51
180.0
  0
ARC
  8
DETAIL
  6
CONTINUOUS
 62
     5
 10
-127.0
 20
-261.0
 30
0.0
 40
3.5
 50
90.0
 51
180.0
  0
LINE
  8
DETAIL
  6
CONTINUOUS
 62
     5
 10
-68.5
 20
-287.5
 30
0.0
 11
-68.5
 21
-258.0
 31
0.0
  0
LINE
  8
DETAIL
  6
CONTINUOUS
 62
     5
 10
-68.5
 20
-287.5
 30
0.0
 11
-68.0
 21
-287.5
 31
0.0
  0
LINE
  8
DETAIL
  6
CONTINUOUS
 62
     5
 10
-68.5
 20
-250.0
 30
0.0
 11
-68.0
 21
-250.0
 31
0.0
  0
LINE
  8
NOTE
  6
CONTINUOUS
 62
     4
 10
79.0
 20
-257.5
 30
0.0
 11
119.0
 21
-257.5
 31
0.0
  0
LINE
  8
NOTE
  6
CONTINUOUS
 62
     4
 10
99.0
 20
-277.5
 30
0.0
 11
99.0
 21
-237.5
 31
0.0
  0
LINE
  8
DETAIL
  6
CONTINUOUS
 62
     5
 10
126.5
 20
-258.0
 30
0.0
 11
68.5
 21
-258.0
 31
0.0
  0
LINE
  8
DETAIL
  6
CONTINUOUS
 62
     5
 10
127.0
 20
-257.5
 30
0.0
 11
68.5
 21
-257.5
 31
0.0
  0
LINE
  8
DETAIL
  6
CONTINUOUS
 62
     5
 10
68.5
 20
-257.5
 30
0.0
 11
68.5
 21
-250.0
 31
0.0
  0
LINE
  8
DETAIL
  6
CONTINUOUS
 62
     5
 10
68.0
 20
-287.5
 30
0.0
 11
68.0
 21
-250.0
 31
0.0
  0
LINE
  8
DETAIL
  6
CONTINUOUS
 62
     5
 10
68.5
 20
-287.5
 30
0.0
 11
68.0
 21
-287.5
 31
0.0
  0
LINE
  8
DETAIL
  6
CONTINUOUS
 62
     5
 10
68.5
 20
-287.5
 30
0.0
 11
68.5
 21
-258.0
 31
0.0
  0
LINE
  8
DETAIL
  6
CONTINUOUS
 62
     5
 10
68.5
 20
-250.0
 30
0.0
 11
68.0
 21
-250.0
 31
0.0
  0
CIRCLE
  8
FIX
  6
CONTINUOUS
 62
    11
 10
99.0
 20
-257.5
 30
0.0
 40
6.5
  0
ARC
  8
DETAIL
  6
CONTINUOUS
 62
     5
 10
127.0
 20
-261.0
 30
0.0
 40
3.5
 50
0.0
 51
90.0
  0
ARC
  8
DETAIL
  6
CONTINUOUS
 62
     5
 10
126.5
 20
-261.5
 30
0.0
 40
3.5
 50
0.0
 51
90.0
  0
LINE
  8
DETAIL
  6
CONTINUOUS
 62
     5
 10
130.0
 20
-287.5
 30
0.0
 11
130.0
 21
-261.5
 31
0.0
  0
LINE
  8
DETAIL
  6
CONTINUOUS
 62
     5
 10
130.5
 20
-287.5
 30
0.0
 11
130.0
 21
-287.5
 31
0.0
  0
LINE
  8
DETAIL
  6
CONTINUOUS
 62
     5
 10
130.5
 20
-287.5
 30
0.0
 11
130.5
 21
-261.0
 31
0.0
  0
LINE
  8
DETAIL
  6
CONTINUOUS
 62
     5
 10
-117.5
 20
-71.973782000000028
 30
0.0
 11
-117.5
 21
-150.1436249999999
 31
0.0
  0
LINE
  8
DETAIL
  6
CONTINUOUS
 62
     5
 10
-126.5
 20
-72.811157999999978
 30
0.0
 11
-126.5
 21
-150.1436249999999
 31
0.0
  0
LINE
  8
DETAIL
  6
CONTINUOUS
 62
     5
 10
-116.5
 20
-150.1436249999999
 30
0.0
 11
-116.5
 21
-161.3811519999999
 31
0.0
  0
LINE
  8
DETAIL
  6
CONTINUOUS
 62
     5
 10
-127.5
 20
-150.1436249999999
 30
0.0
 11
-127.5
 21
-161.3811519999999
 31
0.0
  0
CIRCLE
  8
DETAIL
  6
CONTINUOUS
 62
     5
 10
-110.847573
 20
-165.24286299999989
 30
0.0
 40
3.4499989999999991
  0
LINE
  8
DETAIL
  6
CONTINUOUS
 62
     5
 10
-111.87287499999999
 20
-164.21755699999991
 30
0.0
 11
-109.822271
 21
-166.26816899999989
 31
0.0
  0
LINE
  8
DETAIL
  6
CONTINUOUS
 62
     5
 10
-109.822267
 20
-164.21755999999999
 30
0.0
 11
-111.8728780000001
 21
-166.26816600000009
 31
0.0
  0
LINE
  8
DETAIL
  6
CONTINUOUS
 62
     5
 10
-115.1411659999999
 20
-161.3811519999999
 30
0.0
 11
-115.1411659999999
 21
-169.181152
 31
0.0
  0
LINE
  8
DETAIL
  6
CONTINUOUS
 62
     5
 10
-117.5
 20
-176.181152
 30
0.0
 11
-117.5
 21
-189.67944900000001
 31
0.0
  0
LINE
  8
DETAIL
  6
CONTINUOUS
 62
     5
 10
-116.5
 20
-169.181152
 30
0.0
 11
-116.5
 21
-176.181152
 31
0.0
  0
LINE
  8
DETAIL
  6
CONTINUOUS
 62
     5
 10
-107.1411659999999
 20
-161.3811519999999
 30
0.0
 11
-107.1411659999999
 21
-169.181152
 31
0.0
  0
LINE
  8
DETAIL
  6
CONTINUOUS
 62
     5
 10
-128.88210299999989
 20
-161.3811519999999
 30
0.0
 11
-128.88210299999989
 21
-169.181152
 31
0.0
  0
LINE
  8
DETAIL
  6
CONTINUOUS
 62
     5
 10
-126.5
 20
-176.181152
 30
0.0
 11
-126.5
 21
-189.67944900000001
 31
0.0
  0
LINE
  8
DETAIL
  6
CONTINUOUS
 62
     5
 10
-127.5
 20
-169.181152
 30
0.0
 11
-127.5
 21
-176.181152
 31
0.0
  0
LINE
  8
DETAIL
  6
CONTINUOUS
 62
     5
 10
-128.88210299999989
 20
-169.181152
 30
0.0
 11
-107.1411659999999
 21
-169.181152
 31
0.0
  0
LINE
  8
DETAIL
  6
CONTINUOUS
 62
     5
 10
-128.88210299999989
 20
-161.3811519999999
 30
0.0
 11
-107.1411659999999
 21
-161.3811519999999
 31
0.0
  0
LINE
  8
DETAIL
  6
CONTINUOUS
 62
     5
 10
-127.5
 20
-176.181152
 30
0.0
 11
-116.5
 21
-176.181152
 31
0.0
  0
LINE
  8
DETAIL
  6
CONTINUOUS
 62
     5
 10
-127.5
 20
-150.1436249999999
 30
0.0
 11
-116.5
 21
-150.1436249999999
 31
0.0
  0
ARC
  8
DETAIL
  6
CONTINUOUS
 62
     5
 10
-122.0
 20
-187.5
 30
0.0
 40
6.0
 50
138.59037799999919
 51
41.409622000000738
  0
ARC
  8
DETAIL
  6
CONTINUOUS
 62
     5
 10
-122.0
 20
-187.5
 30
0.0
 40
5.0
 50
154.15806699999601
 51
25.841933000004062
  0
LINE
  8
DETAIL
  6
CONTINUOUS
 62
     5
 10
-116.95186199999991
 20
-34.046055000000017
 30
0.0
 11
-117.71963099999989
 21
-36.71439799999996
 31
0.0
  0
LINE
  8
DETAIL
  6
CONTINUOUS
 62
     5
 10
-127.04813800000009
 20
-34.046055000000017
 30
0.0
 11
-126.28036900000011
 21
-36.71439799999996
 31
0.0
  0
LINE
  8
DETAIL
  6
CONTINUOUS
 62
     5
 10
-116.9988739999999
 20
-36.921784000000002
 30
0.0
 11
-119.45853099999999
 21
-45.470193999999992
 31
0.0
  0
LINE
  8
DETAIL
  6
CONTINUOUS
 62
     5
 10
-118.4403889999999
 20
-36.507013000000029
 30
0.0
 11
-121.019389
 21
-45.470193999999992
 31
0.0
  0
LINE
  8
DETAIL
  6
CONTINUOUS
 62
     5
 10
-117.5
 20
-65.114996000000019
 30
0.0
 11
-117.5
 21
-45.470193999999992
 31
0.0
  0
LINE
  8
DETAIL
  6
CONTINUOUS
 62
     5
 10
-116.9988739999999
 20
-36.921784000000002
 30
0.0
 11
-118.4403889999999
 21
-36.507013000000029
 31
0.0
  0
LINE
  8
DETAIL
  6
CONTINUOUS
 62
     5
 10
-127.0011260000001
 20
-36.921784000000002
 30
0.0
 11
-124.54146900000001
 21
-45.470193999999992
 31
0.0
  0
LINE
  8
DETAIL
  6
CONTINUOUS
 62
     5
 10
-125.5596110000001
 20
-36.507013000000029
 30
0.0
 11
-122.980611
 21
-45.470193999999992
 31
0.0
  0
LINE
  8
DETAIL
  6
CONTINUOUS
 62
     5
 10
-126.5
 20
-64.277618999999959
 30
0.0
 11
-126.5
 21
-45.470193999999992
 31
0.0
  0
LINE
  8
DETAIL
  6
CONTINUOUS
 62
     5
 10
-127.0011260000001
 20
-36.921784000000002
 30
0.0
 11
-125.5596110000001
 21
-36.507013000000029
 31
0.0
  0
LINE
  8
DETAIL
  6
CONTINUOUS
 62
     5
 10
-117.5
 20
-45.470193999999992
 30
0.0
 11
-126.5
 21
-45.470193999999992
 31
0.0
  0
LINE
  8
DETAIL
  6
CONTINUOUS
 62
     5
 10
-126.5
 20
-72.811157999999978
 30
0.0
 11
-126.051964
 21
-72.37778800000001
 31
0.0
  0
LINE
  8
DETAIL
  6
CONTINUOUS
 62
     5
 10
-126.051964
 20
-72.37778800000001
 30
0.0
 11
-125.451286
 21
-72.073249000000033
 31
0.0
  0
LINE
  8
DETAIL
  6
CONTINUOUS
 62
     5
 10
-125.451286
 20
-72.073249000000033
 30
0.0
 11
-125.451286
 21
-72.073249000000033
 31
0.0
  0
LINE
  8
DETAIL
  6
CONTINUOUS
 62
     5
 10
-125.451286
 20
-72.073249000000033
 30
0.0
 11
-124.6249170000001
 21
-71.99672099999998
 31
0.0
  0
LINE
  8
DETAIL
  6
CONTINUOUS
 62
     5
 10
-124.6249170000001
 20
-71.99672099999998
 30
0.0
 11
-123.81817099999989
 21
-72.128766000000041
 31
0.0
  0
LINE
  8
DETAIL
  6
CONTINUOUS
 62
     5
 10
-123.81817099999989
 20
-72.128766000000041
 30
0.0
 11
-123.81817099999989
 21
-72.128766000000041
 31
0.0
  0
LINE
  8
DETAIL
  6
CONTINUOUS
 62
     5
 10
-123.81817099999989
 20
-72.128766000000041
 30
0.0
 11
-123.24701300000019
 21
-72.389998999999989
 31
0.0
  0
LINE
  8
DETAIL
  6
CONTINUOUS
 62
     5
 10
-123.24701300000019
 20
-72.389998999999989
 30
0.0
 11
-122.69164499999989
 21
-72.579838999999993
 31
0.0
  0
LINE
  8
DETAIL
  6
CONTINUOUS
 62
     5
 10
-122.69164499999989
 20
-72.579838999999993
 30
0.0
 11
-122.69164499999989
 21
-72.579838999999993
 31
0.0
  0
LINE
  8
DETAIL
  6
CONTINUOUS
 62
     5
 10
-122.69164499999989
 20
-72.579838999999993
 30
0.0
 11
-121.923419
 21
-72.52717199999995
 31
0.0
  0
LINE
  8
DETAIL
  6
CONTINUOUS
 62
     5
 10
-121.923419
 20
-72.52717199999995
 30
0.0
 11
-121.114047
 21
-72.299941999999987
 31
0.0
  0
LINE
  8
DETAIL
  6
CONTINUOUS
 62
     5
 10
-121.114047
 20
-72.299941999999987
 30
0.0
 11
-121.114047
 21
-72.299941999999987
 31
0.0
  0
LINE
  8
DETAIL
  6
CONTINUOUS
 62
     5
 10
-121.114047
 20
-72.299941999999987
 30
0.0
 11
-120.44110999999999
 21
-72.027602000000002
 31
0.0
  0
LINE
  8
DETAIL
  6
CONTINUOUS
 62
     5
 10
-120.44110999999999
 20
-72.027602000000002
 30
0.0
 11
-119.7053109999999
 21
-71.846555999999964
 31
0.0
  0
LINE
  8
DETAIL
  6
CONTINUOUS
 62
     5
 10
-119.7053109999999
 20
-71.846555999999964
 30
0.0
 11
-119.7053109999999
 21
-71.846555999999964
 31
0.0
  0
LINE
  8
DETAIL
  6
CONTINUOUS
 62
     5
 10
-119.7053109999999
 20
-71.846555999999964
 30
0.0
 11
-118.6917509999998
 21
-71.852808999999979
 31
0.0
  0
LINE
  8
DETAIL
  6
CONTINUOUS
 62
     5
 10
-118.6917509999998
 20
-71.852808999999979
 30
0.0
 11
-117.5
 21
-71.973782000000028
 31
0.0
  0
LINE
  8
DETAIL
  6
CONTINUOUS
 62
     5
 10
-123.9551019999999
 20
-72.089844999999968
 30
0.0
 11
-123.460734
 21
-71.796396999999956
 31
0.0
  0
LINE
  8
DETAIL
  6
CONTINUOUS
 62
     5
 10
-123.460734
 20
-71.796396999999956
 30
0.0
 11
-122.860508
 21
-71.566659999999956
 31
0.0
  0
LINE
  8
DETAIL
  6
CONTINUOUS
 62
     5
 10
-122.860508
 20
-71.566659999999956
 30
0.0
 11
-122.860508
 21
-71.566659999999956
 31
0.0
  0
LINE
  8
DETAIL
  6
CONTINUOUS
 62
     5
 10
-122.860508
 20
-71.566659999999956
 30
0.0
 11
-121.791408
 21
-71.404330999999956
 31
0.0
  0
LINE
  8
DETAIL
  6
CONTINUOUS
 62
     5
 10
-121.791408
 20
-71.404330999999956
 30
0.0
 11
-120.66297399999981
 21
-71.45331299999998
 31
0.0
  0
LINE
  8
DETAIL
  6
CONTINUOUS
 62
     5
 10
-120.66297399999981
 20
-71.45331299999998
 30
0.0
 11
-120.66297399999981
 21
-71.45331299999998
 31
0.0
  0
LINE
  8
DETAIL
  6
CONTINUOUS
 62
     5
 10
-120.66297399999981
 20
-71.45331299999998
 30
0.0
 11
-119.98326999999991
 21
-71.606704000000036
 31
0.0
  0
LINE
  8
DETAIL
  6
CONTINUOUS
 62
     5
 10
-119.98326999999991
 20
-71.606704000000036
 30
0.0
 11
-119.36653200000001
 21
-71.82830100000001
 31
0.0
  0
LINE
  8
DETAIL
  6
CONTINUOUS
 62
     5
 10
-126.5
 20
-64.277618999999959
 30
0.0
 11
-125.69953099999999
 21
-63.99563599999999
 31
0.0
  0
LINE
  8
DETAIL
  6
CONTINUOUS
 62
     5
 10
-125.69953099999999
 20
-63.99563599999999
 30
0.0
 11
-124.8868660000001
 21
-63.889003000000002
 31
0.0
  0
LINE
  8
DETAIL
  6
CONTINUOUS
 62
     5
 10
-124.8868660000001
 20
-63.889003000000002
 30
0.0
 11
-124.8868660000001
 21
-63.889003000000002
 31
0.0
  0
LINE
  8
DETAIL
  6
CONTINUOUS
 62
     5
 10
-124.8868660000001
 20
-63.889003000000002
 30
0.0
 11
-124.05951
 21
-64.055450999999948
 31
0.0
  0
LINE
  8
DETAIL
  6
CONTINUOUS
 62
     5
 10
-124.05951
 20
-64.055450999999948
 30
0.0
 11
-123.25375099999999
 21
-64.282245999999986
 31
0.0
  0
LINE
  8
DETAIL
  6
CONTINUOUS
 62
     5
 10
-123.25375099999999
 20
-64.282245999999986
 30
0.0
 11
-123.25375099999999
 21
-64.282245999999986
 31
0.0
  0
LINE
  8
DETAIL
  6
CONTINUOUS
 62
     5
 10
-123.25375099999999
 20
-64.282245999999986
 30
0.0
 11
-122.50289500000009
 21
-64.366279999999961
 31
0.0
  0
LINE
  8
DETAIL
  6
CONTINUOUS
 62
     5
 10
-122.50289500000009
 20
-64.366279999999961
 30
0.0
 11
-121.78949900000001
 21
-64.453422000000046
 31
0.0
  0
LINE
  8
DETAIL
  6
CONTINUOUS
 62
     5
 10
-121.78949900000001
 20
-64.453422000000046
 30
0.0
 11
-121.78949900000001
 21
-64.453422000000046
 31
0.0
  0
LINE
  8
DETAIL
  6
CONTINUOUS
 62
     5
 10
-121.78949900000001
 20
-64.453422000000046
 30
0.0
 11
-121.09365100000009
 21
-64.707539999999995
 31
0.0
  0
LINE
  8
DETAIL
  6
CONTINUOUS
 62
     5
 10
-121.09365100000009
 20
-64.707539999999995
 30
0.0
 11
-120.43628099999999
 21
-65.015528000000018
 31
0.0
  0
LINE
  8
DETAIL
  6
CONTINUOUS
 62
     5
 10
-120.43628099999999
 20
-65.015528000000018
 30
0.0
 11
-120.43628099999999
 21
-65.015528000000018
 31
0.0
  0
LINE
  8
DETAIL
  6
CONTINUOUS
 62
     5
 10
-120.43628099999999
 20
-65.015528000000018
 30
0.0
 11
-119.5644580000001
 21
-65.294607000000042
 31
0.0
  0
LINE
  8
DETAIL
  6
CONTINUOUS
 62
     5
 10
-119.5644580000001
 20
-65.294607000000042
 30
0.0
 11
-118.8107089999999
 21
-65.355789999999956
 31
0.0
  0
LINE
  8
DETAIL
  6
CONTINUOUS
 62
     5
 10
-118.8107089999999
 20
-65.355789999999956
 30
0.0
 11
-118.1356759999999
 21
-65.271708999999987
 31
0.0
  0
LINE
  8
DETAIL
  6
CONTINUOUS
 62
     5
 10
-118.1356759999999
 20
-65.271708999999987
 30
0.0
 11
-117.5
 21
-65.114996000000019
 31
0.0
  0
LINE
  8
DETAIL
  6
CONTINUOUS
 62
     5
 10
-126.5
 20
-64.277618999999959
 30
0.0
 11
-125.8658460000001
 21
-64.823267999999985
 31
0.0
  0
LINE
  8
DETAIL
  6
CONTINUOUS
 62
     5
 10
-125.8658460000001
 20
-64.823267999999985
 30
0.0
 11
-125.4590819999999
 21
-65.056500000000028
 31
0.0
  0
LINE
  8
DETAIL
  6
CONTINUOUS
 62
     5
 10
-125.4590819999999
 20
-65.056500000000028
 30
0.0
 11
-124.94469599999999
 21
-65.242220999999972
 31
0.0
  0
LINE
  8
DETAIL
  6
CONTINUOUS
 62
     5
 10
-124.94469599999999
 20
-65.242220999999972
 30
0.0
 11
-124.94469599999999
 21
-65.242220999999972
 31
0.0
  0
LINE
  8
DETAIL
  6
CONTINUOUS
 62
     5
 10
-124.94469599999999
 20
-65.242220999999972
 30
0.0
 11
-124.3901620000001
 21
-65.353722999999945
 31
0.0
  0
LINE
  8
DETAIL
  6
CONTINUOUS
 62
     5
 10
-124.3901620000001
 20
-65.353722999999945
 30
0.0
 11
-123.7603410000002
 21
-65.411084999999957
 31
0.0
  0
LINE
  8
DETAIL
  6
CONTINUOUS
 62
     5
 10
-123.7603410000002
 20
-65.411084999999957
 30
0.0
 11
-123.7603410000002
 21
-65.411084999999957
 31
0.0
  0
LINE
  8
DETAIL
  6
CONTINUOUS
 62
     5
 10
-123.7603410000002
 20
-65.411084999999957
 30
0.0
 11
-123.0958559999999
 21
-65.410319999999956
 31
0.0
  0
LINE
  8
DETAIL
  6
CONTINUOUS
 62
     5
 10
-123.0958559999999
 20
-65.410319999999956
 30
0.0
 11
-122.464952
 21
-65.355567999999948
 31
0.0
  0
LINE
  8
DETAIL
  6
CONTINUOUS
 62
     5
 10
-122.464952
 20
-65.355567999999948
 30
0.0
 11
-122.464952
 21
-65.355567999999948
 31
0.0
  0
LINE
  8
DETAIL
  6
CONTINUOUS
 62
     5
 10
-122.464952
 20
-65.355567999999948
 30
0.0
 11
-121.54501500000011
 21
-65.138093000000026
 31
0.0
  0
LINE
  8
DETAIL
  6
CONTINUOUS
 62
     5
 10
-121.54501500000011
 20
-65.138093000000026
 30
0.0
 11
-120.8623659999998
 21
-64.816260000000057
 31
0.0
  0
LINE
  8
NOTE
  6
CONTINUOUS
 62
     4
 10
-122.0
 20
-207.5
 30
0.0
 11
-122.0
 21
-167.5
 31
0.0
  0
LINE
  8
NOTE
  6
CONTINUOUS
 62
     4
 10
-142.0
 20
-187.5
 30
0.0
 11
-102.0
 21
-187.5
 31
0.0
  0
TEXT
  8
NOTE
  6
CONTINUOUS
 62
     4
 10
-341.96434799999997
 20
-9.0732349999999542
 30
0.0
 40
64.0
  1
EL
 41
0.9
  0
LINE
  8
NOTE
  6
CONTINUOUS
 62
     4
 10
-248.59620199999989
 20
-30.68925200000001
 30
0.0
 11
-352.09727299999992
 21
-30.68925200000001
 31
0.0
  0
LINE
  8
NOTE
  6
CONTINUOUS
 62
     4
 10
-122.0
 20
-187.5
 30
0.0
 11
-248.59620199999989
 21
-30.68925200000001
 31
0.0
  0
LINE
  8
NOTE
  6
CONTINUOUS
 62
     4
 10
-153.79504099999991
 20
-163.22912600000001
 30
0.0
 11
-122.0
 21
-187.5
 31
0.0
  0
LINE
  8
NOTE
  6
CONTINUOUS
 62
     4
 10
-122.0
 20
-187.5
 30
0.0
 11
-137.39987599999989
 21
-150.5832849999999
 31
0.0
  0
LINE
  8
NOTE
  6
CONTINUOUS
 62
     4
 10
99.0
 20
-257.5
 30
0.0
 11
316.18836299999998
 21
58.345954000000013
 31
0.0
  0
LINE
  8
NOTE
  6
CONTINUOUS
 62
     4
 10
112.7254210000001
 20
-219.92856400000011
 30
0.0
 11
99.0
 21
-257.5
 31
0.0
  0
LINE
  8
NOTE
  6
CONTINUOUS
 62
     4
 10
99.0
 20
-257.5
 30
0.0
 11
129.672282
 21
-231.824893
 31
0.0
  0
LINE
  8
NOTE
  6
CONTINUOUS
 62
     4
 10
316.18836299999998
 20
58.345954000000013
 30
0.0
 11
580.94203800000014
 21
58.345954000000013
 31
0.0
  0
TEXT
  8
NOTE
  6
CONTINUOUS
 62
     4
 10
330.20838700000007
 20
87.64892999999995
 30
0.0
 40
64.0
  1
AH-4
 41
0.9
  0
LINE
  8
SIZE
  6
CONTINUOUS
 62
    30
 10
68.0
 20
-230.0
 30
0.0
 11
68.0
 21
136.18899500000001
 31
0.0
  0
LINE
  8
SIZE
  6
CONTINUOUS
 62
    30
 10
-68.0
 20
-230.0
 30
0.0
 11
-68.0
 21
136.18899500000001
 31
0.0
  0
LINE
  8
SIZE
  6
CONTINUOUS
 62
    30
 10
80.0
 20
116.18899500000001
 30
0.0
 11
92.0
 21
116.18899500000001
 31
0.0
  0
LINE
  8
SIZE
  6
CONTINUOUS
 62
    30
 10
-80.0
 20
116.18899500000001
 30
0.0
 11
-92.0
 21
116.18899500000001
 31
0.0
  0
LINE
  8
SIZE
  6
CONTINUOUS
 62
    30
 10
68.0
 20
116.18899500000001
 30
0.0
 11
-68.0
 21
116.18899500000001
 31
0.0
  0
CIRCLE
  8
SIZE
  6
CONTINUOUS
 62
    30
 10
68.0
 20
116.18899500000001
 30
0.0
 40
6.0
  0
LINE
  8
SIZE
  6
CONTINUOUS
 62
    30
 10
68.0
 20
116.18899500000001
 30
0.0
 11
80.0
 21
116.18899500000001
 31
0.0
  0
CIRCLE
  8
SIZE
  6
CONTINUOUS
 62
    30
 10
-68.0
 20
116.18899500000001
 30
0.0
 40
6.0
  0
LINE
  8
SIZE
  6
CONTINUOUS
 62
    30
 10
-68.0
 20
116.18899500000001
 30
0.0
 11
-80.0
 21
116.18899500000001
 31
0.0
  0
TEXT
  8
SIZE
  6
CONTINUOUS
 62
    30
 10
-67.200000000000003
 20
141.18899500000001
 30
0.0
 40
64.0
  1
136
 41
0.9
 72
     1
 11
0.0
 21
141.18899500000001
 31
0.0
  0
LINE
  8
SIZE
  6
CONTINUOUS
 62
    30
 10
99.0
 20
-217.5
 30
0.0
 11
99.0
 21
258.59738700000003
 31
0.0
  0
LINE
  8
SIZE
  6
CONTINUOUS
 62
    30
 10
-99.0
 20
-217.5
 30
0.0
 11
-99.0
 21
258.59738700000003
 31
0.0
  0
LINE
  8
SIZE
  6
CONTINUOUS
 62
    30
 10
87.0
 20
238.597387
 30
0.0
 11
-87.0
 21
238.597387
 31
0.0
  0
CIRCLE
  8
SIZE
  6
CONTINUOUS
 62
    30
 10
99.0
 20
238.597387
 30
0.0
 40
6.0
  0
LINE
  8
SIZE
  6
CONTINUOUS
 62
    30
 10
99.0
 20
238.597387
 30
0.0
 11
87.0
 21
238.597387
 31
0.0
  0
CIRCLE
  8
SIZE
  6
CONTINUOUS
 62
    30
 10
-99.0
 20
238.597387
 30
0.0
 40
6.0
  0
LINE
  8
SIZE
  6
CONTINUOUS
 62
    30
 10
-99.0
 20
238.597387
 30
0.0
 11
-87.0
 21
238.597387
 31
0.0
  0
TEXT
  8
SIZE
  6
CONTINUOUS
 62
    30
 10
-68.571428571428569
 20
263.59738700000003
 30
0.0
 40
64.0
  1
198
 41
0.9
 72
     1
 11
0.0
 21
263.59738700000003
 31
0.0
  0
POINT
  8
DEFPOINTS
  6
CONTINUOUS
 62
    30
 10
-99.0
 20
238.597387
 30
0.0
  0
LINE
  8
SIZE
  6
CONTINUOUS
 62
    30
 10
130.5
 20
-241.0
 30
0.0
 11
130.5
 21
381.17680000000001
 31
0.0
  0
LINE
  8
SIZE
  6
CONTINUOUS
 62
    30
 10
-130.5
 20
-241.0
 30
0.0
 11
-130.5
 21
381.17680000000001
 31
0.0
  0
LINE
  8
SIZE
  6
CONTINUOUS
 62
    30
 10
118.5
 20
361.17680000000001
 30
0.0
 11
-118.5
 21
361.17680000000001
 31
0.0
  0
CIRCLE
  8
SIZE
  6
CONTINUOUS
 62
    30
 10
130.5
 20
361.17680000000001
 30
0.0
 40
6.0
  0
LINE
  8
SIZE
  6
CONTINUOUS
 62
    30
 10
130.5
 20
361.17680000000001
 30
0.0
 11
118.5
 21
361.17680000000001
 31
0.0
  0
CIRCLE
  8
SIZE
  6
CONTINUOUS
 62
    30
 10
-130.5
 20
361.17680000000001
 30
0.0
 40
6.0
  0
LINE
  8
SIZE
  6
CONTINUOUS
 62
    30
 10
-130.5
 20
361.17680000000001
 30
0.0
 11
-118.5
 21
361.17680000000001
 31
0.0
  0
TEXT
  8
SIZE
  6
CONTINUOUS
 62
    30
 10
-61.714285714285701
 20
386.17680000000001
 30
0.0
 40
64.0
  1
261
 41
0.9
 72
     1
 11
0.0
 21
386.17680000000001
 31
0.0
  0
POINT
  8
DEFPOINTS
  6
CONTINUOUS
 62
    30
 10
-130.5
 20
361.17680000000001
 30
0.0
  0
LINE
  8
DETAIL
  6
CONTINUOUS
 62
     5
 10
-9.5
 20
-496.0
 30
0.0
 11
-22.5
 21
-496.0
 31
0.0
  0
LINE
  8
DETAIL
  6
CONTINUOUS
 62
     5
 10
-20.5
 20
-496.0
 30
0.0
 11
-20.5
 21
-494.0
 31
0.0
  0
LINE
  8
DETAIL
  6
CONTINUOUS
 62
     5
 10
-9.5
 20
-496.0
 30
0.0
 11
-9.5
 21
-494.0
 31
0.0
  0
LINE
  8
NOTE
  6
CONTINUOUS
 62
     4
 10
-43.131809999999859
 20
-524.43591500000002
 30
0.0
 11
-15.0
 21
-496.0
 31
0.0
  0
LINE
  8
NOTE
  6
CONTINUOUS
 62
     4
 10
-15.0
 20
-496.0
 30
0.0
 11
-53.580820000000131
 21
-506.56031999999999
 31
0.0
  0
LINE
  8
NOTE
  6
CONTINUOUS
 62
     4
 10
-15.0
 20
-516.0
 30
0.0
 11
-15.0
 21
-476.0
 31
0.0
  0
LINE
  8
NOTE
  6
CONTINUOUS
 62
     4
 10
-35.0
 20
-496.0
 30
0.0
 11
5.0
 21
-496.0
 31
0.0
  0
LINE
  8
NOTE
  6
CONTINUOUS
 62
     4
 10
-15.0
 20
-496.0
 30
0.0
 11
-268.60192200000012
 21
-641.00109899999995
 31
0.0
  0
TEXT
  8
NOTE
  6
CONTINUOUS
 62
     4
 10
-886.39606599999979
 20
-605.1544849999998
 30
0.0
 40
64.0
  1
D(ドレンキャップ)
 41
0.9
  0
LINE
  8
NOTE
  6
CONTINUOUS
 62
     4
 10
-268.69518799999992
 20
-641.00109899999995
 30
0.0
 11
-906.18860700000005
 21
-641.00109899999995
 31
0.0
  0
TEXT
  8
ETC
  6
CONTINUOUS
 62
    61
 10
822.20352012280955
 20
415.61095602435938
 30
0.0
 40
64.0
  1
JF-160SA2_4
 41
0.9
  0
TEXT
  8
ETC
  6
CONTINUOUS
 62
    61
 10
816.20352612280954
 20
315.87567602435962
 30
0.0
 40
64.0
  1
産業扇
 41
0.9
  0
TEXT
  8
ETC
  6
CONTINUOUS
 62
    61
 10
860.21727098660085
 20
227.77521395587019
 30
0.0
 40
50.0
  1
JF-160SA2
 50
0.0
 41
0.9
 51
0.0
  7
STANDARD
 71
     0
 11
0.0
 21
0.0
 31
0.0
210
0.0
220
0.0
230
1.0
  0
TEXT
  8
ETC
  6
CONTINUOUS
 62
    61
 10
860.21727098660085
 20
145.27521395587019
 30
0.0
 40
50.0
  1
JF-160TA2
 50
0.0
 41
0.9
 51
0.0
  7
STANDARD
 71
     0
 11
0.0
 21
0.0
 31
0.0
210
0.0
220
0.0
230
1.0
  0
TEXT
  8
ETC
  6
CONTINUOUS
 62
    61
 10
860.21727098660085
 20
62.775213955870186
 30
0.0
 40
50.0
  1
JF-210SA2
 50
0.0
 41
0.9
 51
0.0
  7
STANDARD
 71
     0
 11
0.0
 21
0.0
 31
0.0
210
0.0
220
0.0
230
1.0
  0
TEXT
  8
ETC
  6
CONTINUOUS
 62
    61
 10
860.21727098660085
 20
-19.724786044129814
 30
0.0
 40
50.0
  1
JF-210TA2
 50
0.0
 41
0.9
 51
0.0
  7
STANDARD
 71
     0
 11
0.0
 21
0.0
 31
0.0
210
0.0
220
0.0
230
1.0
  0
LINE
  8
OUTLINE
  6
CONTINUOUS
 62
     3
 10
217.0
 20
-419.0
 30
0.0
 11
169.0
 21
-419.0
 31
0.0
  0
LINE
  8
OUTLINE
  6
CONTINUOUS
 62
     3
 10
217.0
 20
-96.0
 30
0.0
 11
169.0
 21
-96.0
 31
0.0
  0
LINE
  8
OUTLINE
  6
CONTINUOUS
 62
     3
 10
17.093265999999861
 20
-21.0
 30
0.0
 11
2.5
 21
-21.0
 31
0.0
  0
LINE
  8
OUTLINE
  6
CONTINUOUS
 62
     3
 10
17.093265999999861
 20
-494.0
 30
0.0
 11
2.5
 21
-494.0
 31
0.0
  0
LINE
  8
OUTLINE
  6
CONTINUOUS
 62
     3
 10
-169.0
 20
-419.0
 30
0.0
 11
-217.0
 21
-419.0
 31
0.0
  0
LINE
  8
OUTLINE
  6
CONTINUOUS
 62
     3
 10
-169.0
 20
-96.0
 30
0.0
 11
-217.0
 21
-96.0
 31
0.0
  0
LINE
  8
OUTLINE
  6
CONTINUOUS
 62
     3
 10
-2.5
 20
-494.0
 30
0.0
 11
-9.4999999999998863
 21
-493.99999999999989
 31
0.0
  0
LINE
  8
OUTLINE
  6
CONTINUOUS
 62
     3
 10
-2.5
 20
-21.0
 30
0.0
 11
-17.093265999999861
 21
-21.0
 31
0.0
  0
LINE
  8
OUTLINE
  6
CONTINUOUS
 62
     3
 10
-217.0
 20
-419.0
 30
0.0
 11
-217.0
 21
-96.0
 31
0.0
  0
LINE
  8
OUTLINE
  6
CONTINUOUS
 62
     3
 10
217.0
 20
-419.0
 30
0.0
 11
217.0
 21
-96.0
 31
0.0
  0
LINE
  8
OUTLINE
  6
CONTINUOUS
 62
     3
 10
-50.707080000000133
 20
-485.40123399999987
 30
0.0
 11
-169.0
 21
-419.0
 31
0.0
  0
LINE
  8
OUTLINE
  6
CONTINUOUS
 62
     3
 10
-50.707080000000133
 20
-29.598765999999959
 30
0.0
 11
-169.0
 21
-96.0
 31
0.0
  0
LINE
  8
OUTLINE
  6
CONTINUOUS
 62
     3
 10
50.707080000000133
 20
-485.40123399999987
 30
0.0
 11
169.0
 21
-419.0
 31
0.0
  0
LINE
  8
OUTLINE
  6
CONTINUOUS
 62
     3
 10
50.707080000000133
 20
-29.598765999999959
 30
0.0
 11
169.0
 21
-96.0
 31
0.0
  0
ARC
  8
OUTLINE
  6
CONTINUOUS
 62
     3
 10
-17.093265999999861
 20
-91.0
 30
0.0
 40
70.0
 50
90.0
 51
118.69829200000081
  0
ARC
  8
OUTLINE
  6
CONTINUOUS
 62
     3
 10
17.093265999999861
 20
-91.0
 30
0.0
 40
70.0
 50
61.301707999999181
 51
90.0
  0
ARC
  8
OUTLINE
  6
CONTINUOUS
 62
     3
 10
17.093265999999861
 20
-424.0
 30
0.0
 40
70.0
 50
270.0
 51
298.69829200000078
  0
ARC
  8
OUTLINE
  6
CONTINUOUS
 62
     3
 10
17.093265999999861
 20
-424.0
 30
0.0
 40
70.0
 50
270.0
 51
298.69829200000078
  0
ARC
  8
OUTLINE
  6
CONTINUOUS
 62
     3
 10
-16.735506890855351
 20
-422.73096658975101
 30
0.0
 40
71.285553708605974
 50
241.53927661225671
 51
266.97287973857982
  0
ARC
  8
OUTLINE
  6
CONTINUOUS
 62
     3
 10
17.093265999999861
 20
-91.0
 30
0.0
 40
70.0
 50
61.301707999999181
 51
90.0
  0
ARC
  8
OUTLINE
  6
CONTINUOUS
 62
     3
 10
-17.093265999999861
 20
-91.0
 30
0.0
 40
70.0
 50
90.0
 51
118.69829200000081
  0
LINE
  8
OUTLINE
  6
CONTINUOUS
 62
     3
 10
50.707080000000133
 20
-29.598765999999959
 30
0.0
 11
169.0
 21
-96.0
 31
0.0
  0
LINE
  8
OUTLINE
  6
CONTINUOUS
 62
     3
 10
50.707080000000133
 20
-485.40123399999987
 30
0.0
 11
169.0
 21
-419.0
 31
0.0
  0
LINE
  8
OUTLINE
  6
CONTINUOUS
 62
     3
 10
-50.707080000000133
 20
-29.598765999999959
 30
0.0
 11
-169.0
 21
-96.0
 31
0.0
  0
LINE
  8
OUTLINE
  6
CONTINUOUS
 62
     3
 10
-50.707080000000133
 20
-485.40123399999987
 30
0.0
 11
-169.0
 21
-419.0
 31
0.0
  0
LINE
  8
OUTLINE
  6
CONTINUOUS
 62
     3
 10
-2.5
 20
-21.0
 30
0.0
 11
-17.093265999999861
 21
-21.0
 31
0.0
  0
LINE
  8
OUTLINE
  6
CONTINUOUS
 62
     3
 10
-2.5
 20
-494.0
 30
0.0
 11
-9.4999999999998863
 21
-493.99999999999989
 31
0.0
  0
LINE
  8
OUTLINE
  6
CONTINUOUS
 62
     3
 10
17.093265999999861
 20
-494.0
 30
0.0
 11
2.5
 21
-494.0
 31
0.0
  0
LINE
  8
OUTLINE
  6
CONTINUOUS
 62
     3
 10
17.093265999999861
 20
-21.0
 30
0.0
 11
2.5
 21
-21.0
 31
0.0
  0
LINE
  8
OUTLINE
  6
CONTINUOUS
 62
     3
 10
-2.5
 20
-515.0
 30
0.0
 11
-2.5
 21
-493.99999999999989
 31
0.0
  0
LINE
  8
OUTLINE
  6
CONTINUOUS
 62
     3
 10
2.5
 20
-515.0
 30
0.0
 11
2.5
 21
-493.99999999999989
 31
0.0
  0
LINE
  8
OUTLINE
  6
CONTINUOUS
 62
     3
 10
2.5
 20
-515.0
 30
0.0
 11
-2.5
 21
-515.0
 31
0.0
  0
LINE
  8
OUTLINE
  6
CONTINUOUS
 62
     3
 10
2.5
 20
0.0
 30
0.0
 11
-2.5
 21
0.0
 31
0.0
  0
LINE
  8
OUTLINE
  6
CONTINUOUS
 62
     3
 10
2.5
 20
-515.0
 30
0.0
 11
2.5
 21
-493.99999999999989
 31
0.0
  0
LINE
  8
OUTLINE
  6
CONTINUOUS
 62
     3
 10
-2.5
 20
-515.0
 30
0.0
 11
-2.5
 21
-493.99999999999989
 31
0.0
  0
LINE
  8
OUTLINE
  6
CONTINUOUS
 62
     3
 10
2.5
 20
-515.0
 30
0.0
 11
-2.5
 21
-515.0
 31
0.0
  0
LINE
  8
OUTLINE
  6
CONTINUOUS
 62
     3
 10
2.5
 20
0.0
 30
0.0
 11
-2.5
 21
0.0
 31
0.0
  0
POINT
  8
DEFPOINTS
  6
CONTINUOUS
 62
    30
 10
-1012.275610072953
 20
-531.37508073908339
 30
0.0
  0
LINE
  8
OUTLINE
  6
CONTINUOUS
 62
     3
 10
-9.5
 20
-496.0
 30
0.0
 11
-22.5
 21
-496.0
 31
0.0
  0
LINE
  8
OUTLINE
  6
CONTINUOUS
 62
     3
 10
-20.5
 20
-496.0
 30
0.0
 11
-20.499999999991839
 21
-493.91705202204469
 31
0.0
  0
LINE
  8
OUTLINE
  6
CONTINUOUS
 62
     3
 10
-9.5
 20
-496.0
 30
0.0
 11
-9.5
 21
-494.0
 31
0.0
  0
LINE
  8
OUTLINE
  6
CONTINUOUS
 62
     3
 10
-2.5
 20
-21.0
 30
0.0
 11
-2.5
 21
0.0
 31
0.0
  0
LINE
  8
OUTLINE
  6
CONTINUOUS
 62
     3
 10
2.5
 20
-21.0
 30
0.0
 11
2.5
 21
0.0
 31
0.0
  0
LINE
  8
OUTLINE
  6
CONTINUOUS
 62
     3
 10
2.5
 20
-21.0
 30
0.0
 11
2.5
 21
0.0
 31
0.0
  0
LINE
  8
OUTLINE
  6
CONTINUOUS
 62
     3
 10
-2.5
 20
-21.0
 30
0.0
 11
-2.5
 21
0.0
 31
0.0
  0
LINE
  8
SIZE
  6
CONTINUOUS
 62
    30
 10
-217.0
 20
-439.0
 30
0.0
 11
-217.0
 21
-855.9882889999999
 31
0.0
  0
LINE
  8
SIZE
  6
CONTINUOUS
 62
    30
 10
217.0
 20
-439.0
 30
0.0
 11
217.0
 21
-855.9882889999999
 31
0.0
  0
LINE
  8
SIZE
  6
CONTINUOUS
 62
    30
 10
-205.0
 20
-835.9882889999999
 30
0.0
 11
205.0
 21
-835.9882889999999
 31
0.0
  0
CIRCLE
  8
SIZE
  6
CONTINUOUS
 62
    30
 10
-217.0
 20
-835.9882889999999
 30
0.0
 40
6.0
  0
LINE
  8
SIZE
  6
CONTINUOUS
 62
    30
 10
-217.0
 20
-835.9882889999999
 30
0.0
 11
-205.0
 21
-835.9882889999999
 31
0.0
  0
CIRCLE
  8
SIZE
  6
CONTINUOUS
 62
    30
 10
217.0
 20
-835.9882889999999
 30
0.0
 40
6.0
  0
LINE
  8
SIZE
  6
CONTINUOUS
 62
    30
 10
217.0
 20
-835.9882889999999
 30
0.0
 11
205.0
 21
-835.9882889999999
 31
0.0
  0
TEXT
  8
SIZE
  6
CONTINUOUS
 62
    30
 10
-81.504000000000033
 20
-810.9882889999999
 30
0.0
 40
64.0
  1
434
 50
0.0
 41
0.9
 51
0.0
  7
STANDARD
 71
     0
 72
     1
 11
-0.0000000000000284
 21
-810.9882889999999
 31
0.0
210
0.0
220
0.0
230
1.0
  0
POINT
  8
DEFPOINTS
  6
CONTINUOUS
 62
    30
 10
-217.0
 20
-419.0
 30
0.0
  0
POINT
  8
DEFPOINTS
  6
CONTINUOUS
 62
    30
 10
217.0
 20
-419.0
 30
0.0
  0
POINT
  8
DEFPOINTS
  6
CONTINUOUS
 62
    30
 10
217.0
 20
-835.9882889999999
 30
0.0
  0
TEXT
  8
NOTE
  6
CONTINUOUS
 62
     4
 10
278.60033460327031
 20
-284.2707229075254
 30
0.0
 40
64.0
  1
吸込口
 41
0.9
  0
TEXT
  8
NOTE
  6
CONTINUOUS
 62
     4
 10
-458.70281414326291
 20
-288.32586619739709
 30
0.0
 40
64.0
  1
吹出口
 41
0.9
  0
ENDSEC
  0
EOF
