  0
SECTION
  2
HEADER
  9
$ACADVER
  1
AC1009
  9
$INSBASE
 10
0.0
 20
0.0
 30
0.0
  9
$EXTMIN
 10
-291.42438399999998
 20
-836.2698509999999
 30
0.0
  9
$EXTMAX
 10
1177.285026657348
 20
651.72959609635723
 30
50.0
  9
$LIMMIN
 10
-2970.0
 20
-2100.0
  9
$LIMMAX
 10
2970.0
 20
2100.0
  9
$ORTHOMODE
 70
     0
  9
$REGENMODE
 70
     0
  9
$FILLMODE
 70
     1
  9
$QTEXTMODE
 70
     0
  9
$MIRRTEXT
 70
     0
  9
$DRAGMODE
 70
     2
  9
$LTSCALE
 40
20.0
  9
$OSMODE
 70
    37
  9
$ATTMODE
 70
     1
  9
$TEXTSIZE
 40
64.0
  9
$TRACEWID
 40
0.05
  9
$TEXTSTYLE
  7
STANDARD
  9
$CLAYER
  8
SIZE
  9
$CELTYPE
  6
CONTINUOUS
  9
$CECOLOR
 62
    30
  9
$DIMSCALE
 40
1.0
  9
$DIMASZ
 40
12.0
  9
$DIMEXO
 40
20.0
  9
$DIMDLI
 40
200.0
  9
$DIMRND
 40
0.0
  9
$DIMDLE
 40
0.0
  9
$DIMEXE
 40
20.0
  9
$DIMTP
 40
0.0
  9
$DIMTM
 40
0.0
  9
$DIMTXT
 40
64.0
  9
$DIMCEN
 40
0.09
  9
$DIMTSZ
 40
0.0
  9
$DIMTOL
 70
     0
  9
$DIMLIM
 70
     0
  9
$DIMTIH
 70
     0
  9
$DIMTOH
 70
     0
  9
$DIMSE1
 70
     0
  9
$DIMSE2
 70
     0
  9
$DIMTAD
 70
     1
  9
$DIMZIN
 70
     8
  9
$DIMBLK
  1
DOT1
  9
$DIMASO
 70
     1
  9
$DIMSHO
 70
     0
  9
$DIMPOST
  1

  9
$DIMAPOST
  1

  9
$DIMALT
 70
     0
  9
$DIMALTD
 70
     2
  9
$DIMALTF
 40
25.399999999999999
  9
$DIMLFAC
 40
1.0
  9
$DIMTOFL
 70
     1
  9
$DIMTVP
 40
0.0
  9
$DIMTIX
 70
     1
  9
$DIMSOXD
 70
     0
  9
$DIMSAH
 70
     1
  9
$DIMBLK1
  1
ORIGIN
  9
$DIMBLK2
  1
ORIGIN
  9
$DIMSTYLE
  2
STANDARD
  9
$DIMCLRD
 70
     7
  9
$DIMCLRE
 70
     7
  9
$DIMCLRT
 70
     7
  9
$DIMTFAC
 40
1.0
  9
$DIMGAP
 40
25.0
  9
$LUNITS
 70
     2
  9
$LUPREC
 70
     4
  9
$SKETCHINC
 40
0.1
  9
$FILLETRAD
 40
4.0
  9
$AUNITS
 70
     1
  9
$AUPREC
 70
     3
  9
$MENU
  1
ACAD
  9
$ELEVATION
 40
0.0
  9
$PELEVATION
 40
0.0
  9
$THICKNESS
 40
50.0
  9
$LIMCHECK
 70
     0
  9
$BLIPMODE
 70
     0
  9
$CHAMFERA
 40
0.0
  9
$CHAMFERB
 40
0.0
  9
$SKPOLY
 70
     0
  9
$TDCREATE
 40
2453138.618785162
  9
$TDUPDATE
 40
2454928.6410675109
  9
$TDINDWG
 40
0.0209489815
  9
$TDUSRTIMER
 40
0.0209403009
  9
$USRTIMER
 70
     1
  9
$ANGBASE
 50
0.0
  9
$ANGDIR
 70
     0
  9
$PDMODE
 70
     3
  9
$PDSIZE
 40
-2.0
  9
$PLINEWID
 40
0.0
  9
$COORDS
 70
     0
  9
$SPLFRAME
 70
     0
  9
$SPLINETYPE
 70
     6
  9
$SPLINESEGS
 70
     8
  9
$ATTDIA
 70
     0
  9
$ATTREQ
 70
     1
  9
$HANDLING
 70
     1
  9
$HANDSEED
  5
189
  9
$SURFTAB1
 70
     6
  9
$SURFTAB2
 70
     6
  9
$SURFTYPE
 70
     6
  9
$SURFU
 70
     6
  9
$SURFV
 70
     6
  9
$UCSNAME
  2

  9
$UCSORG
 10
0.0
 20
0.0
 30
0.0
  9
$UCSXDIR
 10
1.0
 20
0.0
 30
0.0
  9
$UCSYDIR
 10
0.0
 20
1.0
 30
0.0
  9
$PUCSNAME
  2

  9
$PUCSORG
 10
0.0
 20
0.0
 30
0.0
  9
$PUCSXDIR
 10
1.0
 20
0.0
 30
0.0
  9
$PUCSYDIR
 10
0.0
 20
1.0
 30
0.0
  9
$USERI1
 70
     0
  9
$USERI2
 70
     0
  9
$USERI3
 70
     0
  9
$USERI4
 70
     0
  9
$USERI5
 70
     0
  9
$USERR1
 40
20.0
  9
$USERR2
 40
0.0
  9
$USERR3
 40
0.0
  9
$USERR4
 40
0.0
  9
$USERR5
 40
0.0
  9
$WORLDVIEW
 70
     1
  9
$SHADEDGE
 70
     3
  9
$SHADEDIF
 70
    70
  9
$TILEMODE
 70
     1
  9
$MAXACTVP
 70
    48
  9
$PLIMCHECK
 70
     0
  9
$PEXTMIN
 10
-1.0000000000000000E+020
 20
-1.0000000000000000E+020
 30
-1.0000000000000000E+020
  9
$PEXTMAX
 10
1.0000000000000000E+020
 20
1.0000000000000000E+020
 30
1.0000000000000000E+020
  9
$PLIMMIN
 10
0.0
 20
0.0
  9
$PLIMMAX
 10
12.0
 20
9.0
  9
$UNITMODE
 70
     0
  9
$VISRETAIN
 70
     0
  9
$PLINEGEN
 70
     0
  9
$PSLTSCALE
 70
     0
  0
ENDSEC
  0
SECTION
  2
TABLES
  0
TABLE
  2
VPORT
 70
     1
  0
VPORT
  2
*ACTIVE
 70
     0
 10
0.0
 20
0.0
 11
1.0
 21
1.0
 12
386.11451600000009
 22
-13.693106297966549
 13
0.0
 23
0.0
 14
1.0
 24
1.0
 15
0.0
 25
0.0
 16
0.0
 26
0.0
 36
1.0
 17
0.0
 27
0.0
 37
0.0
 40
1656.5023624040671
 41
1.3098995695839311
 42
50.0
 43
0.0
 44
0.0
 50
0.0
 51
0.0
 71
     0
 72
  1000
 73
     1
 74
     0
 75
     0
 76
     0
 77
     0
 78
     0
  0
ENDTAB
  0
TABLE
  2
LTYPE
 70
     3
  0
LTYPE
  2
CONTINUOUS
 70
     0
  3
実線
 72
    65
 73
     0
 40
0.0
  0
LTYPE
  2
DASHDOT
 70
     0
  3
____ _ ____ _ ____ _ ____ _ ____ _ ____ _ ____
 72
    65
 73
     4
 40
5.5
 49
4.0
 49
-0.6
 49
0.3
 49
-0.6
  0
ENDTAB
  0
TABLE
  2
LAYER
 70
    12
  0
LAYER
  2
0
 70
     0
 62
     7
  6
CONTINUOUS
  0
LAYER
  2
SIZE
 70
     0
 62
    30
  6
CONTINUOUS
  0
LAYER
  2
BASIS
 70
     0
 62
     6
  6
DASHDOT
  0
LAYER
  2
OUTLINE
 70
     0
 62
     3
  6
CONTINUOUS
  0
LAYER
  2
DETAIL
 70
     0
 62
     5
  6
CONTINUOUS
  0
LAYER
  2
ARRANGE
 70
     0
 62
     1
  6
CONTINUOUS
  0
LAYER
  2
DEFPOINTS
 70
     0
 62
     7
  6
CONTINUOUS
  0
LAYER
  2
ETC
 70
     0
 62
    61
  6
CONTINUOUS
  0
LAYER
  2
FIX
 70
     0
 62
    11
  6
CONTINUOUS
  0
LAYER
  2
NOTE
 70
     0
 62
     4
  6
CONTINUOUS
  0
LAYER
  2
SERVICESPACE
 70
     0
 62
     2
  6
DASHDOT
  0
LAYER
  2
SYMBOLLINE
 70
     0
 62
    15
  6
CONTINUOUS
  0
ENDTAB
  0
TABLE
  2
STYLE
 70
     2
  0
STYLE
  2
STANDARD
 70
     0
 40
64.0
 41
0.9
 50
0.0
 71
     0
 42
64.0
  3
SIMPLEX.shx
  4
BIGFONT.shx
  0
STYLE
  2
ANNOTATIVE
 70
     0
 40
0.0
 41
1.0
 50
0.0
 71
     0
 42
0.2
  3
txt
  4

  0
ENDTAB
  0
TABLE
  2
VIEW
 70
     1
  0
VIEW
  2
ALL
 70
     0
 40
4282.6198079999986
 10
0.0
 20
41.309903999999989
 41
5940.0
 11
0.0
 21
0.0
 31
1.0
 12
0.0
 22
0.0
 32
0.0
 42
50.0
 43
0.0
 44
0.0
 50
0.0
 71
     0
  0
ENDTAB
  0
TABLE
  2
UCS
 70
     0
  0
ENDTAB
  0
TABLE
  2
APPID
 70
     5
  0
APPID
  2
ACAD
 70
     0
  0
APPID
  2
ACADANNOTATIVE
 70
     0
  0
APPID
  2
ACAD_MLEADERVER
 70
     0
  0
APPID
  2
AUTOCAD_POSTSCRIPT_FIGURE
 70
     0
  0
APPID
  2
ACAD_EXEMPT_FROM_CAD_STANDARDS
 70
     0
  0
ENDTAB
  0
TABLE
  2
DIMSTYLE
 70
     2
  0
DIMSTYLE
  2
STANDARD
 70
     0
  3

  4

  5

  6

  7

 40
1.0
 41
0.18
 42
0.0625
 43
0.38
 44
0.18
 45
0.0
 46
0.0
 47
0.0
 48
0.0
140
0.18
141
0.09
142
0.0
143
25.399999999999999
144
1.0
145
0.0
146
1.0
147
0.09
 71
     0
 72
     0
 73
     1
 74
     1
 75
     0
 76
     0
 77
     0
 78
     0
170
     0
171
     2
172
     0
173
     0
174
     0
175
     0
176
     7
177
     7
178
     7
  0
DIMSTYLE
  2
ANNOTATIVE
 70
     0
  3

  4

  5

  6

  7

 40
1.0
 41
0.18
 42
0.0625
 43
0.38
 44
0.18
 45
0.0
 46
0.0
 47
0.0
 48
0.0
140
0.18
141
0.09
142
0.0
143
25.399999999999999
144
1.0
145
0.0
146
1.0
147
0.09
 71
     0
 72
     0
 73
     1
 74
     1
 75
     0
 76
     0
 77
     0
 78
     0
170
     0
171
     2
172
     0
173
     0
174
     0
175
     0
176
     0
177
     0
178
     0
  0
ENDTAB
  0
ENDSEC
  0
SECTION
  2
BLOCKS
  0
BLOCK
  8
0
  2
$MODEL_SPACE
 70
     0
 10
0.0
 20
0.0
 30
0.0
  3
$MODEL_SPACE
  1

  0
ENDBLK
  5
76
  8
0
  0
BLOCK
 67
     1
  8
0
  2
$PAPER_SPACE
 70
     0
 10
0.0
 20
0.0
 30
0.0
  3
$PAPER_SPACE
  1

  0
ENDBLK
  5
72
 67
     1
  8
0
  0
BLOCK
  8
0
  2
DOT1
 70
     0
 10
0.0
 20
0.0
 30
0.0
  3
DOT1
  1

  0
CIRCLE
  5
8C
  8
SIZE
  6
CONTINUOUS
 62
     7
 10
0.0
 20
0.0
 30
0.0
 40
3.0
  0
ENDBLK
  5
8D
  8
0
  0
BLOCK
  8
0
  2
_ORIGIN
 70
     0
 10
0.0
 20
0.0
 30
0.0
  3
_ORIGIN
  1

  0
CIRCLE
  5
90
  8
0
  6
CONTINUOUS
 62
     7
 10
0.0
 20
0.0
 30
0.0
 40
0.5
  0
LINE
  5
91
  8
0
  6
CONTINUOUS
 62
     7
 10
0.0
 20
0.0
 30
0.0
 11
-1.0
 21
0.0
 31
0.0
  0
ENDBLK
  5
92
  8
0
  0
ENDSEC
  0
SECTION
  2
ENTITIES
  0
LINE
  5
98
  8
BASIS
  6
DASHDOT
 62
     6
 10
0.0
 20
-559.50600599999996
 30
0.0
 11
0.0
 21
45.754475999999997
 31
0.0
  0
LINE
  5
99
  8
BASIS
  6
DASHDOT
 62
     6
 10
-291.42438399999998
 20
-257.5
 30
0.0
 11
290.10236400000002
 21
-257.5
 31
0.0
  0
LINE
  5
9A
  8
NOTE
  6
CONTINUOUS
 62
     4
 10
-245.0
 20
-277.5
 30
0.0
 11
-245.0
 21
-237.5
 31
0.0
  0
LINE
  5
9B
  8
NOTE
  6
CONTINUOUS
 62
     4
 10
-225.0
 20
-257.5
 30
0.0
 11
-265.0
 21
-257.5
 31
0.0
  0
LINE
  5
9C
  8
DETAIL
  6
CONTINUOUS
 62
     5
 10
-235.77572799999999
 20
-269.5
 30
0.0
 11
-271.5
 21
-269.5
 31
0.0
  0
LINE
  5
9D
  8
DETAIL
  6
CONTINUOUS
 62
     5
 10
-231.5
 20
-287.5
 30
0.0
 11
-179.842037
 21
-287.5
 31
0.0
  0
LINE
  5
9E
  8
DETAIL
  6
CONTINUOUS
 62
     5
 10
-271.5
 20
-257.5
 30
0.0
 11
-184.21897799999999
 21
-257.5
 31
0.0
  0
ARC
  5
9F
  8
DETAIL
  6
CONTINUOUS
 62
     5
 10
-79.218978000000007
 20
-257.5
 30
0.0
 40
105.0
 50
180.0
 51
196.60155
  0
LINE
  5
A0
  8
NOTE
  6
CONTINUOUS
 62
     4
 10
245.0
 20
-257.5
 30
0.0
 11
365.64338800000002
 21
-149.741604
 31
0.0
  0
LINE
  5
A1
  8
NOTE
  6
CONTINUOUS
 62
     4
 10
267.24189799999999
 20
-224.25397799999999
 30
0.0
 11
245.0
 21
-257.5
 31
0.0
  0
LINE
  5
A2
  8
NOTE
  6
CONTINUOUS
 62
     4
 10
245.0
 20
-257.5
 30
0.0
 11
280.88506000000001
 21
-239.82905
 31
0.0
  0
LINE
  5
A3
  8
DETAIL
  6
CONTINUOUS
 62
     5
 10
-271.5
 20
-250.0
 30
0.0
 11
-271.5
 21
-269.5
 31
0.0
  0
LINE
  5
A4
  8
DETAIL
  6
CONTINUOUS
 62
     5
 10
-251.5
 20
-250.0
 30
0.0
 11
-251.5
 21
-257.5
 31
0.0
  0
LINE
  5
A5
  8
DETAIL
  6
CONTINUOUS
 62
     5
 10
-251.5
 20
-250.0
 30
0.0
 11
-271.5
 21
-250.0
 31
0.0
  0
LINE
  5
A6
  8
DETAIL
  6
CONTINUOUS
 62
     5
 10
-238.5
 20
-269.5
 30
0.0
 11
-238.5
 21
-280.5
 31
0.0
  0
CIRCLE
  5
A7
  8
FIX
  6
CONTINUOUS
 62
    11
 10
-245.0
 20
-257.5
 30
0.0
 40
6.5
  0
ARC
  5
A8
  8
DETAIL
  6
CONTINUOUS
 62
     5
 10
0.0
 20
-257.5
 30
0.0
 40
257.5
 50
182.67106200000001
 51
357.32893799999999
  0
ARC
  5
A9
  8
DETAIL
  6
CONTINUOUS
 62
     5
 10
0.0
 20
-257.5
 30
0.0
 40
236.5
 50
187.10024100000001
 51
352.8997589999999
  0
CIRCLE
  5
AA
  8
DETAIL
  6
CONTINUOUS
 62
     5
 10
0.0
 20
-257.5
 30
0.0
 40
161.5
  0
ARC
  5
AB
  8
DETAIL
  6
CONTINUOUS
 62
     5
 10
-231.5
 20
-280.5
 30
0.0
 40
7.0
 50
180.0
 51
270.0
  0
LINE
  5
AC
  8
DETAIL
  6
CONTINUOUS
 62
     5
 10
-229.04659699999999
 20
-274.57157999999998
 30
0.0
 11
-225.341598
 21
-287.5
 31
0.0
  0
ARC
  5
AD
  8
DETAIL
  6
CONTINUOUS
 62
     5
 10
-235.77572799999999
 20
-276.5
 30
0.0
 40
7.0
 50
15.991130999999999
 51
90.0
  0
ARC
  5
AE
  8
DETAIL
  6
CONTINUOUS
 62
     5
 10
235.77572799999999
 20
-276.5
 30
0.0
 40
7.0
 50
90.0
 51
164.008869
  0
LINE
  5
AF
  8
DETAIL
  6
CONTINUOUS
 62
     5
 10
229.04659699999999
 20
-274.57157999999998
 30
0.0
 11
225.341598
 21
-287.5
 31
0.0
  0
ARC
  5
B0
  8
DETAIL
  6
CONTINUOUS
 62
     5
 10
231.5
 20
-280.5
 30
0.0
 40
7.0
 50
270.0
 51
0.0
  0
CIRCLE
  5
B1
  8
FIX
  6
CONTINUOUS
 62
    11
 10
245.0
 20
-257.5
 30
0.0
 40
6.5
  0
LINE
  5
B2
  8
DETAIL
  6
CONTINUOUS
 62
     5
 10
238.5
 20
-269.5
 30
0.0
 11
238.5
 21
-280.5
 31
0.0
  0
LINE
  5
B3
  8
DETAIL
  6
CONTINUOUS
 62
     5
 10
251.5
 20
-250.0
 30
0.0
 11
271.5
 21
-250.0
 31
0.0
  0
LINE
  5
B4
  8
DETAIL
  6
CONTINUOUS
 62
     5
 10
251.5
 20
-250.0
 30
0.0
 11
251.5
 21
-257.5
 31
0.0
  0
LINE
  5
B5
  8
DETAIL
  6
CONTINUOUS
 62
     5
 10
271.5
 20
-250.0
 30
0.0
 11
271.5
 21
-269.5
 31
0.0
  0
ARC
  5
B6
  8
DETAIL
  6
CONTINUOUS
 62
     5
 10
79.218978000000007
 20
-257.5
 30
0.0
 40
105.0
 50
343.39845000000003
 51
0.0
  0
LINE
  5
B7
  8
DETAIL
  6
CONTINUOUS
 62
     5
 10
271.5
 20
-257.5
 30
0.0
 11
184.21897799999999
 21
-257.5
 31
0.0
  0
LINE
  5
B8
  8
DETAIL
  6
CONTINUOUS
 62
     5
 10
231.5
 20
-287.5
 30
0.0
 11
179.842037
 21
-287.5
 31
0.0
  0
LINE
  5
B9
  8
DETAIL
  6
CONTINUOUS
 62
     5
 10
235.77572799999999
 20
-269.5
 30
0.0
 11
271.5
 21
-269.5
 31
0.0
  0
LINE
  5
BA
  8
NOTE
  6
CONTINUOUS
 62
     4
 10
245.0
 20
-277.5
 30
0.0
 11
245.0
 21
-237.5
 31
0.0
  0
LINE
  5
BB
  8
NOTE
  6
CONTINUOUS
 62
     4
 10
225.0
 20
-257.5
 30
0.0
 11
265.0
 21
-257.5
 31
0.0
  0
CIRCLE
  5
BC
  8
OUTLINE
  6
CONTINUOUS
 62
     3
 10
0.0
 20
-257.5
 30
0.0
 40
257.5
  0
ARC
  5
BD
  8
DETAIL
  6
CONTINUOUS
 62
     5
 10
0.0
 20
-257.5
 30
0.0
 40
257.5
 50
1.6690449999999999
 51
178.33095499999999
  0
ARC
  5
BE
  8
DETAIL
  6
CONTINUOUS
 62
     5
 10
0.0
 20
-257.5
 30
0.0
 40
236.5
 50
0.0
 51
180.0
  0
POINT
  5
BF
  8
ARRANGE
  6
CONTINUOUS
 62
     1
 10
0.0
 20
0.0
 30
0.0
  0
CIRCLE
  5
C0
  8
ARRANGE
  6
CONTINUOUS
 62
     1
 10
0.0
 20
0.0
 30
0.0
 40
40.0
  0
LINE
  5
C1
  8
NOTE
  6
CONTINUOUS
 62
     4
 10
365.64338800000002
 20
-149.741604
 30
0.0
 11
628.212086
 21
-149.741604
 31
0.0
  0
TEXT
  5
C2
  8
NOTE
  6
CONTINUOUS
 62
     4
 10
378.83675199999999
 20
-120.438627
 30
0.0
 40
64.0
  1
AH-4
 41
0.9
  0
CIRCLE
  5
C3
  8
DETAIL
  6
CONTINUOUS
 62
     5
 39
50.0
 10
0.0
 20
-257.5
 30
0.0
 40
60.0
  0
ARC
  5
C4
  8
DETAIL
  6
CONTINUOUS
 62
     5
 10
-35.531708000000002
 20
-159.63476600000001
 30
0.0
 40
162.16125500000001
 50
246.96118999999999
 51
274.52799700000003
  0
ARC
  5
C5
  8
DETAIL
  6
CONTINUOUS
 62
     5
 10
1.039245999999999
 20
-256.899902
 30
0.0
 40
67.718384
 50
234.451671
 51
250.81287
  0
ARC
  5
C6
  8
DETAIL
  6
CONTINUOUS
 62
     5
 10
0.0
 20
-257.5
 30
0.0
 40
67.718384
 50
234.451671
 51
250.81287
  0
ARC
  5
C7
  8
DETAIL
  6
CONTINUOUS
 62
     5
 10
-41.5625
 20
-284.59848
 30
0.0
 40
185.57324199999999
 50
340.95368100000002
 51
351.60626300000001
  0
ARC
  5
C8
  8
DETAIL
  6
CONTINUOUS
 62
     5
 10
-97.865234000000001
 20
-293.03170799999998
 30
0.0
 40
162.16125500000001
 50
336.96118999999999
 51
4.527997
  0
ARC
  5
C9
  8
DETAIL
  6
CONTINUOUS
 62
     5
 10
-107.626953
 20
-292.38726800000001
 30
0.0
 40
162.16125500000001
 50
337.386191
 51
358.78293400000001
  0
ARC
  5
CA
  8
DETAIL
  6
CONTINUOUS
 62
     5
 10
-107.027344
 20
-293.426514
 30
0.0
 40
162.16125500000001
 50
337.386191
 51
358.78293400000001
  0
ARC
  5
CB
  8
DETAIL
  6
CONTINUOUS
 62
     5
 10
-27.098479999999999
 20
-215.9375
 30
0.0
 40
185.57324199999999
 50
250.9536810000001
 51
261.60626300000001
  0
ARC
  5
CC
  8
DETAIL
  6
CONTINUOUS
 62
     5
 10
610.85790999999995
 20
-624.959473
 30
0.0
 40
701.42480499999988
 50
154.30694099999999
 51
161.20073300000001
  0
LINE
  5
CD
  8
DETAIL
  6
CONTINUOUS
 62
     5
 10
-54.187403000000003
 20
-399.52314799999999
 30
0.0
 11
-53.148406999999992
 21
-398.92357299999998
 31
0.0
  0
ARC
  5
CE
  8
DETAIL
  6
CONTINUOUS
 62
     5
 10
609.81835899999987
 20
-625.55957000000001
 30
0.0
 40
701.42480499999988
 50
154.30694099999999
 51
161.20073300000001
  0
ARC
  5
CF
  8
DETAIL
  6
CONTINUOUS
 62
     5
 10
-112.78027299999999
 20
-293.82998700000002
 30
0.0
 40
167.336792
 50
312.97717899999998
 51
338.271165
  0
ARC
  5
D0
  8
DETAIL
  6
CONTINUOUS
 62
     5
 10
-113.380371
 20
-292.79074100000003
 30
0.0
 40
167.336792
 50
312.450244
 51
338.271165
  0
ARC
  5
D1
  8
DETAIL
  6
CONTINUOUS
 62
     5
 10
-103.621094
 20
-293.39248700000002
 30
0.0
 40
167.336792
 50
312.92406099999999
 51
337.84621800000002
  0
ARC
  5
D2
  8
DETAIL
  6
CONTINUOUS
 62
     5
 10
0.0
 20
-257.5
 30
0.0
 40
158.763092
 50
269.842489
 51
273.734238
  0
ARC
  5
D3
  8
DETAIL
  6
CONTINUOUS
 62
     5
 10
34.887267999999999
 20
-365.1269529999999
 30
0.0
 40
162.16125500000001
 50
67.386190999999997
 51
88.782933999999997
  0
ARC
  5
D4
  8
DETAIL
  6
CONTINUOUS
 62
     5
 10
35.926514000000012
 20
-364.52734400000003
 30
0.0
 40
162.16125500000001
 50
67.386190999999997
 51
88.782933999999997
  0
ARC
  5
D5
  8
DETAIL
  6
CONTINUOUS
 62
     5
 10
35.531708000000002
 20
-355.36523399999999
 30
0.0
 40
162.16125500000001
 50
66.961190000000002
 51
94.527996999999985
  0
ARC
  5
D6
  8
DETAIL
  6
CONTINUOUS
 62
     5
 10
35.290740999999997
 20
-370.88037100000003
 30
0.0
 40
167.336792
 50
42.450243999999998
 51
68.271164999999996
  0
ARC
  5
D7
  8
DETAIL
  6
CONTINUOUS
 62
     5
 10
367.459473
 20
353.35791
 30
0.0
 40
701.42480499999988
 50
244.30694099999999
 51
251.20073300000001
  0
ARC
  5
D8
  8
DETAIL
  6
CONTINUOUS
 62
     5
 10
368.05957000000001
 20
352.31835899999999
 30
0.0
 40
701.42480499999988
 50
244.30694099999999
 51
251.20073300000001
  0
ARC
  5
D9
  8
DETAIL
  6
CONTINUOUS
 62
     5
 10
-367.459473
 20
-868.35790999999995
 30
0.0
 40
701.42480499999988
 50
64.306941000000009
 51
71.200733
  0
ARC
  5
DA
  8
DETAIL
  6
CONTINUOUS
 62
     5
 10
41.5625
 20
-230.40152
 30
0.0
 40
185.57324199999999
 50
160.95368099999999
 51
171.60626300000001
  0
ARC
  5
DB
  8
DETAIL
  6
CONTINUOUS
 62
     5
 10
-368.05957000000001
 20
-867.31835899999999
 30
0.0
 40
701.42480499999988
 50
64.306941000000009
 51
71.200733
  0
ARC
  5
DC
  8
DETAIL
  6
CONTINUOUS
 62
     5
 10
-36.329987000000003
 20
-144.71972700000001
 30
0.0
 40
167.336792
 50
222.97717900000001
 51
248.271165
  0
ARC
  5
DD
  8
DETAIL
  6
CONTINUOUS
 62
     5
 10
-35.290740999999997
 20
-144.119629
 30
0.0
 40
167.336792
 50
222.450244
 51
248.271165
  0
ARC
  5
DE
  8
DETAIL
  6
CONTINUOUS
 62
     5
 10
-35.89248700000001
 20
-153.878906
 30
0.0
 40
167.336792
 50
222.92406099999999
 51
247.84621799999999
  0
ARC
  5
DF
  8
DETAIL
  6
CONTINUOUS
 62
     5
 10
0.0
 20
-257.5
 30
0.0
 40
158.763092
 50
179.842489
 51
183.73423799999989
  0
LINE
  5
E0
  8
DETAIL
  6
CONTINUOUS
 62
     5
 10
-142.02314799999999
 20
-203.31259700000001
 30
0.0
 11
-141.423573
 21
-204.35159300000001
 31
0.0
  0
ARC
  5
E1
  8
DETAIL
  6
CONTINUOUS
 62
     5
 10
-610.85790999999995
 20
109.959473
 30
0.0
 40
701.42480499999988
 50
334.30694099999999
 51
341.20073300000001
  0
ARC
  5
E2
  8
DETAIL
  6
CONTINUOUS
 62
     5
 10
-609.81835899999987
 20
110.55956999999999
 30
0.0
 40
701.42480499999988
 50
334.30694099999999
 51
341.20073300000001
  0
ARC
  5
E3
  8
DETAIL
  6
CONTINUOUS
 62
     5
 10
103.621094
 20
-221.60751300000001
 30
0.0
 40
167.336792
 50
132.92406099999999
 51
157.84621799999999
  0
ARC
  5
E4
  8
DETAIL
  6
CONTINUOUS
 62
     5
 10
113.380371
 20
-222.209259
 30
0.0
 40
167.336792
 50
132.450244
 51
158.271165
  0
ARC
  5
E5
  8
DETAIL
  6
CONTINUOUS
 62
     5
 10
112.78027299999999
 20
-221.17001300000001
 30
0.0
 40
167.336792
 50
132.97717900000001
 51
158.271165
  0
CIRCLE
  5
E6
  8
DETAIL
  6
CONTINUOUS
 62
     5
 10
0.0
 20
-257.5
 30
0.0
 40
23.0
  0
CIRCLE
  5
E7
  8
DETAIL
  6
CONTINUOUS
 62
     5
 10
0.0
 20
-257.5
 30
0.0
 40
34.849730999999998
  0
CIRCLE
  5
E8
  8
DETAIL
  6
CONTINUOUS
 62
     5
 10
0.0
 20
-257.5
 30
0.0
 40
38.660187000000001
  0
ARC
  5
E9
  8
DETAIL
  6
CONTINUOUS
 62
     5
 10
0.600098
 20
-258.53924599999999
 30
0.0
 40
67.718384
 50
144.451671
 51
160.81287
  0
ARC
  5
EA
  8
DETAIL
  6
CONTINUOUS
 62
     5
 10
-34.887267999999999
 20
-149.87304700000001
 30
0.0
 40
162.16125500000001
 50
247.386191
 51
268.78293400000001
  0
ARC
  5
EB
  8
DETAIL
  6
CONTINUOUS
 62
     5
 10
-35.926514000000012
 20
-150.472656
 30
0.0
 40
162.16125500000001
 50
247.386191
 51
268.78293400000001
  0
ARC
  5
EC
  8
DETAIL
  6
CONTINUOUS
 62
     5
 10
97.865234000000001
 20
-221.96829199999999
 30
0.0
 40
162.16125500000001
 50
156.96118999999999
 51
184.527997
  0
ARC
  5
ED
  8
DETAIL
  6
CONTINUOUS
 62
     5
 10
107.626953
 20
-222.61273199999999
 30
0.0
 40
162.16125500000001
 50
157.386191
 51
178.78293400000001
  0
ARC
  5
EE
  8
DETAIL
  6
CONTINUOUS
 62
     5
 10
107.027344
 20
-221.573486
 30
0.0
 40
162.16125500000001
 50
157.386191
 51
178.78293400000001
  0
ARC
  5
EF
  8
DETAIL
  6
CONTINUOUS
 62
     5
 10
0.0
 20
-257.5
 30
0.0
 40
67.718384
 50
144.451671
 51
160.81287
  0
LINE
  5
F0
  8
DETAIL
  6
CONTINUOUS
 62
     5
 10
-9.5
 20
-257.5
 30
0.0
 11
-6.9000000000000004
 21
-257.5
 31
0.0
  0
LINE
  5
F1
  8
DETAIL
  6
CONTINUOUS
 62
     5
 10
9.5
 20
-257.5
 30
0.0
 11
6.9000000000000004
 21
-257.5
 31
0.0
  0
LINE
  5
F2
  8
DETAIL
  6
CONTINUOUS
 62
     5
 10
0.0
 20
-267.0
 30
0.0
 11
0.0
 21
-264.39999999999998
 31
0.0
  0
LINE
  5
F3
  8
DETAIL
  6
CONTINUOUS
 62
     5
 10
0.0
 20
-248.0
 30
0.0
 11
0.0
 21
-250.59999999999999
 31
0.0
  0
ARC
  5
F4
  8
DETAIL
  6
CONTINUOUS
 62
     5
 10
0.0
 20
-257.5
 30
0.0
 40
8.0
 50
179.999909
 51
269.99967299999997
  0
ARC
  5
F5
  8
DETAIL
  6
CONTINUOUS
 62
     5
 10
0.0
 20
-257.5
 30
0.0
 40
8.0
 50
0.0
 51
89.999872999999994
  0
CIRCLE
  5
F6
  8
DETAIL
  6
CONTINUOUS
 62
     5
 10
0.0
 20
-257.5
 30
0.0
 40
6.9000000000000004
  0
CIRCLE
  5
F7
  8
DETAIL
  6
CONTINUOUS
 62
     5
 10
0.0
 20
-257.5
 30
0.0
 40
9.5
  0
CIRCLE
  5
F8
  8
DETAIL
  6
CONTINUOUS
 62
     5
 10
0.0
 20
-257.5
 30
0.0
 40
11.5
  0
LINE
  5
F9
  8
DETAIL
  6
CONTINUOUS
 62
     5
 10
12.0
 20
-250.60000099999999
 30
0.0
 11
0.0
 21
-243.65000000000001
 31
0.0
  0
LINE
  5
FA
  8
DETAIL
  6
CONTINUOUS
 62
     5
 10
12.0
 20
-264.39999999999998
 30
0.0
 11
12.0
 21
-250.59999999999999
 31
0.0
  0
LINE
  5
FB
  8
DETAIL
  6
CONTINUOUS
 62
     5
 10
0.0
 20
-271.35000000000002
 30
0.0
 11
12.0
 21
-264.39999900000009
 31
0.0
  0
LINE
  5
FC
  8
DETAIL
  6
CONTINUOUS
 62
     5
 10
-12.0
 20
-264.39999900000009
 30
0.0
 11
0.0
 21
-271.35000000000002
 31
0.0
  0
LINE
  5
FD
  8
DETAIL
  6
CONTINUOUS
 62
     5
 10
-12.0
 20
-250.59999999999999
 30
0.0
 11
-12.0
 21
-264.39999999999998
 31
0.0
  0
LINE
  5
FE
  8
DETAIL
  6
CONTINUOUS
 62
     5
 10
0.0
 20
-243.65000000000001
 30
0.0
 11
-12.0
 21
-250.60000099999999
 31
0.0
  0
CIRCLE
  5
FF
  8
DETAIL
  6
CONTINUOUS
 62
     5
 10
0.0
 20
-257.5
 30
0.0
 40
14.0
  0
ARC
  5
100
  8
DETAIL
  6
CONTINUOUS
 62
     5
 10
-0.600098
 20
-256.46075400000001
 30
0.0
 40
67.718384
 50
324.45167099999998
 51
340.81286999999998
  0
ARC
  5
101
  8
DETAIL
  6
CONTINUOUS
 62
     5
 10
0.0
 20
-257.5
 30
0.0
 40
67.718384
 50
324.45167099999998
 51
340.81286999999998
  0
ARC
  5
102
  8
DETAIL
  6
CONTINUOUS
 62
     5
 10
0.0
 20
-257.5
 30
0.0
 40
67.718384
 50
54.45167099999999
 51
70.81286999999999
  0
ARC
  5
103
  8
DETAIL
  6
CONTINUOUS
 62
     5
 10
-1.039245999999999
 20
-258.100098
 30
0.0
 40
67.718384
 50
54.45167099999999
 51
70.81286999999999
  0
ARC
  5
104
  8
DETAIL
  6
CONTINUOUS
 62
     5
 10
0.0
 20
-257.5
 30
0.0
 40
158.763092
 50
89.842489
 51
93.734237999999991
  0
LINE
  5
105
  8
DETAIL
  6
CONTINUOUS
 62
     5
 10
54.187403000000003
 20
-115.47685199999999
 30
0.0
 11
53.148406999999992
 21
-116.076427
 31
0.0
  0
ARC
  5
106
  8
DETAIL
  6
CONTINUOUS
 62
     5
 10
27.098479999999999
 20
-299.0625
 30
0.0
 40
185.57324199999999
 50
70.953681000000003
 51
81.606262999999998
  0
ARC
  5
107
  8
DETAIL
  6
CONTINUOUS
 62
     5
 10
35.89248700000001
 20
-361.12109400000003
 30
0.0
 40
167.336792
 50
42.924061000000002
 51
67.846217999999993
  0
ARC
  5
108
  8
DETAIL
  6
CONTINUOUS
 62
     5
 10
36.329987000000003
 20
-370.28027300000002
 30
0.0
 40
167.336792
 50
42.977179
 51
68.271164999999996
  0
LINE
  5
109
  8
DETAIL
  6
CONTINUOUS
 62
     5
 10
142.02314799999999
 20
-311.6874029999999
 30
0.0
 11
141.423573
 21
-310.64840700000002
 31
0.0
  0
ARC
  5
10A
  8
DETAIL
  6
CONTINUOUS
 62
     5
 10
0.0
 20
-257.5
 30
0.0
 40
158.763092
 50
359.842489
 51
3.7342379999999991
  0
LINE
  5
10B
  8
SIZE
  6
CONTINUOUS
 62
    30
 10
-161.5
 20
-237.5
 30
0.0
 11
-161.5
 21
131.99372399999999
 31
0.0
  0
LINE
  5
10C
  8
SIZE
  6
CONTINUOUS
 62
    30
 10
161.5
 20
-237.5
 30
0.0
 11
161.5
 21
131.99372399999999
 31
0.0
  0
LINE
  5
10D
  8
SIZE
  6
CONTINUOUS
 62
    30
 10
-149.5
 20
111.993724
 30
0.0
 11
149.5
 21
111.993724
 31
0.0
  0
CIRCLE
  5
10E
  8
SIZE
  6
CONTINUOUS
 62
    30
 10
-161.5
 20
111.993724
 30
0.0
 40
6.0
  0
LINE
  5
10F
  8
SIZE
  6
CONTINUOUS
 62
    30
 10
-161.5
 20
111.993724
 30
0.0
 11
-149.5
 21
111.993724
 31
0.0
  0
CIRCLE
  5
110
  8
SIZE
  6
CONTINUOUS
 62
    30
 10
161.5
 20
111.993724
 30
0.0
 40
6.0
  0
LINE
  5
111
  8
SIZE
  6
CONTINUOUS
 62
    30
 10
161.5
 20
111.993724
 30
0.0
 11
149.5
 21
111.993724
 31
0.0
  0
TEXT
  5
112
  8
SIZE
  6
CONTINUOUS
 62
    30
 10
-114.3771428571428
 20
136.99372399999999
 30
0.0
 40
64.0
  1
φ323
 41
0.9
 72
     1
 11
0.0
 21
136.99372399999999
 31
0.0
  0
POINT
  5
113
  8
DEFPOINTS
  6
CONTINUOUS
 62
    30
 10
-161.5
 20
-257.5
 30
0.0
  0
POINT
  5
114
  8
DEFPOINTS
  6
CONTINUOUS
 62
    30
 10
161.5
 20
-257.5
 30
0.0
  0
POINT
  5
115
  8
DEFPOINTS
  6
CONTINUOUS
 62
    30
 10
161.5
 20
111.993724
 30
0.0
  0
LINE
  5
116
  8
SIZE
  6
CONTINUOUS
 62
    30
 10
257.5
 20
-237.5
 30
0.0
 11
257.5
 21
268.82653399999998
 31
0.0
  0
LINE
  5
117
  8
SIZE
  6
CONTINUOUS
 62
    30
 10
-257.5
 20
-237.5
 30
0.0
 11
-257.5
 21
268.82653399999998
 31
0.0
  0
LINE
  5
118
  8
SIZE
  6
CONTINUOUS
 62
    30
 10
245.5
 20
248.82653400000001
 30
0.0
 11
-245.5
 21
248.82653400000001
 31
0.0
  0
CIRCLE
  5
119
  8
SIZE
  6
CONTINUOUS
 62
    30
 10
257.5
 20
248.82653400000001
 30
0.0
 40
6.0
  0
LINE
  5
11A
  8
SIZE
  6
CONTINUOUS
 62
    30
 10
257.5
 20
248.82653400000001
 30
0.0
 11
245.5
 21
248.82653400000001
 31
0.0
  0
CIRCLE
  5
11B
  8
SIZE
  6
CONTINUOUS
 62
    30
 10
-257.5
 20
248.82653400000001
 30
0.0
 40
6.0
  0
LINE
  5
11C
  8
SIZE
  6
CONTINUOUS
 62
    30
 10
-257.5
 20
248.82653400000001
 30
0.0
 11
-245.5
 21
248.82653400000001
 31
0.0
  0
TEXT
  5
11D
  8
SIZE
  6
CONTINUOUS
 62
    30
 10
-108.89142857142851
 20
273.82653399999998
 30
0.0
 40
64.0
  1
φ515
 41
0.9
 72
     1
 11
0.0
 21
273.82653399999998
 31
0.0
  0
POINT
  5
11E
  8
DEFPOINTS
  6
CONTINUOUS
 62
    30
 10
257.5
 20
-257.5
 30
0.0
  0
POINT
  5
11F
  8
DEFPOINTS
  6
CONTINUOUS
 62
    30
 10
-257.5
 20
-257.5
 30
0.0
  0
POINT
  5
120
  8
DEFPOINTS
  6
CONTINUOUS
 62
    30
 10
-257.5
 20
248.82653400000001
 30
0.0
  0
LINE
  5
121
  8
SIZE
  6
CONTINUOUS
 62
    30
 10
245.0
 20
-297.5
 30
0.0
 11
245.0
 21
-702.61068299999988
 31
0.0
  0
LINE
  5
122
  8
SIZE
  6
CONTINUOUS
 62
    30
 10
-245.0
 20
-297.5
 30
0.0
 11
-245.0
 21
-702.61068299999988
 31
0.0
  0
LINE
  5
123
  8
SIZE
  6
CONTINUOUS
 62
    30
 10
233.0
 20
-682.61068299999999
 30
0.0
 11
-233.0
 21
-682.61068299999999
 31
0.0
  0
CIRCLE
  5
124
  8
SIZE
  6
CONTINUOUS
 62
    30
 10
245.0
 20
-682.61068299999999
 30
0.0
 40
6.0
  0
LINE
  5
125
  8
SIZE
  6
CONTINUOUS
 62
    30
 10
245.0
 20
-682.61068299999999
 30
0.0
 11
233.0
 21
-682.61068299999999
 31
0.0
  0
CIRCLE
  5
126
  8
SIZE
  6
CONTINUOUS
 62
    30
 10
-245.0
 20
-682.61068299999999
 30
0.0
 40
6.0
  0
LINE
  5
127
  8
SIZE
  6
CONTINUOUS
 62
    30
 10
-245.0
 20
-682.61068299999999
 30
0.0
 11
-233.0
 21
-682.61068299999999
 31
0.0
  0
TEXT
  5
128
  8
SIZE
  6
CONTINUOUS
 62
    30
 10
-74.05714285714285
 20
-657.61068299999999
 30
0.0
 40
64.0
  1
490
 41
0.9
 72
     1
 11
0.0
 21
-657.61068299999999
 31
0.0
  0
POINT
  5
129
  8
DEFPOINTS
  6
CONTINUOUS
 62
    30
 10
245.0
 20
-277.5
 30
0.0
  0
POINT
  5
12A
  8
DEFPOINTS
  6
CONTINUOUS
 62
    30
 10
-245.0
 20
-277.5
 30
0.0
  0
POINT
  5
12B
  8
DEFPOINTS
  6
CONTINUOUS
 62
    30
 10
-245.0
 20
-682.61068299999999
 30
0.0
  0
LINE
  5
12C
  8
SIZE
  6
CONTINUOUS
 62
    30
 10
271.5
 20
-289.5
 30
0.0
 11
271.5
 21
-836.2698509999999
 31
0.0
  0
LINE
  5
12D
  8
SIZE
  6
CONTINUOUS
 62
    30
 10
-271.5
 20
-289.5
 30
0.0
 11
-271.5
 21
-836.2698509999999
 31
0.0
  0
LINE
  5
12E
  8
SIZE
  6
CONTINUOUS
 62
    30
 10
259.5
 20
-816.26985100000002
 30
0.0
 11
-259.5
 21
-816.26985100000002
 31
0.0
  0
CIRCLE
  5
12F
  8
SIZE
  6
CONTINUOUS
 62
    30
 10
271.5
 20
-816.26985100000002
 30
0.0
 40
6.0
  0
LINE
  5
130
  8
SIZE
  6
CONTINUOUS
 62
    30
 10
271.5
 20
-816.26985100000002
 30
0.0
 11
259.5
 21
-816.26985100000002
 31
0.0
  0
CIRCLE
  5
131
  8
SIZE
  6
CONTINUOUS
 62
    30
 10
-271.5
 20
-816.26985100000002
 30
0.0
 40
6.0
  0
LINE
  5
132
  8
SIZE
  6
CONTINUOUS
 62
    30
 10
-271.5
 20
-816.26985100000002
 30
0.0
 11
-259.5
 21
-816.26985100000002
 31
0.0
  0
TEXT
  5
133
  8
SIZE
  6
CONTINUOUS
 62
    30
 10
-74.05714285714285
 20
-791.26985100000002
 30
0.0
 40
64.0
  1
543
 41
0.9
 72
     1
 11
0.0
 21
-791.26985100000002
 31
0.0
  0
POINT
  5
134
  8
DEFPOINTS
  6
CONTINUOUS
 62
    30
 10
271.5
 20
-269.5
 30
0.0
  0
POINT
  5
135
  8
DEFPOINTS
  6
CONTINUOUS
 62
    30
 10
-271.5
 20
-269.5
 30
0.0
  0
POINT
  5
136
  8
DEFPOINTS
  6
CONTINUOUS
 62
    30
 10
-271.5
 20
-816.26985100000002
 30
0.0
  0
TEXT
  5
145
  8
ETC
  6
CONTINUOUS
 62
    61
 10
634.19931237163348
 20
587.72959609635689
 30
0.0
 40
64.0
  1
JF-200S3_2
 41
0.9
  0
TEXT
  5
146
  8
ETC
  6
CONTINUOUS
 62
    61
 10
643.07186437163352
 20
477.47619509635678
 30
0.0
 40
64.0
  1
産業扇
 41
0.9
  0
TEXT
  5
147
  8
ETC
  6
CONTINUOUS
 62
    61
 10
704.15041237163337
 20
366.77555309635682
 30
0.0
 40
50.0
  1
JF-200S1
 41
0.9
  0
TEXT
  5
148
  8
ETC
  6
CONTINUOUS
 62
    61
 10
704.15041237163337
 20
277.02581367583582
 30
0.0
 40
50.0
  1
JF-200T1
 41
0.9
  0
TEXT
  5
149
  8
ETC
  6
CONTINUOUS
 62
    61
 10
704.15041237163337
 20
190.0729712697545
 30
0.0
 40
50.0
  1
JF-250S1
 41
0.9
  0
TEXT
  5
14A
  8
ETC
  6
CONTINUOUS
 62
    61
 10
704.15041237163337
 20
104.7551076920596
 30
0.0
 40
50.0
  1
JF-250T1
 41
0.9
  0
TEXT
  5
14B
  8
ETC
  6
CONTINUOUS
 62
    61
 10
704.15041237163337
 20
14.565901162776751
 30
0.0
 40
50.0
  1
JF-200S3
 41
0.9
  0
TEXT
  5
14C
  8
ETC
  6
CONTINUOUS
 62
    61
 10
704.15041237163337
 20
-75.183838257744242
 30
0.0
 40
50.0
  1
JF-200T3
 41
0.9
  0
TEXT
  5
14D
  8
ETC
  6
CONTINUOUS
 62
    61
 10
704.15041237163337
 20
-162.13668066382559
 30
0.0
 40
50.0
  1
JF-250S3
 41
0.9
  0
TEXT
  5
14E
  8
ETC
  6
CONTINUOUS
 62
    61
 10
704.15041237163337
 20
-247.45454424152049
 30
0.0
 40
50.0
  1
JF-250T3
 41
0.9
  0
ENDSEC
  0
EOF
