  0
SECTION
  2
HEADER
  9
$ACADVER
  1
AC1009
  9
$INSBASE
 10
0.0
 20
0.0
 30
0.0
  9
$EXTMIN
 10
-641.71140924062627
 20
-581.58873357063737
 30
-0.0030518556252446
  9
$EXTMAX
 10
1515.454113699325
 20
1048.1414880465491
 30
50.003052088470113
  9
$LIMMIN
 10
-2970.0
 20
-2100.0
  9
$LIMMAX
 10
2970.0
 20
2100.0
  9
$ORTHOMODE
 70
     0
  9
$REGENMODE
 70
     0
  9
$FILLMODE
 70
     1
  9
$QTEXTMODE
 70
     0
  9
$MIRRTEXT
 70
     0
  9
$DRAGMODE
 70
     2
  9
$LTSCALE
 40
20.0
  9
$OSMODE
 70
    37
  9
$ATTMODE
 70
     1
  9
$TEXTSIZE
 40
64.0
  9
$TRACEWID
 40
0.05
  9
$TEXTSTYLE
  7
STANDARD
  9
$CLAYER
  8
SIZE
  9
$CELTYPE
  6
CONTINUOUS
  9
$CECOLOR
 62
    30
  9
$DIMSCALE
 40
1.0
  9
$DIMASZ
 40
12.0
  9
$DIMEXO
 40
20.0
  9
$DIMDLI
 40
200.0
  9
$DIMRND
 40
0.0
  9
$DIMDLE
 40
0.0
  9
$DIMEXE
 40
20.0
  9
$DIMTP
 40
0.0
  9
$DIMTM
 40
0.0
  9
$DIMTXT
 40
64.0
  9
$DIMCEN
 40
0.09
  9
$DIMTSZ
 40
0.0
  9
$DIMTOL
 70
     0
  9
$DIMLIM
 70
     0
  9
$DIMTIH
 70
     0
  9
$DIMTOH
 70
     0
  9
$DIMSE1
 70
     0
  9
$DIMSE2
 70
     0
  9
$DIMTAD
 70
     1
  9
$DIMZIN
 70
     8
  9
$DIMBLK
  1
DOT1
  9
$DIMASO
 70
     1
  9
$DIMSHO
 70
     0
  9
$DIMPOST
  1

  9
$DIMAPOST
  1

  9
$DIMALT
 70
     0
  9
$DIMALTD
 70
     2
  9
$DIMALTF
 40
25.399999999999999
  9
$DIMLFAC
 40
1.0
  9
$DIMTOFL
 70
     1
  9
$DIMTVP
 40
0.0
  9
$DIMTIX
 70
     1
  9
$DIMSOXD
 70
     0
  9
$DIMSAH
 70
     1
  9
$DIMBLK1
  1
ORIGIN
  9
$DIMBLK2
  1
ORIGIN
  9
$DIMSTYLE
  2
STANDARD
  9
$DIMCLRD
 70
     7
  9
$DIMCLRE
 70
     7
  9
$DIMCLRT
 70
     7
  9
$DIMTFAC
 40
1.0
  9
$DIMGAP
 40
25.0
  9
$LUNITS
 70
     2
  9
$LUPREC
 70
     4
  9
$SKETCHINC
 40
0.1
  9
$FILLETRAD
 40
4.0
  9
$AUNITS
 70
     1
  9
$AUPREC
 70
     3
  9
$MENU
  1
ACAD
  9
$ELEVATION
 40
0.0
  9
$PELEVATION
 40
0.0
  9
$THICKNESS
 40
50.0
  9
$LIMCHECK
 70
     0
  9
$BLIPMODE
 70
     0
  9
$CHAMFERA
 40
0.0
  9
$CHAMFERB
 40
0.0
  9
$SKPOLY
 70
     0
  9
$TDCREATE
 40
2453138.618785162
  9
$TDUPDATE
 40
2454928.643774468
  9
$TDINDWG
 40
0.0290770139
  9
$TDUSRTIMER
 40
0.0290768287
  9
$USRTIMER
 70
     1
  9
$ANGBASE
 50
0.0
  9
$ANGDIR
 70
     0
  9
$PDMODE
 70
     3
  9
$PDSIZE
 40
-2.0
  9
$PLINEWID
 40
0.0
  9
$COORDS
 70
     0
  9
$SPLFRAME
 70
     0
  9
$SPLINETYPE
 70
     6
  9
$SPLINESEGS
 70
     8
  9
$ATTDIA
 70
     0
  9
$ATTREQ
 70
     1
  9
$HANDLING
 70
     1
  9
$HANDSEED
  5
1DE
  9
$SURFTAB1
 70
     6
  9
$SURFTAB2
 70
     6
  9
$SURFTYPE
 70
     6
  9
$SURFU
 70
     6
  9
$SURFV
 70
     6
  9
$UCSNAME
  2

  9
$UCSORG
 10
0.0
 20
0.0
 30
0.0
  9
$UCSXDIR
 10
1.0
 20
0.0
 30
0.0
  9
$UCSYDIR
 10
0.0
 20
1.0
 30
0.0
  9
$PUCSNAME
  2

  9
$PUCSORG
 10
0.0
 20
0.0
 30
0.0
  9
$PUCSXDIR
 10
1.0
 20
0.0
 30
0.0
  9
$PUCSYDIR
 10
0.0
 20
1.0
 30
0.0
  9
$USERI1
 70
     0
  9
$USERI2
 70
     0
  9
$USERI3
 70
     0
  9
$USERI4
 70
     0
  9
$USERI5
 70
     0
  9
$USERR1
 40
20.0
  9
$USERR2
 40
0.0
  9
$USERR3
 40
0.0
  9
$USERR4
 40
0.0
  9
$USERR5
 40
0.0
  9
$WORLDVIEW
 70
     1
  9
$SHADEDGE
 70
     3
  9
$SHADEDIF
 70
    70
  9
$TILEMODE
 70
     1
  9
$MAXACTVP
 70
    48
  9
$PLIMCHECK
 70
     0
  9
$PEXTMIN
 10
-1.0000000000000000E+020
 20
-1.0000000000000000E+020
 30
-1.0000000000000000E+020
  9
$PEXTMAX
 10
1.0000000000000000E+020
 20
1.0000000000000000E+020
 30
1.0000000000000000E+020
  9
$PLIMMIN
 10
0.0
 20
0.0
  9
$PLIMMAX
 10
12.0
 20
9.0
  9
$UNITMODE
 70
     0
  9
$VISRETAIN
 70
     0
  9
$PLINEGEN
 70
     0
  9
$PSLTSCALE
 70
     0
  0
ENDSEC
  0
SECTION
  2
TABLES
  0
TABLE
  2
VPORT
 70
     1
  0
VPORT
  2
*ACTIVE
 70
     0
 10
0.0
 20
0.0
 11
1.0
 21
1.0
 12
427.75424596220091
 22
295.99325635313693
 13
0.0
 23
0.0
 14
1.0
 24
1.0
 15
0.0
 25
0.0
 16
0.0
 26
0.0
 36
1.0
 17
0.0
 27
0.0
 37
0.0
 40
1861.7247934636359
 41
1.3098995695839311
 42
50.0
 43
0.0
 44
0.0
 50
0.0
 51
0.0
 71
     0
 72
  1000
 73
     1
 74
     0
 75
     0
 76
     0
 77
     0
 78
     0
  0
ENDTAB
  0
TABLE
  2
LTYPE
 70
     3
  0
LTYPE
  2
CONTINUOUS
 70
     0
  3
実線
 72
    65
 73
     0
 40
0.0
  0
LTYPE
  2
DASHDOT
 70
     0
  3
____ _ ____ _ ____ _ ____ _ ____ _ ____ _ ____
 72
    65
 73
     4
 40
5.5
 49
4.0
 49
-0.6
 49
0.3
 49
-0.6
  0
ENDTAB
  0
TABLE
  2
LAYER
 70
    12
  0
LAYER
  2
0
 70
     0
 62
     7
  6
CONTINUOUS
  0
LAYER
  2
SIZE
 70
     0
 62
    30
  6
CONTINUOUS
  0
LAYER
  2
BASIS
 70
     0
 62
     6
  6
DASHDOT
  0
LAYER
  2
OUTLINE
 70
     0
 62
     3
  6
CONTINUOUS
  0
LAYER
  2
DETAIL
 70
     0
 62
     5
  6
CONTINUOUS
  0
LAYER
  2
ARRANGE
 70
     0
 62
     1
  6
CONTINUOUS
  0
LAYER
  2
DEFPOINTS
 70
     0
 62
     7
  6
CONTINUOUS
  0
LAYER
  2
ETC
 70
     0
 62
    61
  6
CONTINUOUS
  0
LAYER
  2
FIX
 70
     0
 62
    11
  6
CONTINUOUS
  0
LAYER
  2
NOTE
 70
     0
 62
     4
  6
CONTINUOUS
  0
LAYER
  2
SERVICESPACE
 70
     0
 62
     2
  6
DASHDOT
  0
LAYER
  2
SYMBOLLINE
 70
     0
 62
    15
  6
CONTINUOUS
  0
ENDTAB
  0
TABLE
  2
STYLE
 70
     2
  0
STYLE
  2
STANDARD
 70
     0
 40
64.0
 41
0.9
 50
0.0
 71
     0
 42
64.0
  3
SIMPLEX.shx
  4
BIGFONT.shx
  0
STYLE
  2
ANNOTATIVE
 70
     0
 40
0.0
 41
1.0
 50
0.0
 71
     0
 42
0.2
  3
txt
  4

  0
ENDTAB
  0
TABLE
  2
VIEW
 70
     1
  0
VIEW
  2
ALL
 70
     0
 40
4282.6198079999986
 10
0.0
 20
41.309903999999989
 41
5940.0
 11
0.0
 21
0.0
 31
1.0
 12
0.0
 22
0.0
 32
0.0
 42
50.0
 43
0.0
 44
0.0
 50
0.0
 71
     0
  0
ENDTAB
  0
TABLE
  2
UCS
 70
     0
  0
ENDTAB
  0
TABLE
  2
APPID
 70
     5
  0
APPID
  2
ACAD
 70
     0
  0
APPID
  2
ACADANNOTATIVE
 70
     0
  0
APPID
  2
ACAD_MLEADERVER
 70
     0
  0
APPID
  2
AUTOCAD_POSTSCRIPT_FIGURE
 70
     0
  0
APPID
  2
ACAD_EXEMPT_FROM_CAD_STANDARDS
 70
     0
  0
ENDTAB
  0
TABLE
  2
DIMSTYLE
 70
     2
  0
DIMSTYLE
  2
STANDARD
 70
     0
  3

  4

  5

  6

  7

 40
1.0
 41
0.18
 42
0.0625
 43
0.38
 44
0.18
 45
0.0
 46
0.0
 47
0.0
 48
0.0
140
0.18
141
0.09
142
0.0
143
25.399999999999999
144
1.0
145
0.0
146
1.0
147
0.09
 71
     0
 72
     0
 73
     1
 74
     1
 75
     0
 76
     0
 77
     0
 78
     0
170
     0
171
     2
172
     0
173
     0
174
     0
175
     0
176
     7
177
     7
178
     7
  0
DIMSTYLE
  2
ANNOTATIVE
 70
     0
  3

  4

  5

  6

  7

 40
1.0
 41
0.18
 42
0.0625
 43
0.38
 44
0.18
 45
0.0
 46
0.0
 47
0.0
 48
0.0
140
0.18
141
0.09
142
0.0
143
25.399999999999999
144
1.0
145
0.0
146
1.0
147
0.09
 71
     0
 72
     0
 73
     1
 74
     1
 75
     0
 76
     0
 77
     0
 78
     0
170
     0
171
     2
172
     0
173
     0
174
     0
175
     0
176
     0
177
     0
178
     0
  0
ENDTAB
  0
ENDSEC
  0
SECTION
  2
BLOCKS
  0
BLOCK
  8
0
  2
$MODEL_SPACE
 70
     0
 10
0.0
 20
0.0
 30
0.0
  3
$MODEL_SPACE
  1

  0
ENDBLK
  5
76
  8
0
  0
BLOCK
 67
     1
  8
0
  2
$PAPER_SPACE
 70
     0
 10
0.0
 20
0.0
 30
0.0
  3
$PAPER_SPACE
  1

  0
ENDBLK
  5
72
 67
     1
  8
0
  0
BLOCK
  8
0
  2
DOT1
 70
     0
 10
0.0
 20
0.0
 30
0.0
  3
DOT1
  1

  0
CIRCLE
  5
8C
  8
SIZE
  6
CONTINUOUS
 62
     7
 10
0.0
 20
0.0
 30
0.0
 40
3.0
  0
ENDBLK
  5
8D
  8
0
  0
BLOCK
  8
0
  2
_ORIGIN
 70
     0
 10
0.0
 20
0.0
 30
0.0
  3
_ORIGIN
  1

  0
CIRCLE
  5
90
  8
0
  6
CONTINUOUS
 62
     7
 10
0.0
 20
0.0
 30
0.0
 40
0.5
  0
LINE
  5
91
  8
0
  6
CONTINUOUS
 62
     7
 10
0.0
 20
0.0
 30
0.0
 11
-1.0
 21
0.0
 31
0.0
  0
ENDBLK
  5
92
  8
0
  0
ENDSEC
  0
SECTION
  2
ENTITIES
  0
LINE
  5
95
  8
BASIS
  6
DASHDOT
 62
     6
 10
0.0
 20
-255.54924
 30
0.0
 11
0.0
 21
245.80739399999999
 31
0.0
  0
LINE
  5
96
  8
BASIS
  6
DASHDOT
 62
     6
 10
-288.50919500000009
 20
0.0
 30
0.0
 11
291.41093499999999
 21
0.0
 31
0.0
  0
LINE
  5
97
  8
DETAIL
  6
CONTINUOUS
 62
     5
 10
-161.5
 20
-172.0
 30
0.0
 11
161.5
 21
-172.0
 31
0.0
  0
LINE
  5
98
  8
DETAIL
  6
CONTINUOUS
 62
     5
 10
-161.5
 20
172.0
 30
0.0
 11
161.5
 21
172.0
 31
0.0
  0
LINE
  5
99
  8
DETAIL
  6
CONTINUOUS
 62
     5
 10
-161.5
 20
-220.0
 30
0.0
 11
-161.5
 21
-172.0
 31
0.0
  0
LINE
  5
9A
  8
DETAIL
  6
CONTINUOUS
 62
     5
 10
161.5
 20
-220.0
 30
0.0
 11
161.5
 21
-172.0
 31
0.0
  0
LINE
  5
9B
  8
DETAIL
  6
CONTINUOUS
 62
     5
 10
-271.5
 20
68.0
 30
0.0
 11
-251.5
 21
68.0
 31
0.0
  0
LINE
  5
9C
  8
DETAIL
  6
CONTINUOUS
 62
     5
 10
-271.5
 20
68.0
 30
0.0
 11
-271.5
 21
130.5
 31
0.0
  0
LINE
  5
9D
  8
DETAIL
  6
CONTINUOUS
 62
     5
 10
236.5
 20
-17.093266
 30
0.0
 11
236.5
 21
-2.5
 31
0.0
  0
LINE
  5
9E
  8
DETAIL
  6
CONTINUOUS
 62
     5
 10
-236.5
 20
-17.093266
 30
0.0
 11
-236.5
 21
-2.5
 31
0.0
  0
LINE
  5
9F
  8
DETAIL
  6
CONTINUOUS
 62
     5
 10
-161.5
 20
172.0
 30
0.0
 11
-161.5
 21
220.0
 31
0.0
  0
LINE
  5
A0
  8
DETAIL
  6
CONTINUOUS
 62
     5
 10
161.5
 20
172.0
 30
0.0
 11
161.5
 21
220.0
 31
0.0
  0
LINE
  5
A1
  8
DETAIL
  6
CONTINUOUS
 62
     5
 10
-236.5
 20
2.5
 30
0.0
 11
-236.5
 21
17.093266
 31
0.0
  0
LINE
  5
A2
  8
DETAIL
  6
CONTINUOUS
 62
     5
 10
236.5
 20
2.5
 30
0.0
 11
236.5
 21
17.093266
 31
0.0
  0
LINE
  5
A3
  8
NOTE
  6
CONTINUOUS
 62
     4
 10
-156.5
 20
102.0
 30
0.0
 11
-156.5
 21
142.0
 31
0.0
  0
LINE
  5
A4
  8
NOTE
  6
CONTINUOUS
 62
     4
 10
-176.5
 20
122.0
 30
0.0
 11
-136.5
 21
122.0
 31
0.0
  0
CIRCLE
  5
A5
  8
DETAIL
  6
CONTINUOUS
 62
     5
 10
-156.5
 20
122.0
 30
0.0
 40
6.0
  0
LINE
  5
A6
  8
DETAIL
  6
CONTINUOUS
 62
     5
 10
-161.5
 20
220.0
 30
0.0
 11
161.5
 21
220.0
 31
0.0
  0
LINE
  5
A7
  8
DETAIL
  6
CONTINUOUS
 62
     5
 10
-161.5
 20
-220.0
 30
0.0
 11
161.5
 21
-220.0
 31
0.0
  0
LINE
  5
A8
  8
DETAIL
  6
CONTINUOUS
 62
     5
 10
-251.5
 20
68.0
 30
0.0
 11
-251.5
 21
98.999999000000003
 31
0.0
  0
LINE
  5
A9
  8
DETAIL
  6
CONTINUOUS
 62
     5
 10
-238.5
 20
68.0
 30
0.0
 11
-238.5
 21
99.0
 31
0.0
  0
LINE
  5
AA
  8
NOTE
  6
CONTINUOUS
 62
     4
 10
-245.0
 20
79.0
 30
0.0
 11
-245.0
 21
119.0
 31
0.0
  0
LINE
  5
AB
  8
NOTE
  6
CONTINUOUS
 62
     4
 10
-265.0
 20
99.0
 30
0.0
 11
-225.0
 21
99.0
 31
0.0
  0
CIRCLE
  5
AC
  8
FIX
  6
CONTINUOUS
 62
    11
 10
-245.0
 20
99.0
 30
0.0
 40
6.5
  0
LINE
  5
AD
  8
DETAIL
  6
CONTINUOUS
 62
     5
 10
-238.5
 20
68.0
 30
0.0
 11
-218.43430699999999
 21
68.0
 31
0.0
  0
LINE
  5
AE
  8
DETAIL
  6
CONTINUOUS
 62
     5
 10
-234.170886
 20
-35.0
 30
0.0
 11
234.170886
 21
-35.0
 31
0.0
  0
LINE
  5
AF
  8
DETAIL
  6
CONTINUOUS
 62
     5
 10
-234.170886
 20
35.0
 30
0.0
 11
234.170886
 21
35.0
 31
0.0
  0
LINE
  5
B0
  8
DETAIL
  6
CONTINUOUS
 62
     5
 10
-227.90123399999999
 20
50.707079999999991
 30
0.0
 11
-161.5
 21
172.0
 31
0.0
  0
LINE
  5
B1
  8
DETAIL
  6
CONTINUOUS
 62
     5
 10
227.90123399999999
 20
50.707079999999991
 30
0.0
 11
161.5
 21
172.0
 31
0.0
  0
LINE
  5
B2
  8
DETAIL
  6
CONTINUOUS
 62
     5
 10
-227.90123399999999
 20
-50.707079999999991
 30
0.0
 11
-161.5
 21
-172.0
 31
0.0
  0
LINE
  5
B3
  8
DETAIL
  6
CONTINUOUS
 62
     5
 10
227.90123399999999
 20
-50.707079999999991
 30
0.0
 11
161.5
 21
-172.0
 31
0.0
  0
LINE
  5
B4
  8
DETAIL
  6
CONTINUOUS
 62
     5
 10
-184.21897799999999
 20
130.5
 30
0.0
 11
-271.5
 21
130.5
 31
0.0
  0
ARC
  5
B5
  8
DETAIL
  6
CONTINUOUS
 62
     5
 10
-245.0
 20
99.0
 30
0.0
 40
6.5
 50
0.0
 51
180.0
  0
ARC
  5
B6
  8
DETAIL
  6
CONTINUOUS
 62
     5
 10
245.0
 20
99.0
 30
0.0
 40
6.5
 50
0.0
 51
180.0
  0
LINE
  5
B7
  8
DETAIL
  6
CONTINUOUS
 62
     5
 10
184.21897799999999
 20
130.5
 30
0.0
 11
271.5
 21
130.5
 31
0.0
  0
LINE
  5
B8
  8
DETAIL
  6
CONTINUOUS
 62
     5
 10
238.5
 20
68.0
 30
0.0
 11
218.43430699999999
 21
68.0
 31
0.0
  0
CIRCLE
  5
B9
  8
FIX
  6
CONTINUOUS
 62
    11
 10
245.0
 20
99.0
 30
0.0
 40
6.5
  0
LINE
  5
BA
  8
NOTE
  6
CONTINUOUS
 62
     4
 10
245.0
 20
79.0
 30
0.0
 11
245.0
 21
119.0
 31
0.0
  0
LINE
  5
BB
  8
NOTE
  6
CONTINUOUS
 62
     4
 10
265.0
 20
99.0
 30
0.0
 11
225.0
 21
99.0
 31
0.0
  0
LINE
  5
BC
  8
DETAIL
  6
CONTINUOUS
 62
     5
 10
238.5
 20
68.0
 30
0.0
 11
238.5
 21
99.0
 31
0.0
  0
LINE
  5
BD
  8
DETAIL
  6
CONTINUOUS
 62
     5
 10
251.5
 20
68.0
 30
0.0
 11
251.5
 21
98.999999000000003
 31
0.0
  0
LINE
  5
BE
  8
DETAIL
  6
CONTINUOUS
 62
     5
 10
271.5
 20
68.0
 30
0.0
 11
271.5
 21
130.5
 31
0.0
  0
LINE
  5
BF
  8
DETAIL
  6
CONTINUOUS
 62
     5
 10
271.5
 20
68.0
 30
0.0
 11
251.5
 21
68.0
 31
0.0
  0
ARC
  5
C0
  8
DETAIL
  6
CONTINUOUS
 62
     5
 10
-245.0
 20
-99.0
 30
0.0
 40
6.5
 50
180.0
 51
0.0
  0
LINE
  5
C1
  8
DETAIL
  6
CONTINUOUS
 62
     5
 10
-184.21897799999999
 20
-130.5
 30
0.0
 11
-271.5
 21
-130.5
 31
0.0
  0
LINE
  5
C2
  8
DETAIL
  6
CONTINUOUS
 62
     5
 10
-238.5
 20
-68.0
 30
0.0
 11
-218.43430699999999
 21
-68.0
 31
0.0
  0
CIRCLE
  5
C3
  8
FIX
  6
CONTINUOUS
 62
    11
 10
-245.0
 20
-99.0
 30
0.0
 40
6.5
  0
LINE
  5
C4
  8
NOTE
  6
CONTINUOUS
 62
     4
 10
-245.0
 20
-79.0
 30
0.0
 11
-245.0
 21
-119.0
 31
0.0
  0
LINE
  5
C5
  8
NOTE
  6
CONTINUOUS
 62
     4
 10
-265.0
 20
-99.0
 30
0.0
 11
-225.0
 21
-99.0
 31
0.0
  0
LINE
  5
C6
  8
DETAIL
  6
CONTINUOUS
 62
     5
 10
-238.5
 20
-68.0
 30
0.0
 11
-238.5
 21
-99.0
 31
0.0
  0
LINE
  5
C7
  8
DETAIL
  6
CONTINUOUS
 62
     5
 10
-251.5
 20
-68.0
 30
0.0
 11
-251.5
 21
-98.999999000000003
 31
0.0
  0
LINE
  5
C8
  8
DETAIL
  6
CONTINUOUS
 62
     5
 10
-271.5
 20
-68.0
 30
0.0
 11
-271.5
 21
-130.5
 31
0.0
  0
LINE
  5
C9
  8
DETAIL
  6
CONTINUOUS
 62
     5
 10
-271.5
 20
-68.0
 30
0.0
 11
-251.5
 21
-68.0
 31
0.0
  0
LINE
  5
CA
  8
DETAIL
  6
CONTINUOUS
 62
     5
 10
271.5
 20
-68.0
 30
0.0
 11
251.5
 21
-68.0
 31
0.0
  0
LINE
  5
CB
  8
DETAIL
  6
CONTINUOUS
 62
     5
 10
271.5
 20
-68.0
 30
0.0
 11
271.5
 21
-130.5
 31
0.0
  0
LINE
  5
CC
  8
DETAIL
  6
CONTINUOUS
 62
     5
 10
251.5
 20
-68.0
 30
0.0
 11
251.5
 21
-98.999999000000003
 31
0.0
  0
LINE
  5
CD
  8
DETAIL
  6
CONTINUOUS
 62
     5
 10
238.5
 20
-68.0
 30
0.0
 11
238.5
 21
-99.0
 31
0.0
  0
LINE
  5
CE
  8
NOTE
  6
CONTINUOUS
 62
     4
 10
245.0
 20
-79.0
 30
0.0
 11
245.0
 21
-119.0
 31
0.0
  0
LINE
  5
CF
  8
NOTE
  6
CONTINUOUS
 62
     4
 10
265.0
 20
-99.0
 30
0.0
 11
225.0
 21
-99.0
 31
0.0
  0
CIRCLE
  5
D0
  8
FIX
  6
CONTINUOUS
 62
    11
 10
245.0
 20
-99.0
 30
0.0
 40
6.5
  0
LINE
  5
D1
  8
DETAIL
  6
CONTINUOUS
 62
     5
 10
238.5
 20
-68.0
 30
0.0
 11
218.43430699999999
 21
-68.0
 31
0.0
  0
LINE
  5
D2
  8
DETAIL
  6
CONTINUOUS
 62
     5
 10
184.21897799999999
 20
-130.5
 30
0.0
 11
271.5
 21
-130.5
 31
0.0
  0
ARC
  5
D3
  8
DETAIL
  6
CONTINUOUS
 62
     5
 10
245.0
 20
-99.0
 30
0.0
 40
6.5
 50
180.0
 51
0.0
  0
LINE
  5
D4
  8
NOTE
  6
CONTINUOUS
 62
     4
 10
245.0
 20
99.0
 30
0.0
 11
344.70442400000002
 21
196.91332499999999
 31
0.0
  0
LINE
  5
D5
  8
NOTE
  6
CONTINUOUS
 62
     4
 10
265.67461200000002
 20
133.24267
 30
0.0
 11
245.0
 21
99.0
 31
0.0
  0
LINE
  5
D6
  8
NOTE
  6
CONTINUOUS
 62
     4
 10
245.0
 20
99.0
 30
0.0
 11
280.02607399999999
 21
118.317716
 31
0.0
  0
ARC
  5
D7
  8
DETAIL
  6
CONTINUOUS
 62
     5
 10
166.5
 20
17.093266
 30
0.0
 40
70.0
 50
0.0
 51
28.698291999999999
  0
ARC
  5
D8
  8
DETAIL
  6
CONTINUOUS
 62
     5
 10
166.5
 20
-17.093266
 30
0.0
 40
70.0
 50
331.30170800000002
 51
0.0
  0
ARC
  5
D9
  8
DETAIL
  6
CONTINUOUS
 62
     5
 10
-166.5
 20
17.093266
 30
0.0
 40
70.0
 50
151.30170799999999
 51
180.0
  0
ARC
  5
DA
  8
DETAIL
  6
CONTINUOUS
 62
     5
 10
-166.5
 20
-17.093266
 30
0.0
 40
70.0
 50
180.0
 51
208.69829200000001
  0
ARC
  5
DB
  8
OUTLINE
  6
CONTINUOUS
 62
     3
 10
-166.5
 20
-17.093266
 30
0.0
 40
70.0
 50
180.0
 51
208.69829200000001
  0
ARC
  5
DC
  8
OUTLINE
  6
CONTINUOUS
 62
     3
 10
-166.5
 20
17.093266
 30
0.0
 40
70.0
 50
151.30170799999999
 51
180.0
  0
ARC
  5
DD
  8
OUTLINE
  6
CONTINUOUS
 62
     3
 10
166.5
 20
-17.093266
 30
0.0
 40
70.0
 50
331.30170800000002
 51
0.0
  0
ARC
  5
DE
  8
OUTLINE
  6
CONTINUOUS
 62
     3
 10
166.5
 20
17.093266
 30
0.0
 40
70.0
 50
0.0
 51
28.698291999999999
  0
LINE
  5
DF
  8
OUTLINE
  6
CONTINUOUS
 62
     3
 10
227.90123399999999
 20
-50.707079999999991
 30
0.0
 11
161.5
 21
-172.0
 31
0.0
  0
LINE
  5
E0
  8
OUTLINE
  6
CONTINUOUS
 62
     3
 10
-227.90123399999999
 20
-50.707079999999991
 30
0.0
 11
-161.5
 21
-172.0
 31
0.0
  0
LINE
  5
E1
  8
OUTLINE
  6
CONTINUOUS
 62
     3
 10
227.90123399999999
 20
50.707079999999991
 30
0.0
 11
161.5
 21
172.0
 31
0.0
  0
LINE
  5
E2
  8
OUTLINE
  6
CONTINUOUS
 62
     3
 10
-227.90123399999999
 20
50.707079999999991
 30
0.0
 11
-161.5
 21
172.0
 31
0.0
  0
LINE
  5
E3
  8
OUTLINE
  6
CONTINUOUS
 62
     3
 10
-234.170886
 20
35.0
 30
0.0
 11
234.170886
 21
35.0
 31
0.0
  0
LINE
  5
E4
  8
OUTLINE
  6
CONTINUOUS
 62
     3
 10
-234.170886
 20
-35.0
 30
0.0
 11
234.170886
 21
-35.0
 31
0.0
  0
LINE
  5
E5
  8
OUTLINE
  6
CONTINUOUS
 62
     3
 10
236.5
 20
2.5
 30
0.0
 11
236.5
 21
17.093266
 31
0.0
  0
LINE
  5
E6
  8
OUTLINE
  6
CONTINUOUS
 62
     3
 10
-236.5
 20
2.5
 30
0.0
 11
-236.5
 21
17.093266
 31
0.0
  0
LINE
  5
E7
  8
OUTLINE
  6
CONTINUOUS
 62
     3
 10
-236.5
 20
-17.093266
 30
0.0
 11
-236.5
 21
-2.5
 31
0.0
  0
LINE
  5
E8
  8
OUTLINE
  6
CONTINUOUS
 62
     3
 10
236.5
 20
-17.093266
 30
0.0
 11
236.5
 21
-2.5
 31
0.0
  0
LINE
  5
E9
  8
OUTLINE
  6
CONTINUOUS
 62
     3
 10
-161.5
 20
172.0
 30
0.0
 11
161.5
 21
172.0
 31
0.0
  0
LINE
  5
EA
  8
OUTLINE
  6
CONTINUOUS
 62
     3
 10
-161.5
 20
-172.0
 30
0.0
 11
161.5
 21
-172.0
 31
0.0
  0
POINT
  5
EB
  8
ARRANGE
  6
CONTINUOUS
 62
     1
 10
0.0
 20
0.0
 30
0.0
  0
CIRCLE
  5
EC
  8
ARRANGE
  6
CONTINUOUS
 62
     1
 10
0.0
 20
0.0
 30
0.0
 40
40.0
  0
LINE
  5
ED
  8
DETAIL
  6
CONTINUOUS
 62
     5
 10
-271.5
 20
130.80000000000001
 30
0.0
 11
-251.5
 21
130.80000000000001
 31
0.0
  0
TEXT
  5
F1
  8
NOTE
  6
CONTINUOUS
 62
     4
 10
364.09492599999999
 20
226.21630099999999
 30
0.0
 40
64.0
  1
AH-4
 41
0.9
  0
LINE
  5
F2
  8
NOTE
  6
CONTINUOUS
 62
     4
 10
344.70442400000002
 20
196.91332499999999
 30
0.0
 11
613.47026100000005
 21
196.91332499999999
 31
0.0
  0
LINE
  5
F3
  8
NOTE
  6
CONTINUOUS
 62
     4
 10
-187.79993300000001
 20
146.90610699999999
 30
0.0
 11
-156.5
 21
122.0
 31
0.0
  0
LINE
  5
F4
  8
NOTE
  6
CONTINUOUS
 62
     4
 10
-156.5
 20
122.0
 30
0.0
 11
-171.15348399999999
 21
159.21928799999989
 31
0.0
  0
LINE
  5
F5
  8
NOTE
  6
CONTINUOUS
 62
     4
 10
-156.5
 20
122.0
 30
0.0
 11
-291.8159740000001
 21
296.69420600000001
 31
0.0
  0
TEXT
  5
F6
  8
NOTE
  6
CONTINUOUS
 62
     4
 10
-386.66340700000001
 20
318.31022300000001
 30
0.0
 40
64.0
  1
EL
 41
0.9
  0
LINE
  5
F7
  8
NOTE
  6
CONTINUOUS
 62
     4
 10
-291.8159740000001
 20
296.69420600000001
 30
0.0
 11
-396.79633100000001
 21
296.69420600000001
 31
0.0
  0
LINE
  5
F8
  8
DETAIL
  6
CONTINUOUS
 62
     5
 10
-257.5
 20
-1.5
 30
0.0
 11
257.5
 21
-1.5
 31
0.0
  0
LINE
  5
F9
  8
DETAIL
  6
CONTINUOUS
 62
     5
 10
-257.5
 20
1.5
 30
0.0
 11
257.5
 21
1.5
 31
0.0
  0
LINE
  5
FA
  8
DETAIL
  6
CONTINUOUS
 62
     5
 10
-257.5
 20
2.5
 30
0.0
 11
257.5
 21
2.5
 31
0.0
  0
LINE
  5
FB
  8
DETAIL
  6
CONTINUOUS
 62
     5
 10
-257.5
 20
-2.5
 30
0.0
 11
257.5
 21
-2.5
 31
0.0
  0
LINE
  5
FC
  8
DETAIL
  6
CONTINUOUS
 62
     5
 10
-257.5
 20
-2.5
 30
0.0
 11
-257.5
 21
2.5
 31
0.0
  0
LINE
  5
FD
  8
DETAIL
  6
CONTINUOUS
 62
     5
 10
257.5
 20
-2.5
 30
0.0
 11
257.5
 21
2.5
 31
0.0
  0
LINE
  5
FE
  8
OUTLINE
  6
CONTINUOUS
 62
     3
 10
-257.5
 20
-2.5
 30
0.0
 11
257.5
 21
-2.5
 31
0.0
  0
LINE
  5
FF
  8
OUTLINE
  6
CONTINUOUS
 62
     3
 10
-257.5
 20
2.5
 30
0.0
 11
257.5
 21
2.5
 31
0.0
  0
LINE
  5
100
  8
OUTLINE
  6
CONTINUOUS
 62
     3
 10
-257.5
 20
-2.5
 30
0.0
 11
-257.5
 21
2.5
 31
0.0
  0
LINE
  5
101
  8
OUTLINE
  6
CONTINUOUS
 62
     3
 10
257.5
 20
-2.5
 30
0.0
 11
257.5
 21
2.5
 31
0.0
  0
LINE
  5
102
  8
SIZE
  6
CONTINUOUS
 62
    30
 10
161.5
 20
-240.0
 30
0.0
 11
161.5
 21
-435.71593799999988
 31
0.0
  0
LINE
  5
103
  8
SIZE
  6
CONTINUOUS
 62
    30
 10
-161.5
 20
-240.0
 30
0.0
 11
-161.5
 21
-435.71593799999988
 31
0.0
  0
LINE
  5
104
  8
SIZE
  6
CONTINUOUS
 62
    30
 10
149.5
 20
-415.71593799999999
 30
0.0
 11
-149.5
 21
-415.71593799999999
 31
0.0
  0
CIRCLE
  5
105
  8
SIZE
  6
CONTINUOUS
 62
    30
 10
161.5
 20
-415.71593799999999
 30
0.0
 40
6.0
  0
LINE
  5
106
  8
SIZE
  6
CONTINUOUS
 62
    30
 10
161.5
 20
-415.71593799999999
 30
0.0
 11
149.5
 21
-415.71593799999999
 31
0.0
  0
CIRCLE
  5
107
  8
SIZE
  6
CONTINUOUS
 62
    30
 10
-161.5
 20
-415.71593799999999
 30
0.0
 40
6.0
  0
LINE
  5
108
  8
SIZE
  6
CONTINUOUS
 62
    30
 10
-161.5
 20
-415.71593799999999
 30
0.0
 11
-149.5
 21
-415.71593799999999
 31
0.0
  0
TEXT
  5
109
  8
SIZE
  6
CONTINUOUS
 62
    30
 10
-114.3771428571428
 20
-390.71593799999999
 30
0.0
 40
64.0
  1
φ323
 41
0.9
 72
     1
 11
0.0
 21
-390.71593799999999
 31
0.0
  0
POINT
  5
10A
  8
DEFPOINTS
  6
CONTINUOUS
 62
    30
 10
161.5
 20
-220.0
 30
0.0
  0
POINT
  5
10B
  8
DEFPOINTS
  6
CONTINUOUS
 62
    30
 10
-161.5
 20
-220.0
 30
0.0
  0
POINT
  5
10C
  8
DEFPOINTS
  6
CONTINUOUS
 62
    30
 10
-161.5
 20
-415.71593799999999
 30
0.0
  0
LINE
  5
10D
  8
SIZE
  6
CONTINUOUS
 62
    30
 10
257.5
 20
-22.5
 30
0.0
 11
257.5
 21
-581.31766900000002
 31
0.0
  0
LINE
  5
10E
  8
SIZE
  6
CONTINUOUS
 62
    30
 10
-257.5
 20
-22.5
 30
0.0
 11
-257.5
 21
-581.31766900000002
 31
0.0
  0
LINE
  5
10F
  8
SIZE
  6
CONTINUOUS
 62
    30
 10
245.5
 20
-561.31766900000002
 30
0.0
 11
-245.5
 21
-561.31766900000002
 31
0.0
  0
CIRCLE
  5
110
  8
SIZE
  6
CONTINUOUS
 62
    30
 10
257.5
 20
-561.31766900000002
 30
0.0
 40
6.0
  0
LINE
  5
111
  8
SIZE
  6
CONTINUOUS
 62
    30
 10
257.5
 20
-561.31766900000002
 30
0.0
 11
245.5
 21
-561.31766900000002
 31
0.0
  0
CIRCLE
  5
112
  8
SIZE
  6
CONTINUOUS
 62
    30
 10
-257.5
 20
-561.31766900000002
 30
0.0
 40
6.0
  0
LINE
  5
113
  8
SIZE
  6
CONTINUOUS
 62
    30
 10
-257.5
 20
-561.31766900000002
 30
0.0
 11
-245.5
 21
-561.31766900000002
 31
0.0
  0
TEXT
  5
114
  8
SIZE
  6
CONTINUOUS
 62
    30
 10
-108.89142857142851
 20
-536.31766900000002
 30
0.0
 40
64.0
  1
φ515
 41
0.9
 72
     1
 11
0.0
 21
-536.31766900000002
 31
0.0
  0
POINT
  5
115
  8
DEFPOINTS
  6
CONTINUOUS
 62
    30
 10
257.5
 20
-2.5
 30
0.0
  0
POINT
  5
116
  8
DEFPOINTS
  6
CONTINUOUS
 62
    30
 10
-257.5
 20
-2.5
 30
0.0
  0
POINT
  5
117
  8
DEFPOINTS
  6
CONTINUOUS
 62
    30
 10
-257.5
 20
-561.31766900000002
 30
0.0
  0
LINE
  5
118
  8
SIZE
  6
CONTINUOUS
 62
    30
 10
161.5
 20
240.0
 30
0.0
 11
161.5
 21
364.11391700000001
 31
0.0
  0
LINE
  5
119
  8
SIZE
  6
CONTINUOUS
 62
    30
 10
-161.5
 20
240.0
 30
0.0
 11
-161.5
 21
364.11391700000001
 31
0.0
  0
LINE
  5
11A
  8
SIZE
  6
CONTINUOUS
 62
    30
 10
149.5
 20
344.11391700000001
 30
0.0
 11
-149.5
 21
344.11391700000001
 31
0.0
  0
CIRCLE
  5
11B
  8
SIZE
  6
CONTINUOUS
 62
    30
 10
161.5
 20
344.11391700000001
 30
0.0
 40
6.0
  0
LINE
  5
11C
  8
SIZE
  6
CONTINUOUS
 62
    30
 10
161.5
 20
344.11391700000001
 30
0.0
 11
149.5
 21
344.11391700000001
 31
0.0
  0
CIRCLE
  5
11D
  8
SIZE
  6
CONTINUOUS
 62
    30
 10
-161.5
 20
344.11391700000001
 30
0.0
 40
6.0
  0
LINE
  5
11E
  8
SIZE
  6
CONTINUOUS
 62
    30
 10
-161.5
 20
344.11391700000001
 30
0.0
 11
-149.5
 21
344.11391700000001
 31
0.0
  0
TEXT
  5
11F
  8
SIZE
  6
CONTINUOUS
 62
    30
 10
-114.3771428571428
 20
369.11391700000001
 30
0.0
 40
64.0
  1
φ323
 41
0.9
 72
     1
 11
0.0
 21
369.11391700000001
 31
0.0
  0
POINT
  5
120
  8
DEFPOINTS
  6
CONTINUOUS
 62
    30
 10
161.5
 20
220.0
 30
0.0
  0
POINT
  5
121
  8
DEFPOINTS
  6
CONTINUOUS
 62
    30
 10
-161.5
 20
220.0
 30
0.0
  0
POINT
  5
122
  8
DEFPOINTS
  6
CONTINUOUS
 62
    30
 10
-161.5
 20
344.11391700000001
 30
0.0
  0
LINE
  5
123
  8
SIZE
  6
CONTINUOUS
 62
    30
 10
245.0
 20
139.0
 30
0.0
 11
245.0
 21
496.31085899999999
 31
0.0
  0
LINE
  5
124
  8
SIZE
  6
CONTINUOUS
 62
    30
 10
-245.0
 20
139.0
 30
0.0
 11
-245.0
 21
496.31085899999999
 31
0.0
  0
LINE
  5
125
  8
SIZE
  6
CONTINUOUS
 62
    30
 10
233.0
 20
476.31085899999988
 30
0.0
 11
-233.0
 21
476.31085899999988
 31
0.0
  0
CIRCLE
  5
126
  8
SIZE
  6
CONTINUOUS
 62
    30
 10
245.0
 20
476.31085899999988
 30
0.0
 40
6.0
  0
LINE
  5
127
  8
SIZE
  6
CONTINUOUS
 62
    30
 10
245.0
 20
476.31085899999988
 30
0.0
 11
233.0
 21
476.31085899999988
 31
0.0
  0
CIRCLE
  5
128
  8
SIZE
  6
CONTINUOUS
 62
    30
 10
-245.0
 20
476.31085899999988
 30
0.0
 40
6.0
  0
LINE
  5
129
  8
SIZE
  6
CONTINUOUS
 62
    30
 10
-245.0
 20
476.31085899999988
 30
0.0
 11
-233.0
 21
476.31085899999988
 31
0.0
  0
TEXT
  5
12A
  8
SIZE
  6
CONTINUOUS
 62
    30
 10
-74.05714285714285
 20
501.31085899999988
 30
0.0
 40
64.0
  1
490
 41
0.9
 72
     1
 11
0.0
 21
501.31085899999988
 31
0.0
  0
POINT
  5
12B
  8
DEFPOINTS
  6
CONTINUOUS
 62
    30
 10
245.0
 20
119.0
 30
0.0
  0
POINT
  5
12C
  8
DEFPOINTS
  6
CONTINUOUS
 62
    30
 10
-245.0
 20
119.0
 30
0.0
  0
POINT
  5
12D
  8
DEFPOINTS
  6
CONTINUOUS
 62
    30
 10
-245.0
 20
476.31085899999988
 30
0.0
  0
LINE
  5
12E
  8
SIZE
  6
CONTINUOUS
 62
    30
 10
271.5
 20
150.5
 30
0.0
 11
271.5
 21
626.195516
 31
0.0
  0
LINE
  5
12F
  8
SIZE
  6
CONTINUOUS
 62
    30
 10
-271.5
 20
150.5
 30
0.0
 11
-271.5
 21
626.195516
 31
0.0
  0
LINE
  5
130
  8
SIZE
  6
CONTINUOUS
 62
    30
 10
259.5
 20
606.195516
 30
0.0
 11
-259.5
 21
606.195516
 31
0.0
  0
CIRCLE
  5
131
  8
SIZE
  6
CONTINUOUS
 62
    30
 10
271.5
 20
606.195516
 30
0.0
 40
6.0
  0
LINE
  5
132
  8
SIZE
  6
CONTINUOUS
 62
    30
 10
271.5
 20
606.195516
 30
0.0
 11
259.5
 21
606.195516
 31
0.0
  0
CIRCLE
  5
133
  8
SIZE
  6
CONTINUOUS
 62
    30
 10
-271.5
 20
606.195516
 30
0.0
 40
6.0
  0
LINE
  5
134
  8
SIZE
  6
CONTINUOUS
 62
    30
 10
-271.5
 20
606.195516
 30
0.0
 11
-259.5
 21
606.195516
 31
0.0
  0
TEXT
  5
135
  8
SIZE
  6
CONTINUOUS
 62
    30
 10
-74.05714285714285
 20
631.195516
 30
0.0
 40
64.0
  1
543
 41
0.9
 72
     1
 11
0.0
 21
631.195516
 31
0.0
  0
POINT
  5
136
  8
DEFPOINTS
  6
CONTINUOUS
 62
    30
 10
271.5
 20
130.5
 30
0.0
  0
POINT
  5
137
  8
DEFPOINTS
  6
CONTINUOUS
 62
    30
 10
-271.5
 20
130.5
 30
0.0
  0
POINT
  5
138
  8
DEFPOINTS
  6
CONTINUOUS
 62
    30
 10
-271.5
 20
606.195516
 30
0.0
  0
LINE
  5
139
  8
SIZE
  6
CONTINUOUS
 62
    30
 10
291.5
 20
68.0
 30
0.0
 11
495.00855499999989
 21
68.0
 31
0.0
  0
LINE
  5
13A
  8
SIZE
  6
CONTINUOUS
 62
    30
 10
291.5
 20
-68.0
 30
0.0
 11
495.00855499999989
 21
-68.0
 31
0.0
  0
LINE
  5
13B
  8
SIZE
  6
CONTINUOUS
 62
    30
 10
475.008555
 20
56.0
 30
0.0
 11
475.008555
 21
-56.0
 31
0.0
  0
LINE
  5
13C
  8
SIZE
  6
CONTINUOUS
 62
    30
 10
475.008555
 20
-318.204545
 30
0.0
 11
475.008555
 21
-68.0
 31
0.0
  0
TEXT
  5
13D
  8
SIZE
  6
CONTINUOUS
 62
    30
 10
450.008555
 20
-293.204545
 30
0.0
 40
64.0
  1
136
 50
90.0
 41
0.9
 72
     1
 11
450.008555
 21
-226.00454500000001
 31
0.0
  0
CIRCLE
  5
13E
  8
SIZE
  6
CONTINUOUS
 62
    30
 10
475.008555
 20
68.0
 30
0.0
 40
6.0
  0
LINE
  5
13F
  8
SIZE
  6
CONTINUOUS
 62
    30
 10
475.008555
 20
68.0
 30
0.0
 11
475.008555
 21
56.0
 31
0.0
  0
CIRCLE
  5
140
  8
SIZE
  6
CONTINUOUS
 62
    30
 10
475.008555
 20
-68.0
 30
0.0
 40
6.0
  0
LINE
  5
141
  8
SIZE
  6
CONTINUOUS
 62
    30
 10
475.008555
 20
-68.0
 30
0.0
 11
475.008555
 21
-56.0
 31
0.0
  0
POINT
  5
142
  8
DEFPOINTS
  6
CONTINUOUS
 62
    30
 10
271.5
 20
68.0
 30
0.0
  0
POINT
  5
143
  8
DEFPOINTS
  6
CONTINUOUS
 62
    30
 10
271.5
 20
-68.0
 30
0.0
  0
POINT
  5
144
  8
DEFPOINTS
  6
CONTINUOUS
 62
    30
 10
475.008555
 20
-68.0
 30
0.0
  0
LINE
  5
145
  8
SIZE
  6
CONTINUOUS
 62
    30
 10
285.0
 20
99.0
 30
0.0
 11
617.19827199999986
 21
99.0
 31
0.0
  0
LINE
  5
146
  8
SIZE
  6
CONTINUOUS
 62
    30
 10
285.0
 20
-99.0
 30
0.0
 11
617.19827199999986
 21
-99.0
 31
0.0
  0
LINE
  5
147
  8
SIZE
  6
CONTINUOUS
 62
    30
 10
597.19827199999986
 20
87.0
 30
0.0
 11
597.19827199999986
 21
-87.0
 31
0.0
  0
CIRCLE
  5
148
  8
SIZE
  6
CONTINUOUS
 62
    30
 10
597.19827199999986
 20
99.0
 30
0.0
 40
6.0
  0
LINE
  5
149
  8
SIZE
  6
CONTINUOUS
 62
    30
 10
597.19827199999986
 20
99.0
 30
0.0
 11
597.19827199999986
 21
87.0
 31
0.0
  0
CIRCLE
  5
14A
  8
SIZE
  6
CONTINUOUS
 62
    30
 10
597.19827199999986
 20
-99.0
 30
0.0
 40
6.0
  0
LINE
  5
14B
  8
SIZE
  6
CONTINUOUS
 62
    30
 10
597.19827199999986
 20
-99.0
 30
0.0
 11
597.19827199999986
 21
-87.0
 31
0.0
  0
TEXT
  5
14C
  8
SIZE
  6
CONTINUOUS
 62
    30
 10
572.19827199999986
 20
-68.571428571428569
 30
0.0
 40
64.0
  1
198
 50
90.0
 41
0.9
 72
     1
 11
572.19827199999986
 21
0.0
 31
0.0
  0
POINT
  5
14D
  8
DEFPOINTS
  6
CONTINUOUS
 62
    30
 10
265.0
 20
99.0
 30
0.0
  0
POINT
  5
14E
  8
DEFPOINTS
  6
CONTINUOUS
 62
    30
 10
265.0
 20
-99.0
 30
0.0
  0
POINT
  5
14F
  8
DEFPOINTS
  6
CONTINUOUS
 62
    30
 10
597.19827199999986
 20
-99.0
 30
0.0
  0
LINE
  5
150
  8
SIZE
  6
CONTINUOUS
 62
    30
 10
291.5
 20
130.5
 30
0.0
 11
740.31938200000002
 21
130.5
 31
0.0
  0
LINE
  5
151
  8
SIZE
  6
CONTINUOUS
 62
    30
 10
291.5
 20
-130.5
 30
0.0
 11
740.31938200000002
 21
-130.5
 31
0.0
  0
LINE
  5
152
  8
SIZE
  6
CONTINUOUS
 62
    30
 10
720.31938200000002
 20
118.5
 30
0.0
 11
720.31938200000002
 21
-118.5
 31
0.0
  0
CIRCLE
  5
153
  8
SIZE
  6
CONTINUOUS
 62
    30
 10
720.31938200000002
 20
130.5
 30
0.0
 40
6.0
  0
LINE
  5
154
  8
SIZE
  6
CONTINUOUS
 62
    30
 10
720.31938200000002
 20
130.5
 30
0.0
 11
720.31938200000002
 21
118.5
 31
0.0
  0
CIRCLE
  5
155
  8
SIZE
  6
CONTINUOUS
 62
    30
 10
720.31938200000002
 20
-130.5
 30
0.0
 40
6.0
  0
LINE
  5
156
  8
SIZE
  6
CONTINUOUS
 62
    30
 10
720.31938200000002
 20
-130.5
 30
0.0
 11
720.31938200000002
 21
-118.5
 31
0.0
  0
TEXT
  5
157
  8
SIZE
  6
CONTINUOUS
 62
    30
 10
695.31938200000002
 20
-61.714285714285701
 30
0.0
 40
64.0
  1
261
 50
90.0
 41
0.9
 72
     1
 11
695.31938200000002
 21
0.0
 31
0.0
  0
POINT
  5
158
  8
DEFPOINTS
  6
CONTINUOUS
 62
    30
 10
271.5
 20
130.5
 30
0.0
  0
POINT
  5
159
  8
DEFPOINTS
  6
CONTINUOUS
 62
    30
 10
271.5
 20
-130.5
 30
0.0
  0
POINT
  5
15A
  8
DEFPOINTS
  6
CONTINUOUS
 62
    30
 10
720.31938200000002
 20
-130.5
 30
0.0
  0
LINE
  5
15B
  8
SIZE
  6
CONTINUOUS
 62
    30
 10
-181.5
 20
220.0
 30
0.0
 11
-458.64478699999989
 21
220.0
 31
0.0
  0
LINE
  5
15C
  8
SIZE
  6
CONTINUOUS
 62
    30
 10
-181.5
 20
172.0
 30
0.0
 11
-458.64478699999989
 21
172.0
 31
0.0
  0
LINE
  5
15D
  8
SIZE
  6
CONTINUOUS
 62
    30
 10
-438.64478700000001
 20
232.0
 30
0.0
 11
-438.64478700000001
 21
244.0
 31
0.0
  0
LINE
  5
15E
  8
SIZE
  6
CONTINUOUS
 62
    30
 10
-438.64478700000001
 20
160.0
 30
0.0
 11
-438.64478700000001
 21
148.0
 31
0.0
  0
LINE
  5
15F
  8
SIZE
  6
CONTINUOUS
 62
    30
 10
-438.64478700000001
 20
403.92564399999992
 30
0.0
 11
-438.64478700000001
 21
220.0
 31
0.0
  0
TEXT
  5
160
  8
SIZE
  6
CONTINUOUS
 62
    30
 10
-463.64478700000001
 20
285.66850057142858
 30
0.0
 40
64.0
  1
48
 50
90.0
 41
0.9
 72
     1
 11
-463.64478700000001
 21
332.29707200000001
 31
0.0
  0
LINE
  5
161
  8
SIZE
  6
CONTINUOUS
 62
    30
 10
-438.64478700000001
 20
220.0
 30
0.0
 11
-438.64478700000001
 21
172.0
 31
0.0
  0
LINE
  5
162
  8
SIZE
  6
CONTINUOUS
 62
    30
 10
-438.64478700000001
 20
220.0
 30
0.0
 11
-438.64478700000001
 21
172.0
 31
0.0
  0
CIRCLE
  5
163
  8
SIZE
  6
CONTINUOUS
 62
    30
 10
-438.64478700000001
 20
220.0
 30
0.0
 40
6.0
  0
LINE
  5
164
  8
SIZE
  6
CONTINUOUS
 62
    30
 10
-438.64478700000001
 20
220.0
 30
0.0
 11
-438.64478700000001
 21
232.0
 31
0.0
  0
CIRCLE
  5
165
  8
SIZE
  6
CONTINUOUS
 62
    30
 10
-438.64478700000001
 20
172.0
 30
0.0
 40
6.0
  0
LINE
  5
166
  8
SIZE
  6
CONTINUOUS
 62
    30
 10
-438.64478700000001
 20
172.0
 30
0.0
 11
-438.64478700000001
 21
160.0
 31
0.0
  0
POINT
  5
167
  8
DEFPOINTS
  6
CONTINUOUS
 62
    30
 10
-161.5
 20
220.0
 30
0.0
  0
POINT
  5
168
  8
DEFPOINTS
  6
CONTINUOUS
 62
    30
 10
-161.5
 20
172.0
 30
0.0
  0
POINT
  5
169
  8
DEFPOINTS
  6
CONTINUOUS
 62
    30
 10
-438.64478700000001
 20
172.0
 30
0.0
  0
LINE
  5
16A
  8
SIZE
  6
CONTINUOUS
 62
    30
 10
-181.5
 20
-172.0
 30
0.0
 11
-458.64478699999989
 21
-172.0
 31
0.0
  0
LINE
  5
16B
  8
SIZE
  6
CONTINUOUS
 62
    30
 10
-181.5
 20
-220.0
 30
0.0
 11
-458.64478699999989
 21
-220.0
 31
0.0
  0
LINE
  5
16C
  8
SIZE
  6
CONTINUOUS
 62
    30
 10
-438.64478700000001
 20
-160.0
 30
0.0
 11
-438.64478700000001
 21
-148.0
 31
0.0
  0
LINE
  5
16D
  8
SIZE
  6
CONTINUOUS
 62
    30
 10
-438.64478700000001
 20
-232.0
 30
0.0
 11
-438.64478700000001
 21
-244.0
 31
0.0
  0
LINE
  5
16E
  8
SIZE
  6
CONTINUOUS
 62
    30
 10
-438.64478700000001
 20
-407.78742299999988
 30
0.0
 11
-438.64478700000001
 21
-220.0
 31
0.0
  0
TEXT
  5
16F
  8
SIZE
  6
CONTINUOUS
 62
    30
 10
-463.64478700000001
 20
-382.78742342857151
 30
0.0
 40
64.0
  1
48
 50
90.0
 41
0.9
 72
     1
 11
-463.64478700000001
 21
-336.15885200000002
 31
0.0
  0
LINE
  5
170
  8
SIZE
  6
CONTINUOUS
 62
    30
 10
-438.64478700000001
 20
-172.0
 30
0.0
 11
-438.64478700000001
 21
-220.0
 31
0.0
  0
LINE
  5
171
  8
SIZE
  6
CONTINUOUS
 62
    30
 10
-438.64478700000001
 20
-172.0
 30
0.0
 11
-438.64478700000001
 21
-220.0
 31
0.0
  0
CIRCLE
  5
172
  8
SIZE
  6
CONTINUOUS
 62
    30
 10
-438.64478700000001
 20
-172.0
 30
0.0
 40
6.0
  0
LINE
  5
173
  8
SIZE
  6
CONTINUOUS
 62
    30
 10
-438.64478700000001
 20
-172.0
 30
0.0
 11
-438.64478700000001
 21
-160.0
 31
0.0
  0
CIRCLE
  5
174
  8
SIZE
  6
CONTINUOUS
 62
    30
 10
-438.64478700000001
 20
-220.0
 30
0.0
 40
6.0
  0
LINE
  5
175
  8
SIZE
  6
CONTINUOUS
 62
    30
 10
-438.64478700000001
 20
-220.0
 30
0.0
 11
-438.64478700000001
 21
-232.0
 31
0.0
  0
POINT
  5
176
  8
DEFPOINTS
  6
CONTINUOUS
 62
    30
 10
-161.5
 20
-172.0
 30
0.0
  0
POINT
  5
177
  8
DEFPOINTS
  6
CONTINUOUS
 62
    30
 10
-161.5
 20
-220.0
 30
0.0
  0
POINT
  5
178
  8
DEFPOINTS
  6
CONTINUOUS
 62
    30
 10
-438.64478700000001
 20
-220.0
 30
0.0
  0
LINE
  5
179
  8
SIZE
  6
CONTINUOUS
 62
    30
 10
-181.5
 20
220.0
 30
0.0
 11
-572.44985099999997
 21
220.0
 31
0.0
  0
LINE
  5
17A
  8
SIZE
  6
CONTINUOUS
 62
    30
 10
-181.5
 20
-220.0
 30
0.0
 11
-572.44985099999997
 21
-220.0
 31
0.0
  0
LINE
  5
17B
  8
SIZE
  6
CONTINUOUS
 62
    30
 10
-552.44985099999985
 20
208.0
 30
0.0
 11
-552.44985099999985
 21
-208.0
 31
0.0
  0
CIRCLE
  5
17C
  8
SIZE
  6
CONTINUOUS
 62
    30
 10
-552.44985099999985
 20
220.0
 30
0.0
 40
6.0
  0
LINE
  5
17D
  8
SIZE
  6
CONTINUOUS
 62
    30
 10
-552.44985099999985
 20
220.0
 30
0.0
 11
-552.44985099999985
 21
208.0
 31
0.0
  0
CIRCLE
  5
17E
  8
SIZE
  6
CONTINUOUS
 62
    30
 10
-552.44985099999985
 20
-220.0
 30
0.0
 40
6.0
  0
LINE
  5
17F
  8
SIZE
  6
CONTINUOUS
 62
    30
 10
-552.44985099999985
 20
-220.0
 30
0.0
 11
-552.44985099999985
 21
-208.0
 31
0.0
  0
TEXT
  5
180
  8
SIZE
  6
CONTINUOUS
 62
    30
 10
-577.44985099999985
 20
-74.05714285714285
 30
0.0
 40
64.0
  1
440
 50
90.0
 41
0.9
 72
     1
 11
-577.44985099999985
 21
0.0
 31
0.0
  0
POINT
  5
181
  8
DEFPOINTS
  6
CONTINUOUS
 62
    30
 10
-161.5
 20
220.0
 30
0.0
  0
POINT
  5
182
  8
DEFPOINTS
  6
CONTINUOUS
 62
    30
 10
-161.5
 20
-220.0
 30
0.0
  0
POINT
  5
183
  8
DEFPOINTS
  6
CONTINUOUS
 62
    30
 10
-552.44985099999985
 20
-220.0
 30
0.0
  0
CIRCLE
  5
184
  8
DETAIL
  6
CONTINUOUS
 62
     5
 10
0.0
 20
17.0
 30
0.0
 40
5.0
  0
LINE
  5
185
  8
NOTE
  6
CONTINUOUS
 62
     4
 10
0.0
 20
-3.0
 30
0.0
 11
0.0
 21
37.0
 31
0.0
  0
LINE
  5
186
  8
NOTE
  6
CONTINUOUS
 62
     4
 10
-20.0
 20
17.0
 30
0.0
 11
20.0
 21
17.0
 31
0.0
  0
LINE
  5
187
  8
NOTE
  6
CONTINUOUS
 62
     4
 39
50.0
 10
0.0
 20
17.0
 30
0.0
 11
324.19921199999999
 21
332.39254199999999
 31
0.0
  0
LINE
  5
188
  8
NOTE
  6
CONTINUOUS
 62
     4
 10
20.842608999999999
 20
51.14067399999999
 30
0.0
 11
0.0
 21
17.0
 31
0.0
  0
LINE
  5
189
  8
NOTE
  6
CONTINUOUS
 62
     4
 10
0.0
 20
17.0
 30
0.0
 11
35.120565999999997
 21
36.145386999999999
 31
0.0
  0
TEXT
  5
18A
  8
NOTE
  6
CONTINUOUS
 62
     4
 10
334.45243900000003
 20
381.6067470000001
 30
0.0
 40
64.0
  1
D(ドレンキャップ)
 41
0.9
  0
LINE
  5
18B
  8
NOTE
  6
CONTINUOUS
 62
     4
 10
324.19921199999999
 20
332.39254199999999
 30
0.0
 11
967.87613999999996
 21
332.39254199999999
 31
0.0
  0
TEXT
  5
19A
  8
ETC
  6
CONTINUOUS
 62
    61
 10
975.04602497581038
 20
983.93404357423412
 30
0.0
 40
64.0
  1
JF-200S3_6
 41
0.9
  0
TEXT
  5
19B
  8
ETC
  6
CONTINUOUS
 62
    61
 10
983.91857697581042
 20
873.68064257423396
 30
0.0
 40
64.0
  1
産業扇
 41
0.9
  0
TEXT
  5
19C
  8
ETC
  6
CONTINUOUS
 62
    61
 10
1044.99712497581
 20
762.98000057423405
 30
0.0
 40
50.0
  1
JF-200S1
 41
0.9
  0
TEXT
  5
19D
  8
ETC
  6
CONTINUOUS
 62
    61
 10
1044.99712497581
 20
673.23026115371295
 30
0.0
 40
50.0
  1
JF-200T1
 41
0.9
  0
TEXT
  5
19E
  8
ETC
  6
CONTINUOUS
 62
    61
 10
1044.99712497581
 20
586.27741874763171
 30
0.0
 40
50.0
  1
JF-250S1
 41
0.9
  0
TEXT
  5
19F
  8
ETC
  6
CONTINUOUS
 62
    61
 10
1044.99712497581
 20
500.95955516993678
 30
0.0
 40
50.0
  1
JF-250T1
 41
0.9
  0
TEXT
  5
1A0
  8
ETC
  6
CONTINUOUS
 62
    61
 10
1044.99712497581
 20
410.77034864065388
 30
0.0
 40
50.0
  1
JF-200S3
 41
0.9
  0
TEXT
  5
1A1
  8
ETC
  6
CONTINUOUS
 62
    61
 10
1044.99712497581
 20
321.020609220133
 30
0.0
 40
50.0
  1
JF-200T3
 41
0.9
  0
TEXT
  5
1A2
  8
ETC
  6
CONTINUOUS
 62
    61
 10
1044.99712497581
 20
234.06776681405171
 30
0.0
 40
50.0
  1
JF-250S3
 41
0.9
  0
TEXT
  5
1A3
  8
ETC
  6
CONTINUOUS
 62
    61
 10
1044.99712497581
 20
148.74990323635669
 30
0.0
 40
50.0
  1
JF-250T3
 41
0.9
  0
ENDSEC
  0
EOF
