  0
SECTION
  2
HEADER
  9
$ACADVER
  1
AC1009
  9
$INSBASE
 10
0.0
 20
0.0
 30
0.0
  9
$EXTMIN
 10
-376.59757836558668
 20
-1039.1693005095819
 30
-0.0007627857894761
  9
$EXTMAX
 10
1088.552868085158
 20
562.36267888727889
 30
50.000763018648549
  9
$LIMMIN
 10
-2970.0
 20
-2100.0
  9
$LIMMAX
 10
2970.0
 20
2100.0
  9
$ORTHOMODE
 70
     0
  9
$REGENMODE
 70
     0
  9
$FILLMODE
 70
     1
  9
$QTEXTMODE
 70
     0
  9
$MIRRTEXT
 70
     0
  9
$DRAGMODE
 70
     2
  9
$LTSCALE
 40
20.0
  9
$OSMODE
 70
    37
  9
$ATTMODE
 70
     1
  9
$TEXTSIZE
 40
64.0
  9
$TRACEWID
 40
0.05
  9
$TEXTSTYLE
  7
STANDARD
  9
$CLAYER
  8
SIZE
  9
$CELTYPE
  6
CONTINUOUS
  9
$CECOLOR
 62
    30
  9
$DIMSCALE
 40
1.0
  9
$DIMASZ
 40
12.0
  9
$DIMEXO
 40
20.0
  9
$DIMDLI
 40
200.0
  9
$DIMRND
 40
0.0
  9
$DIMDLE
 40
0.0
  9
$DIMEXE
 40
20.0
  9
$DIMTP
 40
0.0
  9
$DIMTM
 40
0.0
  9
$DIMTXT
 40
64.0
  9
$DIMCEN
 40
0.09
  9
$DIMTSZ
 40
0.0
  9
$DIMTOL
 70
     0
  9
$DIMLIM
 70
     0
  9
$DIMTIH
 70
     0
  9
$DIMTOH
 70
     0
  9
$DIMSE1
 70
     0
  9
$DIMSE2
 70
     0
  9
$DIMTAD
 70
     1
  9
$DIMZIN
 70
     8
  9
$DIMBLK
  1
DOT1
  9
$DIMASO
 70
     1
  9
$DIMSHO
 70
     0
  9
$DIMPOST
  1

  9
$DIMAPOST
  1

  9
$DIMALT
 70
     0
  9
$DIMALTD
 70
     2
  9
$DIMALTF
 40
25.399999999999999
  9
$DIMLFAC
 40
1.0
  9
$DIMTOFL
 70
     1
  9
$DIMTVP
 40
0.0
  9
$DIMTIX
 70
     1
  9
$DIMSOXD
 70
     0
  9
$DIMSAH
 70
     1
  9
$DIMBLK1
  1
ORIGIN
  9
$DIMBLK2
  1
ORIGIN
  9
$DIMSTYLE
  2
STANDARD
  9
$DIMCLRD
 70
     7
  9
$DIMCLRE
 70
     7
  9
$DIMCLRT
 70
     7
  9
$DIMTFAC
 40
1.0
  9
$DIMGAP
 40
25.0
  9
$LUNITS
 70
     2
  9
$LUPREC
 70
     4
  9
$SKETCHINC
 40
0.1
  9
$FILLETRAD
 40
4.0
  9
$AUNITS
 70
     1
  9
$AUPREC
 70
     3
  9
$MENU
  1
ACAD
  9
$ELEVATION
 40
0.0
  9
$PELEVATION
 40
0.0
  9
$THICKNESS
 40
50.0
  9
$LIMCHECK
 70
     0
  9
$BLIPMODE
 70
     0
  9
$CHAMFERA
 40
0.0
  9
$CHAMFERB
 40
0.0
  9
$SKPOLY
 70
     0
  9
$TDCREATE
 40
2453138.7308658799
  9
$TDUPDATE
 40
2454935.389880266
  9
$TDINDWG
 40
0.0244372685
  9
$TDUSRTIMER
 40
0.0244372685
  9
$USRTIMER
 70
     1
  9
$ANGBASE
 50
0.0
  9
$ANGDIR
 70
     0
  9
$PDMODE
 70
     3
  9
$PDSIZE
 40
-2.0
  9
$PLINEWID
 40
0.0
  9
$COORDS
 70
     0
  9
$SPLFRAME
 70
     0
  9
$SPLINETYPE
 70
     6
  9
$SPLINESEGS
 70
     8
  9
$ATTDIA
 70
     0
  9
$ATTREQ
 70
     1
  9
$HANDLING
 70
     1
  9
$HANDSEED
  5
1BF
  9
$SURFTAB1
 70
     6
  9
$SURFTAB2
 70
     6
  9
$SURFTYPE
 70
     6
  9
$SURFU
 70
     6
  9
$SURFV
 70
     6
  9
$UCSNAME
  2

  9
$UCSORG
 10
0.0
 20
0.0
 30
0.0
  9
$UCSXDIR
 10
1.0
 20
0.0
 30
0.0
  9
$UCSYDIR
 10
0.0
 20
1.0
 30
0.0
  9
$PUCSNAME
  2

  9
$PUCSORG
 10
0.0
 20
0.0
 30
0.0
  9
$PUCSXDIR
 10
1.0
 20
0.0
 30
0.0
  9
$PUCSYDIR
 10
0.0
 20
1.0
 30
0.0
  9
$USERI1
 70
     0
  9
$USERI2
 70
     0
  9
$USERI3
 70
     0
  9
$USERI4
 70
     0
  9
$USERI5
 70
     0
  9
$USERR1
 40
20.0
  9
$USERR2
 40
0.0
  9
$USERR3
 40
0.0
  9
$USERR4
 40
0.0
  9
$USERR5
 40
0.0
  9
$WORLDVIEW
 70
     1
  9
$SHADEDGE
 70
     3
  9
$SHADEDIF
 70
    70
  9
$TILEMODE
 70
     1
  9
$MAXACTVP
 70
    48
  9
$PLIMCHECK
 70
     0
  9
$PEXTMIN
 10
-1.0000000000000000E+020
 20
-1.0000000000000000E+020
 30
-1.0000000000000000E+020
  9
$PEXTMAX
 10
1.0000000000000000E+020
 20
1.0000000000000000E+020
 30
1.0000000000000000E+020
  9
$PLIMMIN
 10
0.0
 20
0.0
  9
$PLIMMAX
 10
12.0
 20
9.0
  9
$UNITMODE
 70
     0
  9
$VISRETAIN
 70
     0
  9
$PLINEGEN
 70
     0
  9
$PSLTSCALE
 70
     0
  0
ENDSEC
  0
SECTION
  2
TABLES
  0
TABLE
  2
VPORT
 70
     1
  0
VPORT
  2
*ACTIVE
 70
     0
 10
0.0
 20
0.0
 11
1.0
 21
1.0
 12
414.91480001977101
 22
-193.499260608047
 13
0.0
 23
0.0
 14
1.0
 24
1.0
 15
0.0
 25
0.0
 16
0.0
 26
0.0
 36
1.0
 17
0.0
 27
0.0
 37
0.0
 40
1814.187591646257
 41
1.3098995695839311
 42
50.0
 43
0.0
 44
0.0
 50
0.0
 51
0.0
 71
     0
 72
  1000
 73
     1
 74
     0
 75
     0
 76
     0
 77
     0
 78
     0
  0
ENDTAB
  0
TABLE
  2
LTYPE
 70
     3
  0
LTYPE
  2
CONTINUOUS
 70
     0
  3
実線
 72
    65
 73
     0
 40
0.0
  0
LTYPE
  2
DASHDOT
 70
     0
  3
____ _ ____ _ ____ _ ____ _ ____ _ ____ _ ____
 72
    65
 73
     4
 40
5.5
 49
4.0
 49
-0.6
 49
0.3
 49
-0.6
  0
ENDTAB
  0
TABLE
  2
LAYER
 70
    12
  0
LAYER
  2
0
 70
     0
 62
     7
  6
CONTINUOUS
  0
LAYER
  2
SIZE
 70
     0
 62
    30
  6
CONTINUOUS
  0
LAYER
  2
BASIS
 70
     0
 62
     6
  6
DASHDOT
  0
LAYER
  2
OUTLINE
 70
     0
 62
     3
  6
CONTINUOUS
  0
LAYER
  2
DETAIL
 70
     0
 62
     5
  6
CONTINUOUS
  0
LAYER
  2
ARRANGE
 70
     0
 62
     1
  6
CONTINUOUS
  0
LAYER
  2
DEFPOINTS
 70
     0
 62
     7
  6
CONTINUOUS
  0
LAYER
  2
ETC
 70
     0
 62
    61
  6
CONTINUOUS
  0
LAYER
  2
FIX
 70
     0
 62
    11
  6
CONTINUOUS
  0
LAYER
  2
NOTE
 70
     0
 62
     4
  6
CONTINUOUS
  0
LAYER
  2
SERVICESPACE
 70
     0
 62
     2
  6
DASHDOT
  0
LAYER
  2
SYMBOLLINE
 70
     0
 62
    15
  6
CONTINUOUS
  0
ENDTAB
  0
TABLE
  2
STYLE
 70
     2
  0
STYLE
  2
STANDARD
 70
     0
 40
64.0
 41
0.9
 50
0.0
 71
     0
 42
64.0
  3
SIMPLEX.shx
  4
BIGFONT.shx
  0
STYLE
  2
ANNOTATIVE
 70
     0
 40
0.0
 41
1.0
 50
0.0
 71
     0
 42
0.2
  3
txt
  4

  0
ENDTAB
  0
TABLE
  2
VIEW
 70
     1
  0
VIEW
  2
ALL
 70
     0
 40
4282.6198079999986
 10
0.0
 20
41.309903999999989
 41
5940.0
 11
0.0
 21
0.0
 31
1.0
 12
0.0
 22
0.0
 32
0.0
 42
50.0
 43
0.0
 44
0.0
 50
0.0
 71
     0
  0
ENDTAB
  0
TABLE
  2
UCS
 70
     0
  0
ENDTAB
  0
TABLE
  2
APPID
 70
     5
  0
APPID
  2
ACAD
 70
     0
  0
APPID
  2
ACADANNOTATIVE
 70
     0
  0
APPID
  2
ACAD_MLEADERVER
 70
     0
  0
APPID
  2
AUTOCAD_POSTSCRIPT_FIGURE
 70
     0
  0
APPID
  2
ACAD_EXEMPT_FROM_CAD_STANDARDS
 70
     0
  0
ENDTAB
  0
TABLE
  2
DIMSTYLE
 70
     2
  0
DIMSTYLE
  2
STANDARD
 70
     0
  3

  4

  5

  6

  7

 40
1.0
 41
0.18
 42
0.0625
 43
0.38
 44
0.18
 45
0.0
 46
0.0
 47
0.0
 48
0.0
140
0.18
141
0.09
142
0.0
143
25.399999999999999
144
1.0
145
0.0
146
1.0
147
0.09
 71
     0
 72
     0
 73
     1
 74
     1
 75
     0
 76
     0
 77
     0
 78
     0
170
     0
171
     2
172
     0
173
     0
174
     0
175
     0
176
     7
177
     7
178
     7
  0
DIMSTYLE
  2
ANNOTATIVE
 70
     0
  3

  4

  5

  6

  7

 40
1.0
 41
0.18
 42
0.0625
 43
0.38
 44
0.18
 45
0.0
 46
0.0
 47
0.0
 48
0.0
140
0.18
141
0.09
142
0.0
143
25.399999999999999
144
1.0
145
0.0
146
1.0
147
0.09
 71
     0
 72
     0
 73
     1
 74
     1
 75
     0
 76
     0
 77
     0
 78
     0
170
     0
171
     2
172
     0
173
     0
174
     0
175
     0
176
     0
177
     0
178
     0
  0
ENDTAB
  0
ENDSEC
  0
SECTION
  2
BLOCKS
  0
BLOCK
  8
0
  2
$MODEL_SPACE
 70
     0
 10
0.0
 20
0.0
 30
0.0
  3
$MODEL_SPACE
  1

  0
ENDBLK
  5
76
  8
0
  0
BLOCK
 67
     1
  8
0
  2
$PAPER_SPACE
 70
     0
 10
0.0
 20
0.0
 30
0.0
  3
$PAPER_SPACE
  1

  0
ENDBLK
  5
72
 67
     1
  8
0
  0
BLOCK
  8
0
  2
DOT1
 70
     0
 10
0.0
 20
0.0
 30
0.0
  3
DOT1
  1

  0
CIRCLE
  5
8C
  8
SIZE
  6
CONTINUOUS
 62
     7
 10
0.0
 20
0.0
 30
0.0
 40
3.0
  0
ENDBLK
  5
8D
  8
0
  0
BLOCK
  8
0
  2
_ORIGIN
 70
     0
 10
0.0
 20
0.0
 30
0.0
  3
_ORIGIN
  1

  0
CIRCLE
  5
90
  8
0
  6
CONTINUOUS
 62
     7
 10
0.0
 20
0.0
 30
0.0
 40
0.5
  0
LINE
  5
91
  8
0
  6
CONTINUOUS
 62
     7
 10
0.0
 20
0.0
 30
0.0
 11
-1.0
 21
0.0
 31
0.0
  0
ENDBLK
  5
92
  8
0
  0
ENDSEC
  0
SECTION
  2
ENTITIES
  0
LINE
  5
96
  8
BASIS
  6
DASHDOT
 62
     6
 10
0.0
 20
-732.84107400000005
 30
0.0
 11
0.0
 21
32.965510999999999
 31
0.0
  0
LINE
  5
97
  8
BASIS
  6
DASHDOT
 62
     6
 10
-376.42438399999998
 20
-342.5
 30
0.0
 11
375.10236400000002
 21
-342.5
 31
0.0
  0
LINE
  5
98
  8
NOTE
  6
CONTINUOUS
 62
     4
 10
-330.0
 20
-362.5
 30
0.0
 11
-330.0
 21
-322.5
 31
0.0
  0
LINE
  5
99
  8
NOTE
  6
CONTINUOUS
 62
     4
 10
-310.0
 20
-342.5
 30
0.0
 11
-350.0
 21
-342.5
 31
0.0
  0
LINE
  5
9A
  8
DETAIL
  6
CONTINUOUS
 62
     5
 10
-320.77572800000002
 20
-354.5
 30
0.0
 11
-356.5
 21
-354.5
 31
0.0
  0
LINE
  5
9B
  8
DETAIL
  6
CONTINUOUS
 62
     5
 10
-316.5
 20
-372.5
 30
0.0
 11
-258.18269900000001
 21
-372.5
 31
0.0
  0
LINE
  5
9C
  8
DETAIL
  6
CONTINUOUS
 62
     5
 10
-356.5
 20
-342.5
 30
0.0
 11
-262.55964
 21
-342.5
 31
0.0
  0
ARC
  5
9D
  8
DETAIL
  6
CONTINUOUS
 62
     5
 10
-157.55964
 20
-342.5
 30
0.0
 40
105.0
 50
180.0
 51
196.60155
  0
LINE
  5
9E
  8
NOTE
  6
CONTINUOUS
 62
     4
 10
330.0
 20
-342.5
 30
0.0
 11
443.98218899999989
 21
-234.741604
 31
0.0
  0
LINE
  5
9F
  8
NOTE
  6
CONTINUOUS
 62
     4
 10
351.29247800000002
 20
-308.63806899999997
 30
0.0
 11
330.0
 21
-342.5
 31
0.0
  0
LINE
  5
A0
  8
NOTE
  6
CONTINUOUS
 62
     4
 10
330.0
 20
-342.5
 30
0.0
 11
365.37079199999999
 21
-323.82094599999999
 31
0.0
  0
LINE
  5
A1
  8
DETAIL
  6
CONTINUOUS
 62
     5
 10
-356.5
 20
-335.0
 30
0.0
 11
-356.5
 21
-354.5
 31
0.0
  0
LINE
  5
A2
  8
DETAIL
  6
CONTINUOUS
 62
     5
 10
-336.5
 20
-335.0
 30
0.0
 11
-336.5
 21
-342.5
 31
0.0
  0
LINE
  5
A3
  8
DETAIL
  6
CONTINUOUS
 62
     5
 10
-336.5
 20
-335.0
 30
0.0
 11
-356.5
 21
-335.0
 31
0.0
  0
LINE
  5
A4
  8
DETAIL
  6
CONTINUOUS
 62
     5
 10
-323.5
 20
-354.5
 30
0.0
 11
-323.5
 21
-365.5
 31
0.0
  0
CIRCLE
  5
A5
  8
FIX
  6
CONTINUOUS
 62
    11
 10
-330.0
 20
-342.5
 30
0.0
 40
6.5
  0
ARC
  5
A6
  8
DETAIL
  6
CONTINUOUS
 62
     5
 10
-316.5
 20
-365.5
 30
0.0
 40
7.0
 50
180.0
 51
270.0
  0
LINE
  5
A7
  8
DETAIL
  6
CONTINUOUS
 62
     5
 10
-314.04659700000002
 20
-359.57157999999998
 30
0.0
 11
-310.34159799999998
 21
-372.5
 31
0.0
  0
ARC
  5
A8
  8
DETAIL
  6
CONTINUOUS
 62
     5
 10
-320.77572800000002
 20
-361.5
 30
0.0
 40
7.0
 50
15.991130999999999
 51
90.0
  0
CIRCLE
  5
A9
  8
DETAIL
  6
CONTINUOUS
 62
     5
 10
0.0
 20
-342.5
 30
0.0
 40
250.0
  0
ARC
  5
AA
  8
DETAIL
  6
CONTINUOUS
 62
     5
 10
0.0
 20
-342.5
 30
0.0
 40
321.5
 50
185.16553300000001
 51
354.83446700000002
  0
ARC
  5
AB
  8
DETAIL
  6
CONTINUOUS
 62
     5
 10
0.0
 20
-342.5
 30
0.0
 40
342.5
 50
182.00785400000001
 51
357.99214599999999
  0
CIRCLE
  5
AC
  8
OUTLINE
  6
CONTINUOUS
 62
     3
 10
0.0
 20
-342.5
 30
0.0
 40
342.5
  0
ARC
  5
AD
  8
DETAIL
  6
CONTINUOUS
 62
     5
 10
0.0
 20
-342.5
 30
0.0
 40
321.5
 50
0.0
 51
180.0
  0
ARC
  5
AE
  8
DETAIL
  6
CONTINUOUS
 62
     5
 10
0.0
 20
-342.5
 30
0.0
 40
342.5
 50
1.2547520000000001
 51
178.745248
  0
ARC
  5
AF
  8
DETAIL
  6
CONTINUOUS
 62
     5
 10
320.77572800000002
 20
-361.5
 30
0.0
 40
7.0
 50
90.0
 51
164.008869
  0
LINE
  5
B0
  8
DETAIL
  6
CONTINUOUS
 62
     5
 10
314.04659700000002
 20
-359.57157999999998
 30
0.0
 11
310.34159799999998
 21
-372.5
 31
0.0
  0
ARC
  5
B1
  8
DETAIL
  6
CONTINUOUS
 62
     5
 10
316.5
 20
-365.5
 30
0.0
 40
7.0
 50
270.0
 51
0.0
  0
CIRCLE
  5
B2
  8
FIX
  6
CONTINUOUS
 62
    11
 10
330.0
 20
-342.5
 30
0.0
 40
6.5
  0
LINE
  5
B3
  8
DETAIL
  6
CONTINUOUS
 62
     5
 10
323.5
 20
-354.5
 30
0.0
 11
323.5
 21
-365.5
 31
0.0
  0
LINE
  5
B4
  8
DETAIL
  6
CONTINUOUS
 62
     5
 10
336.5
 20
-335.0
 30
0.0
 11
356.5
 21
-335.0
 31
0.0
  0
LINE
  5
B5
  8
DETAIL
  6
CONTINUOUS
 62
     5
 10
336.5
 20
-335.0
 30
0.0
 11
336.5
 21
-342.5
 31
0.0
  0
LINE
  5
B6
  8
DETAIL
  6
CONTINUOUS
 62
     5
 10
356.5
 20
-335.0
 30
0.0
 11
356.5
 21
-354.5
 31
0.0
  0
ARC
  5
B7
  8
DETAIL
  6
CONTINUOUS
 62
     5
 10
157.55964
 20
-342.5
 30
0.0
 40
105.0
 50
343.39845000000003
 51
0.0
  0
LINE
  5
B8
  8
DETAIL
  6
CONTINUOUS
 62
     5
 10
356.5
 20
-342.5
 30
0.0
 11
262.55964
 21
-342.5
 31
0.0
  0
LINE
  5
B9
  8
DETAIL
  6
CONTINUOUS
 62
     5
 10
316.5
 20
-372.5
 30
0.0
 11
258.18269900000001
 21
-372.5
 31
0.0
  0
LINE
  5
BA
  8
DETAIL
  6
CONTINUOUS
 62
     5
 10
320.77572800000002
 20
-354.5
 30
0.0
 11
356.5
 21
-354.5
 31
0.0
  0
LINE
  5
BB
  8
NOTE
  6
CONTINUOUS
 62
     4
 10
330.0
 20
-362.5
 30
0.0
 11
330.0
 21
-322.5
 31
0.0
  0
LINE
  5
BC
  8
NOTE
  6
CONTINUOUS
 62
     4
 10
310.0
 20
-342.5
 30
0.0
 11
350.0
 21
-342.5
 31
0.0
  0
POINT
  5
BD
  8
ARRANGE
  6
CONTINUOUS
 62
     1
 10
0.0
 20
0.0
 30
0.0
  0
CIRCLE
  5
BE
  8
ARRANGE
  6
CONTINUOUS
 62
     1
 10
0.0
 20
0.0
 30
0.0
 40
40.0
  0
TEXT
  5
BF
  8
NOTE
  6
CONTINUOUS
 62
     4
 10
464.95254099999988
 20
-205.438627
 30
0.0
 40
64.0
  1
AH-4
 41
0.9
  0
LINE
  5
C0
  8
NOTE
  6
CONTINUOUS
 62
     4
 10
443.98218899999989
 20
-234.741604
 30
0.0
 11
714.32787499999995
 21
-234.741604
 31
0.0
  0
LINE
  5
C1
  8
SIZE
  6
CONTINUOUS
 62
    30
 10
330.0
 20
-382.5
 30
0.0
 11
330.0
 21
-902.99473000000012
 31
0.0
  0
LINE
  5
C2
  8
SIZE
  6
CONTINUOUS
 62
    30
 10
-330.0
 20
-382.5
 30
0.0
 11
-330.0
 21
-902.99473000000012
 31
0.0
  0
LINE
  5
C3
  8
SIZE
  6
CONTINUOUS
 62
    30
 10
318.0
 20
-882.99473
 30
0.0
 11
-318.0
 21
-882.99473
 31
0.0
  0
CIRCLE
  5
C4
  8
SIZE
  6
CONTINUOUS
 62
    30
 10
330.0
 20
-882.99473
 30
0.0
 40
6.0
  0
LINE
  5
C5
  8
SIZE
  6
CONTINUOUS
 62
    30
 10
330.0
 20
-882.99473
 30
0.0
 11
318.0
 21
-882.99473
 31
0.0
  0
CIRCLE
  5
C6
  8
SIZE
  6
CONTINUOUS
 62
    30
 10
-330.0
 20
-882.99473
 30
0.0
 40
6.0
  0
LINE
  5
C7
  8
SIZE
  6
CONTINUOUS
 62
    30
 10
-330.0
 20
-882.99473
 30
0.0
 11
-318.0
 21
-882.99473
 31
0.0
  0
TEXT
  5
C8
  8
SIZE
  6
CONTINUOUS
 62
    30
 10
-74.05714285714285
 20
-857.99473
 30
0.0
 40
64.0
  1
660
 41
0.9
 72
     1
 11
0.0
 21
-857.99473
 31
0.0
  0
POINT
  5
C9
  8
DEFPOINTS
  6
CONTINUOUS
 62
    30
 10
330.0
 20
-362.5
 30
0.0
  0
POINT
  5
CA
  8
DEFPOINTS
  6
CONTINUOUS
 62
    30
 10
-330.0
 20
-362.5
 30
0.0
  0
POINT
  5
CB
  8
DEFPOINTS
  6
CONTINUOUS
 62
    30
 10
-330.0
 20
-882.99473
 30
0.0
  0
LINE
  5
CC
  8
SIZE
  6
CONTINUOUS
 62
    30
 10
356.5
 20
-374.5
 30
0.0
 11
356.5
 21
-1038.8963309999999
 31
0.0
  0
LINE
  5
CD
  8
SIZE
  6
CONTINUOUS
 62
    30
 10
-356.5
 20
-374.5
 30
0.0
 11
-356.5
 21
-1038.8963309999999
 31
0.0
  0
LINE
  5
CE
  8
SIZE
  6
CONTINUOUS
 62
    30
 10
344.5
 20
-1018.896331
 30
0.0
 11
-344.5
 21
-1018.896331
 31
0.0
  0
CIRCLE
  5
CF
  8
SIZE
  6
CONTINUOUS
 62
    30
 10
356.5
 20
-1018.896331
 30
0.0
 40
6.0
  0
LINE
  5
D0
  8
SIZE
  6
CONTINUOUS
 62
    30
 10
356.5
 20
-1018.896331
 30
0.0
 11
344.5
 21
-1018.896331
 31
0.0
  0
CIRCLE
  5
D1
  8
SIZE
  6
CONTINUOUS
 62
    30
 10
-356.5
 20
-1018.896331
 30
0.0
 40
6.0
  0
LINE
  5
D2
  8
SIZE
  6
CONTINUOUS
 62
    30
 10
-356.5
 20
-1018.896331
 30
0.0
 11
-344.5
 21
-1018.896331
 31
0.0
  0
TEXT
  5
D3
  8
SIZE
  6
CONTINUOUS
 62
    30
 10
-68.571428571428569
 20
-993.89633100000003
 30
0.0
 40
64.0
  1
713
 41
0.9
 72
     1
 11
0.0
 21
-993.89633100000003
 31
0.0
  0
POINT
  5
D4
  8
DEFPOINTS
  6
CONTINUOUS
 62
    30
 10
356.5
 20
-354.5
 30
0.0
  0
POINT
  5
D5
  8
DEFPOINTS
  6
CONTINUOUS
 62
    30
 10
-356.5
 20
-354.5
 30
0.0
  0
POINT
  5
D6
  8
DEFPOINTS
  6
CONTINUOUS
 62
    30
 10
-356.5
 20
-1018.896331
 30
0.0
  0
LINE
  5
D7
  8
SIZE
  6
CONTINUOUS
 62
    30
 10
-250.0
 20
-322.5
 30
0.0
 11
-250.0
 21
131.88840500000001
 31
0.0
  0
LINE
  5
D8
  8
SIZE
  6
CONTINUOUS
 62
    30
 10
250.0
 20
-322.5
 30
0.0
 11
250.0
 21
131.88840500000001
 31
0.0
  0
LINE
  5
D9
  8
SIZE
  6
CONTINUOUS
 62
    30
 10
-238.0
 20
111.88840500000001
 30
0.0
 11
238.0
 21
111.88840500000001
 31
0.0
  0
CIRCLE
  5
DA
  8
SIZE
  6
CONTINUOUS
 62
    30
 10
-250.0
 20
111.88840500000001
 30
0.0
 40
6.0
  0
LINE
  5
DB
  8
SIZE
  6
CONTINUOUS
 62
    30
 10
-250.0
 20
111.88840500000001
 30
0.0
 11
-238.0
 21
111.88840500000001
 31
0.0
  0
CIRCLE
  5
DC
  8
SIZE
  6
CONTINUOUS
 62
    30
 10
250.0
 20
111.88840500000001
 30
0.0
 40
6.0
  0
LINE
  5
DD
  8
SIZE
  6
CONTINUOUS
 62
    30
 10
250.0
 20
111.88840500000001
 30
0.0
 11
238.0
 21
111.88840500000001
 31
0.0
  0
TEXT
  5
DE
  8
SIZE
  6
CONTINUOUS
 62
    30
 10
-114.3771428571428
 20
136.88840500000001
 30
0.0
 40
64.0
  1
φ500
 41
0.9
 72
     1
 11
0.0
 21
136.88840500000001
 31
0.0
  0
POINT
  5
DF
  8
DEFPOINTS
  6
CONTINUOUS
 62
    30
 10
-250.0
 20
-342.5
 30
0.0
  0
POINT
  5
E0
  8
DEFPOINTS
  6
CONTINUOUS
 62
    30
 10
250.0
 20
-342.5
 30
0.0
  0
POINT
  5
E1
  8
DEFPOINTS
  6
CONTINUOUS
 62
    30
 10
250.0
 20
111.88840500000001
 30
0.0
  0
LINE
  5
E2
  8
SIZE
  6
CONTINUOUS
 62
    30
 10
342.5
 20
-322.5
 30
0.0
 11
342.5
 21
263.00138199999998
 31
0.0
  0
LINE
  5
E3
  8
SIZE
  6
CONTINUOUS
 62
    30
 10
-342.5
 20
-322.5
 30
0.0
 11
-342.5
 21
263.00138199999998
 31
0.0
  0
LINE
  5
E4
  8
SIZE
  6
CONTINUOUS
 62
    30
 10
330.5
 20
243.00138200000001
 30
0.0
 11
-330.5
 21
243.00138200000001
 31
0.0
  0
CIRCLE
  5
E5
  8
SIZE
  6
CONTINUOUS
 62
    30
 10
342.5
 20
243.00138200000001
 30
0.0
 40
6.0
  0
LINE
  5
E6
  8
SIZE
  6
CONTINUOUS
 62
    30
 10
342.5
 20
243.00138200000001
 30
0.0
 11
330.5
 21
243.00138200000001
 31
0.0
  0
CIRCLE
  5
E7
  8
SIZE
  6
CONTINUOUS
 62
    30
 10
-342.5
 20
243.00138200000001
 30
0.0
 40
6.0
  0
LINE
  5
E8
  8
SIZE
  6
CONTINUOUS
 62
    30
 10
-342.5
 20
243.00138200000001
 30
0.0
 11
-330.5
 21
243.00138200000001
 31
0.0
  0
TEXT
  5
E9
  8
SIZE
  6
CONTINUOUS
 62
    30
 10
-114.3771428571429
 20
268.00138199999998
 30
0.0
 40
64.0
  1
φ685
 41
0.9
 72
     1
 11
0.0
 21
268.00138199999998
 31
0.0
  0
POINT
  5
EA
  8
DEFPOINTS
  6
CONTINUOUS
 62
    30
 10
342.5
 20
-342.5
 30
0.0
  0
POINT
  5
EB
  8
DEFPOINTS
  6
CONTINUOUS
 62
    30
 10
-342.5
 20
-342.5
 30
0.0
  0
POINT
  5
EC
  8
DEFPOINTS
  6
CONTINUOUS
 62
    30
 10
-342.5
 20
243.00138200000001
 30
0.0
  0
LINE
  5
ED
  8
DETAIL
  6
CONTINUOUS
 62
     5
 10
0.0
 20
-356.35000000000002
 30
0.0
 11
12.0
 21
-349.39999899999998
 31
0.0
  0
LINE
  5
EE
  8
DETAIL
  6
CONTINUOUS
 62
     5
 10
12.0
 20
-335.60000100000002
 30
0.0
 11
0.0
 21
-328.64999999999998
 31
0.0
  0
CIRCLE
  5
EF
  8
DETAIL
  6
CONTINUOUS
 62
     5
 10
0.0
 20
-342.5
 30
0.0
 40
11.5
  0
CIRCLE
  5
F0
  8
DETAIL
  6
CONTINUOUS
 62
     5
 10
0.0
 20
-342.5
 30
0.0
 40
9.5
  0
CIRCLE
  5
F1
  8
DETAIL
  6
CONTINUOUS
 62
     5
 10
0.0
 20
-342.5
 30
0.0
 40
6.9000000000000004
  0
ARC
  5
F2
  8
DETAIL
  6
CONTINUOUS
 62
     5
 10
0.0
 20
-342.5
 30
0.0
 40
8.0
 50
0.0
 51
89.999872999999994
  0
LINE
  5
F3
  8
DETAIL
  6
CONTINUOUS
 62
     5
 10
1.4676260000000001
 20
-329.5
 30
0.0
 11
2.5
 21
-329.5
 31
0.0
  0
CIRCLE
  5
F4
  8
DETAIL
  6
CONTINUOUS
 62
     5
 10
0.0
 20
-342.5
 30
0.0
 40
50.0
  0
CIRCLE
  5
F5
  8
DETAIL
  6
CONTINUOUS
 62
     5
 10
0.0
 20
-342.5
 30
0.0
 40
23.5
  0
ARC
  5
F6
  8
DETAIL
  6
CONTINUOUS
 62
     5
 10
0.0
 20
-342.5
 30
0.0
 40
9.5
 50
105.25752300000001
 51
74.742477000000008
  0
ARC
  5
F7
  8
DETAIL
  6
CONTINUOUS
 62
     5
 10
0.0
 20
-342.5
 30
0.0
 40
9.5
 50
105.25752300000001
 51
74.742477000000008
  0
ARC
  5
F8
  8
DETAIL
  6
CONTINUOUS
 62
     5
 10
-22.099132000000001
 20
-227.37372300000001
 30
0.0
 40
339.25288499999999
 50
250.23567200000011
 51
269.23970700000001
  0
ARC
  5
F9
  8
DETAIL
  6
CONTINUOUS
 62
     5
 10
-33.294893999999999
 20
-439.72979400000003
 30
0.0
 40
1.0
 50
91.034214000000006
 51
118.193106
  0
ARC
  5
FA
  8
DETAIL
  6
CONTINUOUS
 62
     5
 10
-27.822140000000001
 20
-439.63099699999992
 30
0.0
 40
1.0
 50
60.122098000000001
 51
91.034214000000006
  0
ARC
  5
FB
  8
DETAIL
  6
CONTINUOUS
 62
     5
 10
-18.593053999999999
 20
-444.933222
 30
0.0
 40
1.0
 50
39.759852000000002
 51
60.122098000000001
  0
LINE
  5
FC
  8
DETAIL
  6
CONTINUOUS
 62
     5
 10
-27.840188999999999
 20
-438.63115999999991
 30
0.0
 11
-33.312944000000002
 21
-438.72995700000001
 31
0.0
  0
LINE
  5
FD
  8
DETAIL
  6
CONTINUOUS
 62
     5
 10
-18.094901
 20
-444.06613299999998
 30
0.0
 11
-27.323986999999999
 21
-438.76390800000001
 31
0.0
  0
LINE
  5
FE
  8
DETAIL
  6
CONTINUOUS
 62
     5
 10
-11.498131000000001
 20
-451.89740799999993
 30
0.0
 11
-17.824321999999999
 21
-444.29365000000001
 31
0.0
  0
LINE
  5
FF
  8
DETAIL
  6
CONTINUOUS
 62
     5
 10
-9.8629020000000001
 20
-454.19811699999991
 30
0.0
 11
-11.498131000000001
 21
-451.89740799999993
 31
0.0
  0
LINE
  5
100
  8
DETAIL
  6
CONTINUOUS
 62
     5
 10
-9.6892689999999995
 20
-454.92717999999991
 30
0.0
 11
-26.600753999999998
 21
-566.59673999999995
 31
0.0
  0
LINE
  5
101
  8
DETAIL
  6
CONTINUOUS
 62
     5
 10
-90.696964000000008
 20
-478.39663400000001
 30
0.0
 11
-97.629435000000001
 21
-464.68016699999998
 31
0.0
  0
LINE
  5
102
  8
DETAIL
  6
CONTINUOUS
 62
     5
 10
-81.783540000000002
 20
-475.25927599999989
 30
0.0
 11
-85.542648999999983
 21
-463.61681699999991
 31
0.0
  0
ARC
  5
103
  8
DETAIL
  6
CONTINUOUS
 62
     5
 10
-86.783475999999993
 20
-475.28462400000001
 30
0.0
 40
5.0
 50
218.49175500000001
 51
0.290466
  0
ARC
  5
104
  8
DETAIL
  6
CONTINUOUS
 62
     5
 10
-99.977528000000007
 20
-466.54737299999999
 30
0.0
 40
3.0
 50
38.491754999999998
 51
100.068764
  0
ARC
  5
105
  8
DETAIL
  6
CONTINUOUS
 62
     5
 10
-82.542687999999998
 20
-463.601608
 30
0.0
 40
3.0
 50
109.35238
 51
180.29046600000001
  0
ARC
  5
106
  8
DETAIL
  6
CONTINUOUS
 62
     5
 10
-200.44858099999999
 20
-127.89939
 30
0.0
 40
352.80581599999999
 50
289.35237999999998
 51
298.193106
  0
ARC
  5
107
  8
DETAIL
  6
CONTINUOUS
 62
     5
 10
-124.09999000000001
 20
-299.629052
 30
0.0
 40
189.380124
 50
275.54479199999997
 51
306.48278199999999
  0
ARC
  5
108
  8
DETAIL
  6
CONTINUOUS
 62
     5
 10
-214.15230299999999
 20
-442.93365999999997
 30
0.0
 40
0.5
 50
87.661619999999985
 51
178.46686099999999
  0
LINE
  5
109
  8
DETAIL
  6
CONTINUOUS
 62
     5
 10
-215.14326299999999
 20
-461.27053099999989
 30
0.0
 11
-214.65212399999999
 21
-442.92028199999999
 31
0.0
  0
ARC
  5
10A
  8
DETAIL
  6
CONTINUOUS
 62
     5
 10
-211.23889299999999
 20
-443.05262900000002
 30
0.0
 40
0.5
 50
54.160621000000013
 51
87.661619999999985
  0
LINE
  5
10B
  8
DETAIL
  6
CONTINUOUS
 62
     5
 10
-211.218492
 20
-442.55304599999999
 30
0.0
 11
-214.131902
 21
-442.43407599999989
 31
0.0
  0
ARC
  5
10C
  8
DETAIL
  6
CONTINUOUS
 62
     5
 10
-170.88219699999999
 20
-461.77837599999998
 30
0.0
 40
3.0
 50
16.125129999999999
 51
82.305313999999996
  0
LINE
  5
10D
  8
DETAIL
  6
CONTINUOUS
 62
     5
 10
-163.26874000000001
 20
-477.31083799999999
 30
0.0
 11
-168.000225
 21
-460.94516799999991
 31
0.0
  0
ARC
  5
10E
  8
DETAIL
  6
CONTINUOUS
 62
     5
 10
-158.48346799999999
 20
-370.01129200000003
 30
0.0
 40
89.600897000000003
 50
234.16062099999999
 51
262.30531400000001
  0
ARC
  5
10F
  8
DETAIL
  6
CONTINUOUS
 62
     5
 10
-152.17830900000001
 20
-464.58905599999991
 30
0.0
 40
3.0
 50
75.634338
 51
186.663848
  0
LINE
  5
110
  8
DETAIL
  6
CONTINUOUS
 62
     5
 10
-153.970136
 20
-475.10470400000003
 30
0.0
 11
-155.158041
 21
-464.93718899999999
 31
0.0
  0
ARC
  5
111
  8
DETAIL
  6
CONTINUOUS
 62
     5
 10
-158.95927900000001
 20
-474.77538099999992
 30
0.0
 40
5.0
 50
210.470279
 51
356.22350399999999
  0
ARC
  5
112
  8
DETAIL
  6
CONTINUOUS
 62
     5
 10
-121.55570899999999
 20
-345.02446400000002
 30
0.0
 40
120.423804
 50
255.63433800000001
 51
280.06876399999999
  0
ARC
  5
113
  8
DETAIL
  6
CONTINUOUS
 62
     5
 10
-119.644271
 20
-305.53898199999998
 30
0.0
 40
183.10808800000001
 50
238.71769699999999
 51
274.33568300000002
  0
LINE
  5
114
  8
DETAIL
  6
CONTINUOUS
 62
     5
 10
0.0
 20
-328.64999999999998
 30
0.0
 11
-12.0
 21
-335.60000100000002
 31
0.0
  0
LINE
  5
115
  8
DETAIL
  6
CONTINUOUS
 62
     5
 10
-12.0
 20
-335.60000000000002
 30
0.0
 11
-12.0
 21
-349.39999999999998
 31
0.0
  0
LINE
  5
116
  8
DETAIL
  6
CONTINUOUS
 62
     5
 10
-12.0
 20
-349.39999899999998
 30
0.0
 11
0.0
 21
-356.35000000000002
 31
0.0
  0
ARC
  5
117
  8
DETAIL
  6
CONTINUOUS
 62
     5
 10
0.0
 20
-342.5
 30
0.0
 40
8.0
 50
179.999909
 51
269.99967299999997
  0
LINE
  5
118
  8
DETAIL
  6
CONTINUOUS
 62
     5
 10
0.0
 20
-333.0
 30
0.0
 11
0.0
 21
-335.60000000000002
 31
0.0
  0
LINE
  5
119
  8
DETAIL
  6
CONTINUOUS
 62
     5
 10
0.0
 20
-352.0
 30
0.0
 11
0.0
 21
-349.39999999999998
 31
0.0
  0
LINE
  5
11A
  8
DETAIL
  6
CONTINUOUS
 62
     5
 10
-9.5
 20
-342.5
 30
0.0
 11
-6.9000000000000004
 21
-342.5
 31
0.0
  0
ARC
  5
11B
  8
DETAIL
  6
CONTINUOUS
 62
     5
 10
-119.27837599999999
 20
-171.61780300000001
 30
0.0
 40
3.0
 50
286.12513000000001
 51
352.30531400000001
  0
LINE
  5
11C
  8
DETAIL
  6
CONTINUOUS
 62
     5
 10
-134.81083799999999
 20
-179.23125999999999
 30
0.0
 11
-118.445168
 21
-174.499775
 31
0.0
  0
ARC
  5
11D
  8
DETAIL
  6
CONTINUOUS
 62
     5
 10
-122.089056
 20
-190.32169099999999
 30
0.0
 40
3.0
 50
345.63433800000001
 51
96.663848000000016
  0
LINE
  5
11E
  8
DETAIL
  6
CONTINUOUS
 62
     5
 10
-132.604704
 20
-188.529864
 30
0.0
 11
-122.437189
 21
-187.341959
 31
0.0
  0
LINE
  5
11F
  8
DETAIL
  6
CONTINUOUS
 62
     5
 10
-135.89663400000001
 20
-251.80303599999999
 30
0.0
 11
-122.180167
 21
-244.870565
 31
0.0
  0
LINE
  5
120
  8
DETAIL
  6
CONTINUOUS
 62
     5
 10
-132.759276
 20
-260.71645999999998
 30
0.0
 11
-121.116817
 21
-256.95735100000002
 31
0.0
  0
ARC
  5
121
  8
DETAIL
  6
CONTINUOUS
 62
     5
 10
-132.78462400000001
 20
-255.71652399999999
 30
0.0
 40
5.0
 50
128.49175500000001
 51
270.29046600000009
  0
ARC
  5
122
  8
DETAIL
  6
CONTINUOUS
 62
     5
 10
-132.27538100000001
 20
-183.54072099999991
 30
0.0
 40
5.0
 50
120.470279
 51
266.22350399999999
  0
ARC
  5
123
  8
DETAIL
  6
CONTINUOUS
 62
     5
 10
-100.552629
 20
-131.26110700000001
 30
0.0
 40
0.5
 50
324.16062099999999
 51
357.66162000000003
  0
ARC
  5
124
  8
DETAIL
  6
CONTINUOUS
 62
     5
 10
-100.43366
 20
-128.34769700000001
 30
0.0
 40
0.5
 50
357.66162000000003
 51
88.466860999999994
  0
ARC
  5
125
  8
DETAIL
  6
CONTINUOUS
 62
     5
 10
-124.04737299999999
 20
-242.52247199999999
 30
0.0
 40
3.0
 50
308.49175500000001
 51
10.068764
  0
ARC
  5
126
  8
DETAIL
  6
CONTINUOUS
 62
     5
 10
-121.101608
 20
-259.957312
 30
0.0
 40
3.0
 50
19.35238
 51
90.290465999999995
  0
ARC
  5
127
  8
DETAIL
  6
CONTINUOUS
 62
     5
 10
-97.229793999999984
 20
-309.205106
 30
0.0
 40
1.0
 50
1.0342139999999991
 51
28.193106
  0
ARC
  5
128
  8
DETAIL
  6
CONTINUOUS
 62
     5
 10
-97.130996999999994
 20
-314.67786000000001
 30
0.0
 40
1.0
 50
330.12209799999999
 51
1.0342139999999991
  0
ARC
  5
129
  8
DETAIL
  6
CONTINUOUS
 62
     5
 10
-102.433222
 20
-323.906946
 30
0.0
 40
1.0
 50
309.75985200000002
 51
330.12209799999999
  0
ARC
  5
12A
  8
DETAIL
  6
CONTINUOUS
 62
     5
 10
214.60060999999999
 20
-142.05141900000001
 30
0.0
 40
352.80581599999999
 50
199.35238000000001
 51
208.193106
  0
ARC
  5
12B
  8
DETAIL
  6
CONTINUOUS
 62
     5
 10
-27.511292000000001
 20
-184.01653200000001
 30
0.0
 40
89.600897000000003
 50
144.16062099999999
 51
172.30531400000001
  0
LINE
  5
12C
  8
DETAIL
  6
CONTINUOUS
 62
     5
 10
-100.05304599999999
 20
-131.281508
 30
0.0
 11
-99.934076000000005
 21
-128.368098
 31
0.0
  0
ARC
  5
12D
  8
DETAIL
  6
CONTINUOUS
 62
     5
 10
-2.524464
 20
-220.94429099999999
 30
0.0
 40
120.423804
 50
165.63433800000001
 51
190.06876399999999
  0
LINE
  5
12E
  8
DETAIL
  6
CONTINUOUS
 62
     5
 10
-96.131159999999994
 20
-314.65981099999999
 30
0.0
 11
-96.229956999999999
 21
-309.18705599999998
 31
0.0
  0
LINE
  5
12F
  8
DETAIL
  6
CONTINUOUS
 62
     5
 10
-101.56613299999999
 20
-324.40509900000001
 30
0.0
 11
-96.263908000000015
 21
-315.17601300000001
 31
0.0
  0
LINE
  5
130
  8
DETAIL
  6
CONTINUOUS
 62
     5
 10
-109.397408
 20
-331.001869
 30
0.0
 11
-101.79365
 21
-324.675678
 31
0.0
  0
ARC
  5
131
  8
DETAIL
  6
CONTINUOUS
 62
     5
 10
42.870947999999999
 20
-218.40001000000001
 30
0.0
 40
189.380124
 50
185.544792
 51
216.48278199999999
  0
LINE
  5
132
  8
DETAIL
  6
CONTINUOUS
 62
     5
 10
-111.698117
 20
-332.63709799999998
 30
0.0
 11
-109.397408
 21
-331.001869
 31
0.0
  0
LINE
  5
133
  8
DETAIL
  6
CONTINUOUS
 62
     5
 10
-112.42718000000001
 20
-332.81073099999998
 30
0.0
 11
-224.09674000000001
 21
-315.89924600000001
 31
0.0
  0
LINE
  5
134
  8
DETAIL
  6
CONTINUOUS
 62
     5
 10
-2.5
 20
-329.5
 30
0.0
 11
-2.5
 21
-330.097916
 31
0.0
  0
LINE
  5
135
  8
DETAIL
  6
CONTINUOUS
 62
     5
 10
-2.5
 20
-329.5
 30
0.0
 11
-1.4676260000000001
 21
-329.5
 31
0.0
  0
LINE
  5
136
  8
DETAIL
  6
CONTINUOUS
 62
     5
 10
-118.77053100000001
 20
-127.356737
 30
0.0
 11
-100.420282
 21
-127.847876
 31
0.0
  0
ARC
  5
137
  8
DETAIL
  6
CONTINUOUS
 62
     5
 10
36.961018000000003
 20
-222.855729
 30
0.0
 40
183.10808800000001
 50
148.71769699999999
 51
184.33568299999999
  0
ARC
  5
138
  8
DETAIL
  6
CONTINUOUS
 62
     5
 10
115.126277
 20
-320.400868
 30
0.0
 40
339.25288499999999
 50
160.23567199999999
 51
179.23970700000001
  0
ARC
  5
139
  8
DETAIL
  6
CONTINUOUS
 62
     5
 10
-115.126277
 20
-364.599132
 30
0.0
 40
339.25288499999999
 50
340.23567200000002
 51
359.23970700000001
  0
ARC
  5
13A
  8
DETAIL
  6
CONTINUOUS
 62
     5
 10
-214.60060999999999
 20
-542.94858099999999
 30
0.0
 40
352.80581599999999
 50
19.35238
 51
28.193106
  0
ARC
  5
13B
  8
DETAIL
  6
CONTINUOUS
 62
     5
 10
-42.870947999999999
 20
-466.59998999999999
 30
0.0
 40
189.380124
 50
5.5447920000000002
 51
36.482782
  0
LINE
  5
13C
  8
DETAIL
  6
CONTINUOUS
 62
     5
 10
135.89663400000001
 20
-433.19696399999992
 30
0.0
 11
122.180167
 21
-440.12943499999989
 31
0.0
  0
LINE
  5
13D
  8
DETAIL
  6
CONTINUOUS
 62
     5
 10
132.759276
 20
-424.28354000000002
 30
0.0
 11
121.116817
 21
-428.04264899999998
 31
0.0
  0
ARC
  5
13E
  8
DETAIL
  6
CONTINUOUS
 62
     5
 10
132.78462400000001
 20
-429.28347599999989
 30
0.0
 40
5.0
 50
308.49175500000001
 51
90.290465999999995
  0
ARC
  5
13F
  8
DETAIL
  6
CONTINUOUS
 62
     5
 10
124.04737299999999
 20
-442.47752800000001
 30
0.0
 40
3.0
 50
128.49175500000001
 51
190.06876399999999
  0
ARC
  5
140
  8
DETAIL
  6
CONTINUOUS
 62
     5
 10
121.101608
 20
-425.042688
 30
0.0
 40
3.0
 50
199.35238000000001
 51
270.29046600000009
  0
ARC
  5
141
  8
DETAIL
  6
CONTINUOUS
 62
     5
 10
100.43366
 20
-556.65230299999996
 30
0.0
 40
0.5
 50
177.66162
 51
268.46686099999999
  0
LINE
  5
142
  8
DETAIL
  6
CONTINUOUS
 62
     5
 10
118.77053100000001
 20
-557.64326299999993
 30
0.0
 11
100.420282
 21
-557.15212399999996
 31
0.0
  0
ARC
  5
143
  8
DETAIL
  6
CONTINUOUS
 62
     5
 10
100.552629
 20
-553.73889299999985
 30
0.0
 40
0.5
 50
144.16062099999999
 51
177.66162
  0
LINE
  5
144
  8
DETAIL
  6
CONTINUOUS
 62
     5
 10
100.05304599999999
 20
-553.71849199999986
 30
0.0
 11
99.934076000000005
 21
-556.63190199999985
 31
0.0
  0
ARC
  5
145
  8
DETAIL
  6
CONTINUOUS
 62
     5
 10
119.27837599999999
 20
-513.38219700000002
 30
0.0
 40
3.0
 50
106.12513
 51
172.30531400000001
  0
LINE
  5
146
  8
DETAIL
  6
CONTINUOUS
 62
     5
 10
134.81083799999999
 20
-505.76873999999998
 30
0.0
 11
118.445168
 21
-510.500225
 31
0.0
  0
ARC
  5
147
  8
DETAIL
  6
CONTINUOUS
 62
     5
 10
27.511292000000001
 20
-500.9834679999999
 30
0.0
 40
89.600897000000003
 50
324.16062099999999
 51
352.30531400000001
  0
ARC
  5
148
  8
DETAIL
  6
CONTINUOUS
 62
     5
 10
122.089056
 20
-494.67830900000001
 30
0.0
 40
3.0
 50
165.63433800000001
 51
276.66384799999997
  0
LINE
  5
149
  8
DETAIL
  6
CONTINUOUS
 62
     5
 10
132.604704
 20
-496.47013600000002
 30
0.0
 11
122.437189
 21
-497.65804100000003
 31
0.0
  0
ARC
  5
14A
  8
DETAIL
  6
CONTINUOUS
 62
     5
 10
132.27538100000001
 20
-501.45927899999998
 30
0.0
 40
5.0
 50
300.470279
 51
86.223504000000005
  0
ARC
  5
14B
  8
DETAIL
  6
CONTINUOUS
 62
     5
 10
2.524464
 20
-464.05570899999992
 30
0.0
 40
120.423804
 50
345.63433800000001
 51
10.068764
  0
ARC
  5
14C
  8
DETAIL
  6
CONTINUOUS
 62
     5
 10
-36.961018000000003
 20
-462.144271
 30
0.0
 40
183.10808800000001
 50
328.71769699999999
 51
4.3356830000000004
  0
LINE
  5
14D
  8
DETAIL
  6
CONTINUOUS
 62
     5
 10
12.0
 20
-349.39999999999998
 30
0.0
 11
12.0
 21
-335.60000000000002
 31
0.0
  0
LINE
  5
14E
  8
DETAIL
  6
CONTINUOUS
 62
     5
 10
9.5
 20
-342.5
 30
0.0
 11
6.9000000000000004
 21
-342.5
 31
0.0
  0
ARC
  5
14F
  8
DETAIL
  6
CONTINUOUS
 62
     5
 10
97.229793999999984
 20
-375.794894
 30
0.0
 40
1.0
 50
181.03421399999999
 51
208.193106
  0
ARC
  5
150
  8
DETAIL
  6
CONTINUOUS
 62
     5
 10
97.130996999999994
 20
-370.32213999999999
 30
0.0
 40
1.0
 50
150.12209799999999
 51
181.03421399999999
  0
ARC
  5
151
  8
DETAIL
  6
CONTINUOUS
 62
     5
 10
102.433222
 20
-361.093054
 30
0.0
 40
1.0
 50
129.759852
 51
150.12209799999999
  0
LINE
  5
152
  8
DETAIL
  6
CONTINUOUS
 62
     5
 10
96.131159999999994
 20
-370.34018900000001
 30
0.0
 11
96.229956999999999
 21
-375.81294400000002
 31
0.0
  0
LINE
  5
153
  8
DETAIL
  6
CONTINUOUS
 62
     5
 10
101.56613299999999
 20
-360.59490099999999
 30
0.0
 11
96.263908000000015
 21
-369.82398699999999
 31
0.0
  0
LINE
  5
154
  8
DETAIL
  6
CONTINUOUS
 62
     5
 10
109.397408
 20
-353.998131
 30
0.0
 11
101.79365
 21
-360.324322
 31
0.0
  0
LINE
  5
155
  8
DETAIL
  6
CONTINUOUS
 62
     5
 10
111.698117
 20
-352.36290200000002
 30
0.0
 11
109.397408
 21
-353.998131
 31
0.0
  0
LINE
  5
156
  8
DETAIL
  6
CONTINUOUS
 62
     5
 10
112.42718000000001
 20
-352.18926900000002
 30
0.0
 11
224.09674000000001
 21
-369.10075399999999
 31
0.0
  0
LINE
  5
157
  8
DETAIL
  6
CONTINUOUS
 62
     5
 10
2.5
 20
-329.5
 30
0.0
 11
2.5
 21
-330.097916
 31
0.0
  0
CIRCLE
  5
158
  8
DETAIL
  6
CONTINUOUS
 62
     5
 39
50.0
 10
0.0
 20
-342.5
 30
0.0
 40
87.0
  0
ARC
  5
159
  8
DETAIL
  6
CONTINUOUS
 62
     5
 10
200.44858099999999
 20
-557.10060999999985
 30
0.0
 40
352.80581599999999
 50
109.35238
 51
118.193106
  0
ARC
  5
15A
  8
DETAIL
  6
CONTINUOUS
 62
     5
 10
124.09999000000001
 20
-385.370948
 30
0.0
 40
189.380124
 50
95.544792000000015
 51
126.482782
  0
ARC
  5
15B
  8
DETAIL
  6
CONTINUOUS
 62
     5
 10
22.099132000000001
 20
-457.6262769999999
 30
0.0
 40
339.25288499999999
 50
70.235671999999994
 51
89.239706999999996
  0
LINE
  5
15C
  8
DETAIL
  6
CONTINUOUS
 62
     5
 10
9.6892689999999995
 20
-230.07282000000001
 30
0.0
 11
26.600753999999998
 21
-118.40326
 31
0.0
  0
ARC
  5
15D
  8
DETAIL
  6
CONTINUOUS
 62
     5
 10
33.294893999999999
 20
-245.270206
 30
0.0
 40
1.0
 50
271.03421400000002
 51
298.193106
  0
ARC
  5
15E
  8
DETAIL
  6
CONTINUOUS
 62
     5
 10
27.822140000000001
 20
-245.36900299999999
 30
0.0
 40
1.0
 50
240.12209799999999
 51
271.03421400000002
  0
ARC
  5
15F
  8
DETAIL
  6
CONTINUOUS
 62
     5
 10
18.593053999999999
 20
-240.066778
 30
0.0
 40
1.0
 50
219.759852
 51
240.12209799999999
  0
LINE
  5
160
  8
DETAIL
  6
CONTINUOUS
 62
     5
 10
18.094901
 20
-240.93386699999999
 30
0.0
 11
27.323986999999999
 21
-246.23609200000001
 31
0.0
  0
LINE
  5
161
  8
DETAIL
  6
CONTINUOUS
 62
     5
 10
11.498131000000001
 20
-233.10259199999999
 30
0.0
 11
17.824321999999999
 21
-240.70634999999999
 31
0.0
  0
LINE
  5
162
  8
DETAIL
  6
CONTINUOUS
 62
     5
 10
9.8629020000000001
 20
-230.801883
 30
0.0
 11
11.498131000000001
 21
-233.10259199999999
 31
0.0
  0
LINE
  5
163
  8
DETAIL
  6
CONTINUOUS
 62
     5
 10
27.840188999999999
 20
-246.36884000000001
 30
0.0
 11
33.312944000000002
 21
-246.27004299999999
 31
0.0
  0
ARC
  5
164
  8
DETAIL
  6
CONTINUOUS
 62
     5
 10
158.48346799999999
 20
-314.98870799999997
 30
0.0
 40
89.600897000000003
 50
54.160621000000013
 51
82.305313999999996
  0
ARC
  5
165
  8
DETAIL
  6
CONTINUOUS
 62
     5
 10
119.644271
 20
-379.46101800000002
 30
0.0
 40
183.10808800000001
 50
58.71769699999998
 51
94.335682999999975
  0
LINE
  5
166
  8
DETAIL
  6
CONTINUOUS
 62
     5
 10
163.26874000000001
 20
-207.68916200000001
 30
0.0
 11
168.000225
 21
-224.054832
 31
0.0
  0
LINE
  5
167
  8
DETAIL
  6
CONTINUOUS
 62
     5
 10
153.970136
 20
-209.895296
 30
0.0
 11
155.158041
 21
-220.06281100000001
 31
0.0
  0
LINE
  5
168
  8
DETAIL
  6
CONTINUOUS
 62
     5
 10
90.696964000000008
 20
-206.60336599999999
 30
0.0
 11
97.629435000000001
 21
-220.31983299999999
 31
0.0
  0
LINE
  5
169
  8
DETAIL
  6
CONTINUOUS
 62
     5
 10
81.783540000000002
 20
-209.740724
 30
0.0
 11
85.542648999999983
 21
-221.383183
 31
0.0
  0
ARC
  5
16A
  8
DETAIL
  6
CONTINUOUS
 62
     5
 10
121.55570899999999
 20
-339.97553599999998
 30
0.0
 40
120.423804
 50
75.634338
 51
100.068764
  0
ARC
  5
16B
  8
DETAIL
  6
CONTINUOUS
 62
     5
 10
99.977528000000007
 20
-218.45262700000001
 30
0.0
 40
3.0
 50
218.49175500000001
 51
280.06876399999999
  0
ARC
  5
16C
  8
DETAIL
  6
CONTINUOUS
 62
     5
 10
82.542687999999998
 20
-221.398392
 30
0.0
 40
3.0
 50
289.35237999999998
 51
0.290466
  0
ARC
  5
16D
  8
DETAIL
  6
CONTINUOUS
 62
     5
 10
152.17830900000001
 20
-220.410944
 30
0.0
 40
3.0
 50
255.63433800000001
 51
6.6638479999999998
  0
ARC
  5
16E
  8
DETAIL
  6
CONTINUOUS
 62
     5
 10
170.88219699999999
 20
-223.22162399999999
 30
0.0
 40
3.0
 50
196.12513000000001
 51
262.30531400000001
  0
ARC
  5
16F
  8
DETAIL
  6
CONTINUOUS
 62
     5
 10
86.783475999999993
 20
-209.71537599999999
 30
0.0
 40
5.0
 50
38.491754999999998
 51
180.29046600000001
  0
ARC
  5
170
  8
DETAIL
  6
CONTINUOUS
 62
     5
 10
158.95927900000001
 20
-210.22461899999999
 30
0.0
 40
5.0
 50
30.470279000000001
 51
176.22350399999999
  0
ARC
  5
171
  8
DETAIL
  6
CONTINUOUS
 62
     5
 10
211.23889299999999
 20
-241.947371
 30
0.0
 40
0.5
 50
234.16062099999999
 51
267.66162000000003
  0
ARC
  5
172
  8
DETAIL
  6
CONTINUOUS
 62
     5
 10
214.15230299999999
 20
-242.06634
 30
0.0
 40
0.5
 50
267.66162000000003
 51
358.46686099999999
  0
LINE
  5
173
  8
DETAIL
  6
CONTINUOUS
 62
     5
 10
211.218492
 20
-242.44695400000001
 30
0.0
 11
214.131902
 21
-242.565924
 31
0.0
  0
LINE
  5
174
  8
DETAIL
  6
CONTINUOUS
 62
     5
 10
215.14326299999999
 20
-223.72946899999999
 30
0.0
 11
214.65212399999999
 21
-242.07971800000001
 31
0.0
  0
TEXT
  5
17F
  8
ETC
  6
CONTINUOUS
 62
    61
 10
550.67040186545694
 20
498.28824747670927
 30
0.0
 40
64.0
  1
JF-450T3_2
 41
0.9
  0
TEXT
  5
180
  8
ETC
  6
CONTINUOUS
 62
    61
 10
552.50426486545689
 20
389.38970647670931
 30
0.0
 40
64.0
  1
産業扇
 41
0.9
  0
TEXT
  5
181
  8
ETC
  6
CONTINUOUS
 62
    61
 10
609.16775286545692
 20
270.89263847670929
 30
0.0
 40
50.0
  1
JF-450T1
 41
0.9
  0
TEXT
  5
182
  8
ETC
  6
CONTINUOUS
 62
    61
 10
609.16775286545692
 20
191.65825158938981
 30
0.0
 40
50.0
  1
JF-550T1
 41
0.9
  0
TEXT
  5
183
  8
ETC
  6
CONTINUOUS
 62
    61
 10
609.16775286545692
 20
108.97889011867041
 30
0.0
 40
50.0
  1
JF-450T3
 41
0.9
  0
TEXT
  5
184
  8
ETC
  6
CONTINUOUS
 62
    61
 10
609.16775286545692
 20
29.744503231350912
 30
0.0
 40
50.0
  1
JF-550T3
 41
0.9
  0
ENDSEC
  0
EOF
