  0
SECTION
  2
HEADER
  9
$ACADVER
  1
AC1009
  9
$DWGCODEPAGE
  3
dos932
  9
$INSBASE
 10
0.0
 20
0.0
 30
0.0
  9
$EXTMIN
 10
-496.23869178611682
 20
-570.69395816732867
 30
-0.000000000000001
  9
$EXTMAX
 10
1212.2726558268439
 20
758.46863614682661
 30
0.000000000000014
  9
$LIMMIN
 10
-2970.0
 20
-2100.0
  9
$LIMMAX
 10
2970.0
 20
2100.0
  9
$ORTHOMODE
 70
     1
  9
$REGENMODE
 70
     1
  9
$FILLMODE
 70
     1
  9
$QTEXTMODE
 70
     0
  9
$MIRRTEXT
 70
     0
  9
$LTSCALE
 40
20.0
  9
$ATTMODE
 70
     1
  9
$TEXTSIZE
 40
64.0
  9
$TRACEWID
 40
0.05
  9
$TEXTSTYLE
  7
STANDARD
  9
$CLAYER
  8
SIZE
  9
$CELTYPE
  6
CONTINUOUS
  9
$CECOLOR
 62
     7
  9
$DIMSCALE
 40
1.0
  9
$DIMASZ
 40
12.0
  9
$DIMEXO
 40
20.0
  9
$DIMDLI
 40
200.0
  9
$DIMRND
 40
0.0
  9
$DIMDLE
 40
0.0
  9
$DIMEXE
 40
20.0
  9
$DIMTP
 40
0.0
  9
$DIMTM
 40
0.0
  9
$DIMTXT
 40
64.0
  9
$DIMCEN
 40
0.09
  9
$DIMTSZ
 40
0.0
  9
$DIMTOL
 70
     0
  9
$DIMLIM
 70
     0
  9
$DIMTIH
 70
     0
  9
$DIMTOH
 70
     0
  9
$DIMSE1
 70
     0
  9
$DIMSE2
 70
     0
  9
$DIMTAD
 70
     1
  9
$DIMZIN
 70
     8
  9
$DIMBLK
  1

  9
$DIMASO
 70
     1
  9
$DIMSHO
 70
     0
  9
$DIMPOST
  1

  9
$DIMAPOST
  1

  9
$DIMALT
 70
     0
  9
$DIMALTD
 70
     2
  9
$DIMALTF
 40
25.399999999999999
  9
$DIMLFAC
 40
1.0
  9
$DIMTOFL
 70
     1
  9
$DIMTVP
 40
0.0
  9
$DIMTIX
 70
     1
  9
$DIMSOXD
 70
     0
  9
$DIMSAH
 70
     0
  9
$DIMBLK1
  1

  9
$DIMBLK2
  1

  9
$DIMSTYLE
  2
STANDARD
  9
$DIMCLRD
 70
     7
  9
$DIMCLRE
 70
     7
  9
$DIMCLRT
 70
     7
  9
$DIMTFAC
 40
1.0
  9
$DIMGAP
 40
25.0
  9
$LUNITS
 70
     2
  9
$LUPREC
 70
     4
  9
$SKETCHINC
 40
0.1
  9
$FILLETRAD
 40
3.0
  9
$AUNITS
 70
     1
  9
$AUPREC
 70
     3
  9
$MENU
  1
ACAD
  9
$ELEVATION
 40
0.0
  9
$PELEVATION
 40
0.0
  9
$THICKNESS
 40
50.0
  9
$LIMCHECK
 70
     0
  9
$CHAMFERA
 40
0.0
  9
$CHAMFERB
 40
0.0
  9
$SKPOLY
 70
     0
  9
$TDCREATE
 40
2453019.62301037
  9
$TDUPDATE
 40
2458926.755627222
  9
$TDINDWG
 40
1.7427736574
  9
$TDUSRTIMER
 40
1.7427736574
  9
$USRTIMER
 70
     1
  9
$ANGBASE
 50
0.0
  9
$ANGDIR
 70
     0
  9
$PDMODE
 70
     3
  9
$PDSIZE
 40
-2.0
  9
$PLINEWID
 40
0.0
  9
$SPLFRAME
 70
     0
  9
$SPLINETYPE
 70
     6
  9
$SPLINESEGS
 70
     8
  9
$SURFTAB1
 70
     6
  9
$SURFTAB2
 70
     6
  9
$SURFTYPE
 70
     6
  9
$SURFU
 70
     6
  9
$SURFV
 70
     6
  9
$UCSNAME
  2

  9
$UCSORG
 10
0.0
 20
0.0
 30
0.0
  9
$UCSXDIR
 10
1.0
 20
0.0
 30
0.0
  9
$UCSYDIR
 10
0.0
 20
1.0
 30
0.0
  9
$PUCSNAME
  2

  9
$PUCSORG
 10
0.0
 20
0.0
 30
0.0
  9
$PUCSXDIR
 10
1.0
 20
0.0
 30
0.0
  9
$PUCSYDIR
 10
0.0
 20
1.0
 30
0.0
  9
$USERI1
 70
     0
  9
$USERI2
 70
     0
  9
$USERI3
 70
     0
  9
$USERI4
 70
     0
  9
$USERI5
 70
     0
  9
$USERR1
 40
20.0
  9
$USERR2
 40
0.0
  9
$USERR3
 40
0.0
  9
$USERR4
 40
0.0
  9
$USERR5
 40
0.0
  9
$WORLDVIEW
 70
     1
  9
$SHADEDGE
 70
     3
  9
$SHADEDIF
 70
    70
  9
$TILEMODE
 70
     1
  9
$MAXACTVP
 70
    48
  9
$PINSBASE
 10
0.0
 20
0.0
 30
0.0
  9
$PLIMCHECK
 70
     0
  9
$PEXTMIN
 10
-100000000000000000000.0
 20
-100000000000000000000.0
 30
-100000000000000000000.0
  9
$PEXTMAX
 10
100000000000000000000.0
 20
100000000000000000000.0
 30
100000000000000000000.0
  9
$PLIMMIN
 10
0.0
 20
0.0
  9
$PLIMMAX
 10
12.0
 20
9.0
  9
$UNITMODE
 70
     0
  9
$VISRETAIN
 70
     0
  9
$PLINEGEN
 70
     0
  9
$PSLTSCALE
 70
     0
  9
$TREEDEPTH
 70
  3020
  9
$ATTDIA
 70
     0
  9
$ATTREQ
 70
     1
  9
$BLIPMODE
 70
     1
  9
$COORDS
 70
     1
  9
$DRAGMODE
 70
     2
  9
$OSMODE
 70
     0
  9
$HANDLING
 70
     0
  9
$HANDSEED
  5
F1F5
  0
ENDSEC
  0
SECTION
  2
TABLES
  0
TABLE
  2
LTYPE
 70
     2
  0
LTYPE
  2
CONTINUOUS
 70
     0
  3
実線
 72
    65
 73
     0
 40
0.0
  0
LTYPE
  2
DASHDOT
 70
     0
  3
____ _ ____ _ ____ _ ____ _ ____ _ ____ _ ____
 72
    65
 73
     4
 40
5.5
 49
4.0
 49
-0.6
 49
0.3
 49
-0.6
  0
ENDTAB
  0
TABLE
  2
LAYER
 70
    12
  0
LAYER
  2
0
 70
     0
 62
     7
  6
CONTINUOUS
  0
LAYER
  2
BASIS
 70
     0
 62
     6
  6
DASHDOT
  0
LAYER
  2
OUTLINE
 70
     0
 62
     3
  6
CONTINUOUS
  0
LAYER
  2
DETAIL
 70
     0
 62
     5
  6
CONTINUOUS
  0
LAYER
  2
SIZE
 70
     0
 62
    30
  6
CONTINUOUS
  0
LAYER
  2
ARRANGE
 70
     0
 62
     1
  6
CONTINUOUS
  0
LAYER
  2
DEFPOINTS
 70
     0
 62
     7
  6
CONTINUOUS
  0
LAYER
  2
ETC
 70
     0
 62
    61
  6
CONTINUOUS
  0
LAYER
  2
FIX
 70
     0
 62
    11
  6
CONTINUOUS
  0
LAYER
  2
NOTE
 70
     0
 62
     4
  6
CONTINUOUS
  0
LAYER
  2
SERVICESPACE
 70
    64
 62
     2
  6
DASHDOT
  0
LAYER
  2
SYMBOLLINE
 70
    64
 62
    15
  6
CONTINUOUS
  0
ENDTAB
  0
TABLE
  2
STYLE
 70
     1
  0
STYLE
  2
STANDARD
 70
     0
 40
64.0
 41
0.9
 50
0.0
 71
     0
 42
64.0
  3
SIMPLEX.shx
  4
BIGFONT.shx
  0
ENDTAB
  0
TABLE
  2
APPID
 70
    16
  0
APPID
  2
ACAD
 70
     0
  0
APPID
  2
AUTOCAD_POSTSCRIPT_FIGURE
 70
     0
  0
APPID
  2
ACAD_EXEMPT_FROM_CAD_STANDARDS
 70
     0
  0
APPID
  2
ACAD_PSEXT
 70
     0
  0
APPID
  2
ACAUTHENVIRON
 70
     0
  0
APPID
  2
GENIUS_GENOENT_13
 70
     0
  0
APPID
  2
GENIUS_GENCFG_13
 70
     0
  0
APPID
  2
GENIUS_GENCFG0_13
 70
     0
  0
APPID
  2
GENIUS_GENCFG1_13
 70
     0
  0
APPID
  2
GENIUS_GENCFG2_13
 70
     0
  0
APPID
  2
GENIUS_GENCFG3_13
 70
     0
  0
APPID
  2
GENIUS_GENCFG4_13
 70
     0
  0
APPID
  2
GENIUS_GEVCFG0_13
 70
     0
  0
APPID
  2
CONTENTBLOCKICON
 70
     0
  0
APPID
  2
CONTENTBLOCKDESCRIPTION
 70
     0
  0
APPID
  2
ACAD_NAV_VCDISPLAY
 70
     0
  0
ENDTAB
  0
TABLE
  2
DIMSTYLE
 70
     1
  0
DIMSTYLE
  2
STANDARD
 70
     0
  3

  4

  5
_ORIGIN
  6

  7

 40
1.0
 41
12.0
 42
20.0
 43
200.0
 44
20.0
 45
0.0
 46
0.0
 47
0.0
 48
0.0
140
64.0
141
0.09
142
0.0
143
25.399999999999999
144
1.0
145
0.0
146
1.0
147
25.0
 71
     0
 72
     0
 73
     0
 74
     0
 75
     0
 76
     0
 77
     1
 78
     8
170
     0
171
     2
172
     1
173
     0
174
     1
175
     0
176
     7
177
     7
178
     7
  0
ENDTAB
  0
TABLE
  2
VIEW
 70
     1
  0
VIEW
  2
ALL
 70
     0
 40
4282.6198079999986
 10
0.0
 20
41.309904000000003
 41
5940.0
 11
0.0
 21
0.0
 31
1.0
 12
0.0
 22
0.0
 32
0.0
 42
50.0
 43
0.0
 44
0.0
 50
0.0
 71
     0
  0
ENDTAB
  0
TABLE
  2
UCS
 70
     0
  0
ENDTAB
  0
TABLE
  2
VPORT
 70
     1
  0
VPORT
  2
*ACTIVE
 70
     0
 10
0.0
 20
0.0
 11
1.0
 21
1.0
 12
358.01698202036368
 22
93.887338989748969
 13
0.0
 23
0.0
 14
1.0
 24
1.0
 15
0.0
 25
0.0
 16
0.0
 26
0.0
 36
1.0
 17
0.0
 27
0.0
 37
0.0
 40
1338.679271600414
 41
1.798088410991637
 42
50.0
 43
0.0
 44
0.0
 50
0.0
 51
0.0
 71
     0
 72
  1000
 73
     1
 74
     3
 75
     0
 76
     0
 77
     0
 78
     0
  0
ENDTAB
  0
ENDSEC
  0
SECTION
  2
BLOCKS
  0
BLOCK
  8
0
  2
_ORIGIN
 70
     0
 10
0.0
 20
0.0
 30
0.0
  3
_ORIGIN
  1
_ORIGIN
  0
CIRCLE
  8
0
  6
CONTINUOUS
 62
     7
 10
0.0
 20
0.0
 30
0.0
 40
0.5
  0
LINE
  8
0
  6
CONTINUOUS
 62
     7
 10
0.0
 20
0.0
 30
0.0
 11
-1.0
 21
0.0
 31
0.0
  0
ENDBLK
  8
0
  0
ENDSEC
  0
SECTION
  2
ENTITIES
  0
TEXT
  8
ETC
  6
CONTINUOUS
 62
    61
 10
742.80240511529382
 20
694.44725687170285
 30
0.0
 40
64.0
  1
JF-50SA2_1
 41
0.9
  0
TEXT
  8
ETC
  6
CONTINUOUS
 62
    61
 10
744.63626811529366
 20
585.54871587170283
 30
0.0
 40
64.0
  1
産業扇
 41
0.9
  0
TEXT
  8
ETC
  6
CONTINUOUS
 62
    61
 10
806.79164705211861
 20
463.60195077256913
 30
0.0
 40
50.0
  1
JF-50SA2
 50
0.0
 41
0.9
 51
0.0
  7
STANDARD
 71
     0
 11
0.0
 21
0.0
 31
0.0
210
0.0
220
0.0
230
1.0
  0
TEXT
  8
ETC
  6
CONTINUOUS
 62
    61
 10
806.79164705211861
 20
381.10195077256913
 30
0.0
 40
50.0
  1
JF-70SA2
 50
0.0
 41
0.9
 51
0.0
  7
STANDARD
 71
     0
 11
0.0
 21
0.0
 31
0.0
210
0.0
220
0.0
230
1.0
  0
TEXT
  8
ETC
  6
CONTINUOUS
 62
    61
 10
806.79164705211861
 20
298.60195077256913
 30
0.0
 40
50.0
  1
JF-70TA2
 50
0.0
 41
0.9
 51
0.0
  7
STANDARD
 71
     0
 11
0.0
 21
0.0
 31
0.0
210
0.0
220
0.0
230
1.0
  0
TEXT
  8
NOTE
  6
CONTINUOUS
 62
     4
 10
372.030709
 20
263.26894399999992
 30
0.0
 40
64.0
  1
AH-4
 41
0.9
  0
LINE
  8
BASIS
  6
DASHDOT
 62
     6
 10
0.0
 20
205.38692399999991
 30
0.0
 11
0.0
 21
-201.51528899999991
 31
0.0
  0
LINE
  8
BASIS
  6
DASHDOT
 62
     6
 10
-215.777366
 20
0.0
 30
0.0
 11
216.78962200000001
 21
0.0
 31
0.0
  0
LINE
  8
DETAIL
  6
CONTINUOUS
 62
     5
 10
-125.0
 20
-175.0
 30
0.0
 11
125.0
 21
-175.0
 31
0.0
  0
LINE
  8
DETAIL
  6
CONTINUOUS
 62
     5
 10
-125.0
 20
175.0
 30
0.0
 11
125.0
 21
175.0
 31
0.0
  0
LINE
  8
DETAIL
  6
CONTINUOUS
 62
     5
 10
-125.0
 20
175.0
 30
0.0
 11
-125.0
 21
124.0
 31
0.0
  0
LINE
  8
DETAIL
  6
CONTINUOUS
 62
     5
 10
125.0
 20
175.0
 30
0.0
 11
125.0
 21
124.0
 31
0.0
  0
LINE
  8
DETAIL
  6
CONTINUOUS
 62
     5
 10
-194.5
 20
-64.0
 30
0.0
 11
-180.0
 21
-64.0
 31
0.0
  0
LINE
  8
DETAIL
  6
CONTINUOUS
 62
     5
 10
-194.5
 20
-109.0
 30
0.0
 11
-131.088235
 21
-109.0
 31
0.0
  0
LINE
  8
DETAIL
  6
CONTINUOUS
 62
     5
 10
-194.5
 20
-64.0
 30
0.0
 11
-194.5
 21
-109.0
 31
0.0
  0
LINE
  8
DETAIL
  6
CONTINUOUS
 62
     5
 10
-180.0
 20
-64.0
 30
0.0
 11
-180.0
 21
-80.5
 31
0.0
  0
LINE
  8
DETAIL
  6
CONTINUOUS
 62
     5
 10
-169.0
 20
-64.0
 30
0.0
 11
-169.0
 21
-80.5
 31
0.0
  0
ARC
  8
DETAIL
  6
CONTINUOUS
 62
     5
 10
-174.5
 20
-80.5
 30
0.0
 40
5.5
 50
180.0
 51
0.0
  0
LINE
  8
NOTE
  6
CONTINUOUS
 62
     4
 10
-174.5
 20
-60.5
 30
0.0
 11
-174.5
 21
-100.5
 31
0.0
  0
LINE
  8
NOTE
  6
CONTINUOUS
 62
     4
 10
-194.5
 20
-80.5
 30
0.0
 11
-154.5
 21
-80.5
 31
0.0
  0
LINE
  8
DETAIL
  6
CONTINUOUS
 62
     5
 10
194.5
 20
-64.0
 30
0.0
 11
194.5
 21
-109.0
 31
0.0
  0
LINE
  8
DETAIL
  6
CONTINUOUS
 62
     5
 10
194.5
 20
-64.0
 30
0.0
 11
180.0
 21
-64.0
 31
0.0
  0
LINE
  8
DETAIL
  6
CONTINUOUS
 62
     5
 10
180.0
 20
-64.0
 30
0.0
 11
180.0
 21
-80.5
 31
0.0
  0
LINE
  8
DETAIL
  6
CONTINUOUS
 62
     5
 10
169.0
 20
-64.0
 30
0.0
 11
169.0
 21
-80.5
 31
0.0
  0
ARC
  8
DETAIL
  6
CONTINUOUS
 62
     5
 10
174.5
 20
-80.5
 30
0.0
 40
5.5
 50
180.0
 51
0.0
  0
LINE
  8
NOTE
  6
CONTINUOUS
 62
     4
 10
174.5
 20
-60.5
 30
0.0
 11
174.5
 21
-100.5
 31
0.0
  0
LINE
  8
NOTE
  6
CONTINUOUS
 62
     4
 10
194.5
 20
-80.5
 30
0.0
 11
154.5
 21
-80.5
 31
0.0
  0
LINE
  8
DETAIL
  6
CONTINUOUS
 62
     5
 10
-169.0
 20
-64.0
 30
0.0
 11
-149.61764700000001
 21
-64.0
 31
0.0
  0
LINE
  8
DETAIL
  6
CONTINUOUS
 62
     5
 10
169.0
 20
-64.0
 30
0.0
 11
149.61764700000001
 21
-64.0
 31
0.0
  0
LINE
  8
DETAIL
  6
CONTINUOUS
 62
     5
 10
131.08823499999991
 20
-109.0
 30
0.0
 11
194.5
 21
-109.0
 31
0.0
  0
LINE
  8
DETAIL
  6
CONTINUOUS
 62
     5
 10
-159.5
 20
40.0
 30
0.0
 11
-159.5
 21
2.5
 31
0.0
  0
LINE
  8
DETAIL
  6
CONTINUOUS
 62
     5
 10
-125.0
 20
-124.0
 30
0.0
 11
-125.0
 21
-175.0
 31
0.0
  0
LINE
  8
DETAIL
  6
CONTINUOUS
 62
     5
 10
125.0
 20
-124.0
 30
0.0
 11
125.0
 21
-175.0
 31
0.0
  0
LINE
  8
DETAIL
  6
CONTINUOUS
 62
     5
 10
-159.5
 20
-2.5
 30
0.0
 11
-159.5
 21
-40.0
 31
0.0
  0
LINE
  8
DETAIL
  6
CONTINUOUS
 62
     5
 10
-169.0
 20
64.0
 30
0.0
 11
-149.61764700000001
 21
64.0
 31
0.0
  0
LINE
  8
NOTE
  6
CONTINUOUS
 62
     4
 10
-174.5
 20
60.5
 30
0.0
 11
-174.5
 21
100.5
 31
0.0
  0
LINE
  8
NOTE
  6
CONTINUOUS
 62
     4
 10
-194.5
 20
80.5
 30
0.0
 11
-154.5
 21
80.5
 31
0.0
  0
ARC
  8
DETAIL
  6
CONTINUOUS
 62
     5
 10
-174.5
 20
80.5
 30
0.0
 40
5.5
 50
0.0
 51
180.0
  0
LINE
  8
DETAIL
  6
CONTINUOUS
 62
     5
 10
-169.0
 20
64.0
 30
0.0
 11
-169.0
 21
80.5
 31
0.0
  0
LINE
  8
DETAIL
  6
CONTINUOUS
 62
     5
 10
-180.0
 20
64.0
 30
0.0
 11
-180.0
 21
80.5
 31
0.0
  0
LINE
  8
DETAIL
  6
CONTINUOUS
 62
     5
 10
-194.5
 20
64.0
 30
0.0
 11
-194.5
 21
109.0
 31
0.0
  0
LINE
  8
DETAIL
  6
CONTINUOUS
 62
     5
 10
-194.5
 20
109.0
 30
0.0
 11
-131.088235
 21
109.0
 31
0.0
  0
LINE
  8
DETAIL
  6
CONTINUOUS
 62
     5
 10
-194.5
 20
64.0
 30
0.0
 11
-180.0
 21
64.0
 31
0.0
  0
LINE
  8
DETAIL
  6
CONTINUOUS
 62
     5
 10
131.08823499999991
 20
109.0
 30
0.0
 11
194.5
 21
109.0
 31
0.0
  0
LINE
  8
DETAIL
  6
CONTINUOUS
 62
     5
 10
169.0
 20
64.0
 30
0.0
 11
149.61764700000001
 21
64.0
 31
0.0
  0
LINE
  8
NOTE
  6
CONTINUOUS
 62
     4
 10
174.5
 20
60.5
 30
0.0
 11
174.5
 21
100.5
 31
0.0
  0
LINE
  8
NOTE
  6
CONTINUOUS
 62
     4
 10
194.5
 20
80.5
 30
0.0
 11
154.5
 21
80.5
 31
0.0
  0
ARC
  8
DETAIL
  6
CONTINUOUS
 62
     5
 10
174.5
 20
80.5
 30
0.0
 40
5.5
 50
0.0
 51
180.0
  0
LINE
  8
DETAIL
  6
CONTINUOUS
 62
     5
 10
169.0
 20
64.0
 30
0.0
 11
169.0
 21
80.5
 31
0.0
  0
LINE
  8
DETAIL
  6
CONTINUOUS
 62
     5
 10
180.0
 20
64.0
 30
0.0
 11
180.0
 21
80.5
 31
0.0
  0
LINE
  8
DETAIL
  6
CONTINUOUS
 62
     5
 10
194.5
 20
64.0
 30
0.0
 11
180.0
 21
64.0
 31
0.0
  0
LINE
  8
DETAIL
  6
CONTINUOUS
 62
     5
 10
194.5
 20
64.0
 30
0.0
 11
194.5
 21
109.0
 31
0.0
  0
CIRCLE
  8
FIX
  6
CONTINUOUS
 62
    11
 10
-174.5
 20
-80.5
 30
0.0
 40
5.5
  0
CIRCLE
  8
FIX
  6
CONTINUOUS
 62
    11
 10
-174.5
 20
80.5
 30
0.0
 40
5.5
  0
CIRCLE
  8
FIX
  6
CONTINUOUS
 62
    11
 10
174.5
 20
80.5
 30
0.0
 40
5.5
  0
CIRCLE
  8
FIX
  6
CONTINUOUS
 62
    11
 10
174.5
 20
-80.5
 30
0.0
 40
5.5
  0
LINE
  8
NOTE
  6
CONTINUOUS
 62
     4
 10
124.5
 20
-75.0
 30
0.0
 11
124.5
 21
-115.0
 31
0.0
  0
LINE
  8
NOTE
  6
CONTINUOUS
 62
     4
 10
144.5
 20
-95.0
 30
0.0
 11
104.5
 21
-95.0
 31
0.0
  0
CIRCLE
  8
DETAIL
  6
CONTINUOUS
 62
     5
 10
124.5
 20
-95.0
 30
0.0
 40
6.0
  0
LINE
  8
NOTE
  6
CONTINUOUS
 62
     4
 10
174.5
 20
80.5
 30
0.0
 11
361.70888400000001
 21
233.965968
 31
0.0
  0
LINE
  8
NOTE
  6
CONTINUOUS
 62
     4
 10
200.005571
 20
111.31340400000001
 30
0.0
 11
174.5
 21
80.5
 31
0.0
  0
LINE
  8
NOTE
  6
CONTINUOUS
 62
     4
 10
174.5
 20
80.5
 30
0.0
 11
211.99517399999999
 21
94.432405000000017
 31
0.0
  0
LINE
  8
NOTE
  6
CONTINUOUS
 62
     4
 10
361.70888400000001
 20
233.965968
 30
0.0
 11
621.40604299999995
 21
233.965968
 31
0.0
  0
LINE
  8
DETAIL
  6
CONTINUOUS
 62
     5
 10
-159.5
 20
-40.0
 30
0.0
 11
159.5
 21
-40.0
 31
0.0
  0
LINE
  8
DETAIL
  6
CONTINUOUS
 62
     5
 10
-159.5
 20
40.0
 30
0.0
 11
159.5
 21
40.0
 31
0.0
  0
LINE
  8
DETAIL
  6
CONTINUOUS
 62
     5
 10
159.5
 20
-2.5
 30
0.0
 11
159.5
 21
-40.0
 31
0.0
  0
LINE
  8
DETAIL
  6
CONTINUOUS
 62
     5
 10
159.5
 20
40.0
 30
0.0
 11
159.5
 21
2.5
 31
0.0
  0
LINE
  8
DETAIL
  6
CONTINUOUS
 62
     5
 10
-125.0
 20
124.0
 30
0.0
 11
125.0
 21
124.0
 31
0.0
  0
LINE
  8
DETAIL
  6
CONTINUOUS
 62
     5
 10
-125.0
 20
-124.0
 30
0.0
 11
125.0
 21
-124.0
 31
0.0
  0
LINE
  8
DETAIL
  6
CONTINUOUS
 62
     5
 10
125.0
 20
124.0
 30
0.0
 11
159.5
 21
40.0
 31
0.0
  0
LINE
  8
DETAIL
  6
CONTINUOUS
 62
     5
 10
-125.0
 20
124.0
 30
0.0
 11
-159.5
 21
40.0
 31
0.0
  0
LINE
  8
DETAIL
  6
CONTINUOUS
 62
     5
 10
-125.0
 20
-124.0
 30
0.0
 11
-159.5
 21
-40.0
 31
0.0
  0
LINE
  8
DETAIL
  6
CONTINUOUS
 62
     5
 10
125.0
 20
-124.0
 30
0.0
 11
159.5
 21
-40.0
 31
0.0
  0
POINT
  8
ARRANGE
  6
CONTINUOUS
 62
     1
 10
0.0
 20
0.0
 30
0.0
  0
CIRCLE
  8
ARRANGE
  6
CONTINUOUS
 62
     1
 10
0.0
 20
0.0
 30
0.0
 40
40.0
  0
LINE
  8
DETAIL
  6
CONTINUOUS
 62
     5
 10
-180.0
 20
1.5
 30
0.0
 11
180.0
 21
1.5
 31
0.0
  0
LINE
  8
DETAIL
  6
CONTINUOUS
 62
     5
 10
-180.0
 20
-1.5
 30
0.0
 11
180.0
 21
-1.5
 31
0.0
  0
LINE
  8
DETAIL
  6
CONTINUOUS
 62
     5
 10
-180.0
 20
-2.5
 30
0.0
 11
180.0
 21
-2.5
 31
0.0
  0
LINE
  8
DETAIL
  6
CONTINUOUS
 62
     5
 10
-180.0
 20
2.5
 30
0.0
 11
180.0
 21
2.5
 31
0.0
  0
LINE
  8
DETAIL
  6
CONTINUOUS
 62
     5
 10
-180.0
 20
2.5
 30
0.0
 11
-180.0
 21
-2.5
 31
0.0
  0
LINE
  8
DETAIL
  6
CONTINUOUS
 62
     5
 10
180.0
 20
2.5
 30
0.0
 11
180.0
 21
-2.5
 31
0.0
  0
LINE
  8
SIZE
  6
CONTINUOUS
 62
    30
 10
125.0
 20
-195.0
 30
0.0
 11
125.0
 21
-447.0821169864746
 31
0.0
  0
LINE
  8
SIZE
  6
CONTINUOUS
 62
    30
 10
-125.0
 20
-195.0
 30
0.0
 11
-125.0
 21
-447.0821169864746
 31
0.0
  0
LINE
  8
SIZE
  6
CONTINUOUS
 62
    30
 10
137.0
 20
-427.0821169864746
 30
0.0
 11
149.0
 21
-427.0821169864746
 31
0.0
  0
LINE
  8
SIZE
  6
CONTINUOUS
 62
    30
 10
-137.0
 20
-427.0821169864746
 30
0.0
 11
-149.0
 21
-427.0821169864746
 31
0.0
  0
LINE
  8
SIZE
  6
CONTINUOUS
 62
    30
 10
125.0
 20
-427.0821169864746
 30
0.0
 11
-125.0
 21
-427.0821169864746
 31
0.0
  0
CIRCLE
  8
SIZE
  6
CONTINUOUS
 62
    30
 10
125.0
 20
-427.0821169864746
 30
0.0
 40
6.0
  0
LINE
  8
SIZE
  6
CONTINUOUS
 62
    30
 10
125.0
 20
-427.0821169864746
 30
0.0
 11
137.0
 21
-427.0821169864746
 31
0.0
  0
CIRCLE
  8
SIZE
  6
CONTINUOUS
 62
    30
 10
-125.0
 20
-427.0821169864746
 30
0.0
 40
6.0
  0
LINE
  8
SIZE
  6
CONTINUOUS
 62
    30
 10
-125.0
 20
-427.0821169864746
 30
0.0
 11
-137.0
 21
-427.0821169864746
 31
0.0
  0
TEXT
  8
SIZE
  6
CONTINUOUS
 62
    30
 10
-104.2285714285714
 20
-402.0821169864746
 30
0.0
 40
64.0
  1
φ250
 41
0.9
 72
     1
 11
0.0
 21
-402.0821169864746
 31
0.0
  0
LINE
  8
SIZE
  6
CONTINUOUS
 62
    30
 10
180.0
 20
-22.5
 30
0.0
 11
180.0
 21
-570.56230898647448
 31
0.0
  0
LINE
  8
SIZE
  6
CONTINUOUS
 62
    30
 10
-180.0
 20
-22.5
 30
0.0
 11
-180.0
 21
-570.56230898647448
 31
0.0
  0
LINE
  8
SIZE
  6
CONTINUOUS
 62
    30
 10
168.0
 20
-550.56230898647448
 30
0.0
 11
-168.0
 21
-550.56230898647448
 31
0.0
  0
CIRCLE
  8
SIZE
  6
CONTINUOUS
 62
    30
 10
180.0
 20
-550.56230898647448
 30
0.0
 40
6.0
  0
LINE
  8
SIZE
  6
CONTINUOUS
 62
    30
 10
180.0
 20
-550.56230898647448
 30
0.0
 11
168.0
 21
-550.56230898647448
 31
0.0
  0
CIRCLE
  8
SIZE
  6
CONTINUOUS
 62
    30
 10
-180.0
 20
-550.56230898647448
 30
0.0
 40
6.0
  0
LINE
  8
SIZE
  6
CONTINUOUS
 62
    30
 10
-180.0
 20
-550.56230898647448
 30
0.0
 11
-168.0
 21
-550.56230898647448
 31
0.0
  0
TEXT
  8
SIZE
  6
CONTINUOUS
 62
    30
 10
-104.2285714285714
 20
-525.56230898647448
 30
0.0
 40
64.0
  1
φ360
 41
0.9
 72
     1
 11
0.0
 21
-525.56230898647448
 31
0.0
  0
POINT
  8
DEFPOINTS
  6
CONTINUOUS
 62
    30
 10
-180.0
 20
-550.56230898647448
 30
0.0
  0
LINE
  8
SIZE
  6
CONTINUOUS
 62
    30
 10
214.5
 20
64.0
 30
0.0
 11
553.47866270040959
 21
64.0
 31
0.0
  0
LINE
  8
SIZE
  6
CONTINUOUS
 62
    30
 10
214.5
 20
-64.0
 30
0.0
 11
553.47866270040959
 21
-64.0
 31
0.0
  0
LINE
  8
SIZE
  6
CONTINUOUS
 62
    30
 10
533.47866270040959
 20
52.0
 30
0.0
 11
533.47866270040959
 21
-52.0
 31
0.0
  0
LINE
  8
SIZE
  6
CONTINUOUS
 62
    30
 10
533.47866270040959
 20
-312.826187
 30
0.0
 11
533.47866270040959
 21
-64.0
 31
0.0
  0
TEXT
  8
SIZE
  6
CONTINUOUS
 62
    30
 10
508.4786627004097
 20
-287.82618757142848
 30
0.0
 40
64.0
  1
128
 50
90.0
 41
0.9
 72
     1
 11
508.4786627004097
 21
-219.25475899999989
 31
0.0
  0
CIRCLE
  8
SIZE
  6
CONTINUOUS
 62
    30
 10
533.47866270040959
 20
64.0
 30
0.0
 40
6.0
  0
LINE
  8
SIZE
  6
CONTINUOUS
 62
    30
 10
533.47866270040959
 20
64.0
 30
0.0
 11
533.47866270040959
 21
52.0
 31
0.0
  0
CIRCLE
  8
SIZE
  6
CONTINUOUS
 62
    30
 10
533.47866270040959
 20
-64.0
 30
0.0
 40
6.0
  0
LINE
  8
SIZE
  6
CONTINUOUS
 62
    30
 10
533.47866270040959
 20
-64.0
 30
0.0
 11
533.47866270040959
 21
-52.0
 31
0.0
  0
LINE
  8
SIZE
  6
CONTINUOUS
 62
    30
 10
214.5
 20
80.5
 30
0.0
 11
677.52592770040974
 21
80.5
 31
0.0
  0
LINE
  8
SIZE
  6
CONTINUOUS
 62
    30
 10
214.5
 20
-80.5
 30
0.0
 11
677.52592770040974
 21
-80.5
 31
0.0
  0
LINE
  8
SIZE
  6
CONTINUOUS
 62
    30
 10
657.52592770040974
 20
92.5
 30
0.0
 11
657.52592770040974
 21
104.5
 31
0.0
  0
LINE
  8
SIZE
  6
CONTINUOUS
 62
    30
 10
657.52592770040974
 20
-92.5
 30
0.0
 11
657.52592770040974
 21
-104.5
 31
0.0
  0
LINE
  8
SIZE
  6
CONTINUOUS
 62
    30
 10
657.52592770040974
 20
80.5
 30
0.0
 11
657.52592770040974
 21
-80.5
 31
0.0
  0
CIRCLE
  8
SIZE
  6
CONTINUOUS
 62
    30
 10
657.52592770040974
 20
80.5
 30
0.0
 40
6.0
  0
LINE
  8
SIZE
  6
CONTINUOUS
 62
    30
 10
657.52592770040974
 20
80.5
 30
0.0
 11
657.52592770040974
 21
92.5
 31
0.0
  0
CIRCLE
  8
SIZE
  6
CONTINUOUS
 62
    30
 10
657.52592770040974
 20
-80.5
 30
0.0
 40
6.0
  0
LINE
  8
SIZE
  6
CONTINUOUS
 62
    30
 10
657.52592770040974
 20
-80.5
 30
0.0
 11
657.52592770040974
 21
-92.5
 31
0.0
  0
TEXT
  8
SIZE
  6
CONTINUOUS
 62
    30
 10
632.52592770040974
 20
-56.228571428571414
 30
0.0
 40
64.0
  1
161
 50
90.0
 41
0.9
 72
     1
 11
632.52592770040974
 21
0.0
 31
0.0
  0
LINE
  8
SIZE
  6
CONTINUOUS
 62
    30
 10
214.5
 20
109.0
 30
0.0
 11
806.42419870040976
 21
109.0
 31
0.0
  0
LINE
  8
SIZE
  6
CONTINUOUS
 62
    30
 10
214.5
 20
-109.0
 30
0.0
 11
806.42419870040976
 21
-109.0
 31
0.0
  0
LINE
  8
SIZE
  6
CONTINUOUS
 62
    30
 10
786.42419870040976
 20
97.0
 30
0.0
 11
786.42419870040976
 21
-97.0
 31
0.0
  0
CIRCLE
  8
SIZE
  6
CONTINUOUS
 62
    30
 10
786.42419870040976
 20
109.0
 30
0.0
 40
6.0
  0
LINE
  8
SIZE
  6
CONTINUOUS
 62
    30
 10
786.42419870040976
 20
109.0
 30
0.0
 11
786.42419870040976
 21
97.0
 31
0.0
  0
CIRCLE
  8
SIZE
  6
CONTINUOUS
 62
    30
 10
786.42419870040976
 20
-109.0
 30
0.0
 40
6.0
  0
LINE
  8
SIZE
  6
CONTINUOUS
 62
    30
 10
786.42419870040976
 20
-109.0
 30
0.0
 11
786.42419870040976
 21
-97.0
 31
0.0
  0
TEXT
  8
SIZE
  6
CONTINUOUS
 62
    30
 10
761.42419870040976
 20
-68.571428571428555
 30
0.0
 40
64.0
  1
218
 50
90.0
 41
0.9
 72
     1
 11
761.42419870040976
 21
0.0
 31
0.0
  0
POINT
  8
DEFPOINTS
  6
CONTINUOUS
 62
    30
 10
786.42419870040976
 20
-109.0
 30
0.0
  0
LINE
  8
SIZE
  6
CONTINUOUS
 62
    30
 10
125.0
 20
195.0
 30
0.0
 11
125.0
 21
434.0520404316469
 31
0.0
  0
LINE
  8
SIZE
  6
CONTINUOUS
 62
    30
 10
-125.0
 20
195.0
 30
0.0
 11
-125.0
 21
434.0520404316469
 31
0.0
  0
LINE
  8
SIZE
  6
CONTINUOUS
 62
    30
 10
137.0
 20
414.0520404316469
 30
0.0
 11
149.0
 21
414.0520404316469
 31
0.0
  0
LINE
  8
SIZE
  6
CONTINUOUS
 62
    30
 10
-137.0
 20
414.0520404316469
 30
0.0
 11
-149.0
 21
414.0520404316469
 31
0.0
  0
LINE
  8
SIZE
  6
CONTINUOUS
 62
    30
 10
125.0
 20
414.0520404316469
 30
0.0
 11
-125.0
 21
414.0520404316469
 31
0.0
  0
CIRCLE
  8
SIZE
  6
CONTINUOUS
 62
    30
 10
125.0
 20
414.0520404316469
 30
0.0
 40
6.0
  0
LINE
  8
SIZE
  6
CONTINUOUS
 62
    30
 10
125.0
 20
414.0520404316469
 30
0.0
 11
137.0
 21
414.0520404316469
 31
0.0
  0
CIRCLE
  8
SIZE
  6
CONTINUOUS
 62
    30
 10
-125.0
 20
414.0520404316469
 30
0.0
 40
6.0
  0
LINE
  8
SIZE
  6
CONTINUOUS
 62
    30
 10
-125.0
 20
414.0520404316469
 30
0.0
 11
-137.0
 21
414.0520404316469
 31
0.0
  0
TEXT
  8
SIZE
  6
CONTINUOUS
 62
    30
 10
-104.2285714285714
 20
439.0520404316469
 30
0.0
 40
64.0
  1
φ250
 41
0.9
 72
     1
 11
0.0
 21
439.0520404316469
 31
0.0
  0
LINE
  8
SIZE
  6
CONTINUOUS
 62
    30
 10
174.5
 20
120.5
 30
0.0
 11
174.5
 21
564.95531043164692
 31
0.0
  0
LINE
  8
SIZE
  6
CONTINUOUS
 62
    30
 10
-174.5
 20
120.5
 30
0.0
 11
-174.5
 21
564.95531043164692
 31
0.0
  0
LINE
  8
SIZE
  6
CONTINUOUS
 62
    30
 10
162.5
 20
544.95531043164692
 30
0.0
 11
-162.5
 21
544.95531043164692
 31
0.0
  0
CIRCLE
  8
SIZE
  6
CONTINUOUS
 62
    30
 10
174.5
 20
544.95531043164692
 30
0.0
 40
6.0
  0
LINE
  8
SIZE
  6
CONTINUOUS
 62
    30
 10
174.5
 20
544.95531043164692
 30
0.0
 11
162.5
 21
544.95531043164692
 31
0.0
  0
CIRCLE
  8
SIZE
  6
CONTINUOUS
 62
    30
 10
-174.5
 20
544.95531043164692
 30
0.0
 40
6.0
  0
LINE
  8
SIZE
  6
CONTINUOUS
 62
    30
 10
-174.5
 20
544.95531043164692
 30
0.0
 11
-162.5
 21
544.95531043164692
 31
0.0
  0
TEXT
  8
SIZE
  6
CONTINUOUS
 62
    30
 10
-72.685714285714283
 20
569.95531043164692
 30
0.0
 40
64.0
  1
349
 41
0.9
 72
     1
 11
0.0
 21
569.95531043164692
 31
0.0
  0
LINE
  8
SIZE
  6
CONTINUOUS
 62
    30
 10
194.5
 20
129.0
 30
0.0
 11
194.5
 21
685.38642743164701
 31
0.0
  0
LINE
  8
SIZE
  6
CONTINUOUS
 62
    30
 10
-194.5
 20
129.0
 30
0.0
 11
-194.5
 21
685.38642743164701
 31
0.0
  0
LINE
  8
SIZE
  6
CONTINUOUS
 62
    30
 10
182.5
 20
665.38642743164678
 30
0.0
 11
-182.5
 21
665.38642743164678
 31
0.0
  0
CIRCLE
  8
SIZE
  6
CONTINUOUS
 62
    30
 10
194.5
 20
665.38642743164678
 30
0.0
 40
6.0
  0
LINE
  8
SIZE
  6
CONTINUOUS
 62
    30
 10
194.5
 20
665.38642743164678
 30
0.0
 11
182.5
 21
665.38642743164678
 31
0.0
  0
CIRCLE
  8
SIZE
  6
CONTINUOUS
 62
    30
 10
-194.5
 20
665.38642743164678
 30
0.0
 40
6.0
  0
LINE
  8
SIZE
  6
CONTINUOUS
 62
    30
 10
-194.5
 20
665.38642743164678
 30
0.0
 11
-182.5
 21
665.38642743164678
 31
0.0
  0
TEXT
  8
SIZE
  6
CONTINUOUS
 62
    30
 10
-72.685714285714269
 20
690.38642743164678
 30
0.0
 40
64.0
  1
389
 41
0.9
 72
     1
 11
0.0
 21
690.38642743164678
 31
0.0
  0
LINE
  8
SIZE
  6
CONTINUOUS
 62
    30
 10
-145.0
 20
175.0
 30
0.0
 11
-427.21865378299049
 21
175.0
 31
0.0
  0
LINE
  8
SIZE
  6
CONTINUOUS
 62
    30
 10
-145.0
 20
-175.0
 30
0.0
 11
-427.21865378299049
 21
-175.0
 31
0.0
  0
LINE
  8
SIZE
  6
CONTINUOUS
 62
    30
 10
-407.21865378299037
 20
163.0
 30
0.0
 11
-407.21865378299037
 21
-163.0
 31
0.0
  0
CIRCLE
  8
SIZE
  6
CONTINUOUS
 62
    30
 10
-407.21865378299037
 20
175.0
 30
0.0
 40
6.0
  0
LINE
  8
SIZE
  6
CONTINUOUS
 62
    30
 10
-407.21865378299037
 20
175.0
 30
0.0
 11
-407.21865378299037
 21
163.0
 31
0.0
  0
CIRCLE
  8
SIZE
  6
CONTINUOUS
 62
    30
 10
-407.21865378299037
 20
-175.0
 30
0.0
 40
6.0
  0
LINE
  8
SIZE
  6
CONTINUOUS
 62
    30
 10
-407.21865378299037
 20
-175.0
 30
0.0
 11
-407.21865378299037
 21
-163.0
 31
0.0
  0
TEXT
  8
SIZE
  6
CONTINUOUS
 62
    30
 10
-432.21865378299037
 20
-74.05714285714285
 30
0.0
 40
64.0
  1
350
 50
90.0
 41
0.9
 72
     1
 11
-432.21865378299037
 21
0.0
 31
0.0
  0
LINE
  8
SIZE
  6
CONTINUOUS
 62
    30
 10
-145.0
 20
175.0
 30
0.0
 11
-306.40296278299041
 21
175.0
 31
0.0
  0
LINE
  8
SIZE
  6
CONTINUOUS
 62
    30
 10
-145.0
 20
124.0
 30
0.0
 11
-306.40296278299041
 21
124.0
 31
0.0
  0
LINE
  8
SIZE
  6
CONTINUOUS
 62
    30
 10
-286.40296278299053
 20
187.0
 30
0.0
 11
-286.40296278299053
 21
199.0
 31
0.0
  0
LINE
  8
SIZE
  6
CONTINUOUS
 62
    30
 10
-286.40296278299053
 20
112.0
 30
0.0
 11
-286.40296278299053
 21
100.0
 31
0.0
  0
LINE
  8
SIZE
  6
CONTINUOUS
 62
    30
 10
-286.40296278299053
 20
325.27079700000007
 30
0.0
 11
-286.40296278299053
 21
175.0
 31
0.0
  0
TEXT
  8
SIZE
  6
CONTINUOUS
 62
    30
 10
-311.40296278299053
 20
231.69936771428559
 30
0.0
 40
64.0
  1
51
 50
90.0
 41
0.9
 72
     1
 11
-311.40296278299053
 21
265.98508199999992
 31
0.0
  0
LINE
  8
SIZE
  6
CONTINUOUS
 62
    30
 10
-286.40296278299053
 20
175.0
 30
0.0
 11
-286.40296278299053
 21
124.0
 31
0.0
  0
LINE
  8
SIZE
  6
CONTINUOUS
 62
    30
 10
-286.40296278299053
 20
175.0
 30
0.0
 11
-286.40296278299053
 21
124.0
 31
0.0
  0
CIRCLE
  8
SIZE
  6
CONTINUOUS
 62
    30
 10
-286.40296278299053
 20
175.0
 30
0.0
 40
6.0
  0
LINE
  8
SIZE
  6
CONTINUOUS
 62
    30
 10
-286.40296278299053
 20
175.0
 30
0.0
 11
-286.40296278299053
 21
187.0
 31
0.0
  0
CIRCLE
  8
SIZE
  6
CONTINUOUS
 62
    30
 10
-286.40296278299053
 20
124.0
 30
0.0
 40
6.0
  0
LINE
  8
SIZE
  6
CONTINUOUS
 62
    30
 10
-286.40296278299053
 20
124.0
 30
0.0
 11
-286.40296278299053
 21
112.0
 31
0.0
  0
LINE
  8
SIZE
  6
CONTINUOUS
 62
    30
 10
-145.0
 20
-124.0
 30
0.0
 11
-306.40296278299041
 21
-124.0
 31
0.0
  0
LINE
  8
SIZE
  6
CONTINUOUS
 62
    30
 10
-145.0
 20
-175.0
 30
0.0
 11
-306.40296278299041
 21
-175.0
 31
0.0
  0
LINE
  8
SIZE
  6
CONTINUOUS
 62
    30
 10
-286.40296278299053
 20
-112.0
 30
0.0
 11
-286.40296278299053
 21
-100.0
 31
0.0
  0
LINE
  8
SIZE
  6
CONTINUOUS
 62
    30
 10
-286.40296278299053
 20
-187.0
 30
0.0
 11
-286.40296278299053
 21
-199.0
 31
0.0
  0
LINE
  8
SIZE
  6
CONTINUOUS
 62
    30
 10
-286.40296278299053
 20
-329.44734199999988
 30
0.0
 11
-286.40296278299053
 21
-175.0
 31
0.0
  0
TEXT
  8
SIZE
  6
CONTINUOUS
 62
    30
 10
-311.40296278299053
 20
-304.44734228571429
 30
0.0
 40
64.0
  1
51
 50
90.0
 41
0.9
 72
     1
 11
-311.40296278299053
 21
-270.16162800000012
 31
0.0
  0
LINE
  8
SIZE
  6
CONTINUOUS
 62
    30
 10
-286.40296278299053
 20
-124.0
 30
0.0
 11
-286.40296278299053
 21
-175.0
 31
0.0
  0
LINE
  8
SIZE
  6
CONTINUOUS
 62
    30
 10
-286.40296278299053
 20
-124.0
 30
0.0
 11
-286.40296278299053
 21
-175.0
 31
0.0
  0
CIRCLE
  8
SIZE
  6
CONTINUOUS
 62
    30
 10
-286.40296278299053
 20
-124.0
 30
0.0
 40
6.0
  0
LINE
  8
SIZE
  6
CONTINUOUS
 62
    30
 10
-286.40296278299053
 20
-124.0
 30
0.0
 11
-286.40296278299053
 21
-112.0
 31
0.0
  0
CIRCLE
  8
SIZE
  6
CONTINUOUS
 62
    30
 10
-286.40296278299053
 20
-175.0
 30
0.0
 40
6.0
  0
LINE
  8
SIZE
  6
CONTINUOUS
 62
    30
 10
-286.40296278299053
 20
-175.0
 30
0.0
 11
-286.40296278299053
 21
-187.0
 31
0.0
  0
LINE
  8
NOTE
  6
CONTINUOUS
 62
     4
 10
124.5
 20
-95.0
 30
0.0
 11
259.81597399999998
 21
-269.69420600000012
 31
0.0
  0
LINE
  8
NOTE
  6
CONTINUOUS
 62
     4
 10
259.81597399999998
 20
-269.69420600000012
 30
0.0
 11
364.79633100000001
 21
-269.69420600000012
 31
0.0
  0
TEXT
  8
NOTE
  6
CONTINUOUS
 62
     4
 10
269.6348355714286
 20
-254.69168987432519
 30
0.0
 40
64.0
  1
EL
 41
0.9
  0
LINE
  8
NOTE
  6
CONTINUOUS
 62
     4
 10
155.79993300000001
 20
-119.90610700000001
 30
0.0
 11
124.5
 21
-95.0
 31
0.0
  0
LINE
  8
NOTE
  6
CONTINUOUS
 62
     4
 10
124.5
 20
-95.0
 30
0.0
 11
139.15348399999999
 21
-132.21928800000001
 31
0.0
  0
LINE
  8
OUTLINE
  6
CONTINUOUS
 62
     3
 10
-125.0
 20
-175.0
 30
0.0
 11
125.0
 21
-175.0
 31
0.0
  0
LINE
  8
OUTLINE
  6
CONTINUOUS
 62
     3
 10
-125.0
 20
175.0
 30
0.0
 11
125.0
 21
175.0
 31
0.0
  0
LINE
  8
OUTLINE
  6
CONTINUOUS
 62
     3
 10
-125.0
 20
175.0
 30
0.0
 11
-125.0
 21
124.0
 31
0.0
  0
LINE
  8
OUTLINE
  6
CONTINUOUS
 62
     3
 10
125.0
 20
175.0
 30
0.0
 11
125.0
 21
124.0
 31
0.0
  0
LINE
  8
OUTLINE
  6
CONTINUOUS
 62
     3
 10
-194.5
 20
-64.0
 30
0.0
 11
-180.0
 21
-64.0
 31
0.0
  0
LINE
  8
OUTLINE
  6
CONTINUOUS
 62
     3
 10
-194.5
 20
-109.0
 30
0.0
 11
-131.08823499999991
 21
-109.0
 31
0.0
  0
LINE
  8
OUTLINE
  6
CONTINUOUS
 62
     3
 10
-194.5
 20
-64.0
 30
0.0
 11
-194.5
 21
-109.0
 31
0.0
  0
LINE
  8
OUTLINE
  6
CONTINUOUS
 62
     3
 10
-180.0
 20
-64.0
 30
0.0
 11
-180.0
 21
-80.5
 31
0.0
  0
LINE
  8
OUTLINE
  6
CONTINUOUS
 62
     3
 10
-169.0
 20
-64.0
 30
0.0
 11
-169.0
 21
-80.5
 31
0.0
  0
ARC
  8
OUTLINE
  6
CONTINUOUS
 62
     3
 10
-174.5
 20
-80.5
 30
0.0
 40
5.5
 50
180.0
 51
0.0
  0
LINE
  8
OUTLINE
  6
CONTINUOUS
 62
     3
 10
194.5
 20
-64.0
 30
0.0
 11
194.5
 21
-109.0
 31
0.0
  0
LINE
  8
OUTLINE
  6
CONTINUOUS
 62
     3
 10
194.5
 20
-64.0
 30
0.0
 11
180.0
 21
-64.0
 31
0.0
  0
LINE
  8
OUTLINE
  6
CONTINUOUS
 62
     3
 10
180.0
 20
-64.0
 30
0.0
 11
180.0
 21
-80.5
 31
0.0
  0
LINE
  8
OUTLINE
  6
CONTINUOUS
 62
     3
 10
169.0
 20
-64.0
 30
0.0
 11
169.0
 21
-80.5
 31
0.0
  0
ARC
  8
OUTLINE
  6
CONTINUOUS
 62
     3
 10
174.5
 20
-80.5
 30
0.0
 40
5.5
 50
180.0
 51
0.0
  0
LINE
  8
OUTLINE
  6
CONTINUOUS
 62
     3
 10
-169.0
 20
-64.0
 30
0.0
 11
-149.61764700000001
 21
-64.0
 31
0.0
  0
LINE
  8
OUTLINE
  6
CONTINUOUS
 62
     3
 10
169.0
 20
-64.0
 30
0.0
 11
149.64285714285731
 21
-64.0
 31
0.0
  0
LINE
  8
OUTLINE
  6
CONTINUOUS
 62
     3
 10
131.16071428571439
 20
-109.0
 30
0.0
 11
194.5
 21
-109.0
 31
0.0
  0
LINE
  8
OUTLINE
  6
CONTINUOUS
 62
     3
 10
-159.5
 20
40.0
 30
0.0
 11
-159.5
 21
2.5
 31
0.0
  0
LINE
  8
OUTLINE
  6
CONTINUOUS
 62
     3
 10
-125.0
 20
-124.0
 30
0.0
 11
-125.0
 21
-175.0
 31
0.0
  0
LINE
  8
OUTLINE
  6
CONTINUOUS
 62
     3
 10
125.0
 20
-124.0
 30
0.0
 11
125.0
 21
-175.0
 31
0.0
  0
LINE
  8
OUTLINE
  6
CONTINUOUS
 62
     3
 10
-159.5
 20
-2.5
 30
0.0
 11
-159.5
 21
-40.0
 31
0.0
  0
LINE
  8
OUTLINE
  6
CONTINUOUS
 62
     3
 10
-169.0
 20
64.0
 30
0.0
 11
-149.61764700000001
 21
64.0
 31
0.0
  0
ARC
  8
OUTLINE
  6
CONTINUOUS
 62
     3
 10
-174.5
 20
80.5
 30
0.0
 40
5.5
 50
0.0
 51
180.0
  0
LINE
  8
OUTLINE
  6
CONTINUOUS
 62
     3
 10
-169.0
 20
64.0
 30
0.0
 11
-169.0
 21
80.5
 31
0.0
  0
LINE
  8
OUTLINE
  6
CONTINUOUS
 62
     3
 10
-180.0
 20
64.0
 30
0.0
 11
-180.0
 21
80.5
 31
0.0
  0
LINE
  8
OUTLINE
  6
CONTINUOUS
 62
     3
 10
-194.5
 20
64.0
 30
0.0
 11
-194.5
 21
109.0
 31
0.0
  0
LINE
  8
OUTLINE
  6
CONTINUOUS
 62
     3
 10
-194.5
 20
109.0
 30
0.0
 11
-131.16071428571419
 21
109.0
 31
0.0
  0
LINE
  8
OUTLINE
  6
CONTINUOUS
 62
     3
 10
-194.5
 20
64.0
 30
0.0
 11
-180.0
 21
64.0
 31
0.0
  0
LINE
  8
OUTLINE
  6
CONTINUOUS
 62
     3
 10
131.08823499999991
 20
109.0
 30
0.0
 11
194.5
 21
109.0
 31
0.0
  0
LINE
  8
OUTLINE
  6
CONTINUOUS
 62
     3
 10
169.0
 20
64.0
 30
0.0
 11
149.64285714285731
 21
64.0
 31
0.0
  0
ARC
  8
OUTLINE
  6
CONTINUOUS
 62
     3
 10
174.5
 20
80.5
 30
0.0
 40
5.5
 50
0.0
 51
180.0
  0
LINE
  8
OUTLINE
  6
CONTINUOUS
 62
     3
 10
169.0
 20
64.0
 30
0.0
 11
169.0
 21
80.5
 31
0.0
  0
LINE
  8
OUTLINE
  6
CONTINUOUS
 62
     3
 10
180.0
 20
64.0
 30
0.0
 11
180.0
 21
80.5
 31
0.0
  0
LINE
  8
OUTLINE
  6
CONTINUOUS
 62
     3
 10
194.5
 20
64.0
 30
0.0
 11
180.0
 21
64.0
 31
0.0
  0
LINE
  8
OUTLINE
  6
CONTINUOUS
 62
     3
 10
194.5
 20
64.0
 30
0.0
 11
194.5
 21
109.0
 31
0.0
  0
LINE
  8
OUTLINE
  6
CONTINUOUS
 62
     3
 10
159.5
 20
-2.5
 30
0.0
 11
159.5
 21
-40.0
 31
0.0
  0
LINE
  8
OUTLINE
  6
CONTINUOUS
 62
     3
 10
159.5
 20
40.0
 30
0.0
 11
159.5
 21
2.5
 31
0.0
  0
LINE
  8
OUTLINE
  6
CONTINUOUS
 62
     3
 10
125.0
 20
124.0
 30
0.0
 11
131.16071428571439
 21
109.0
 31
0.0
  0
LINE
  8
OUTLINE
  6
CONTINUOUS
 62
     3
 10
149.64285714285731
 20
64.0
 30
0.0
 11
159.5
 21
40.0
 31
0.0
  0
LINE
  8
OUTLINE
  6
CONTINUOUS
 62
     3
 10
-125.0
 20
124.0
 30
0.0
 11
-131.16071428571419
 21
109.0
 31
0.0
  0
LINE
  8
OUTLINE
  6
CONTINUOUS
 62
     3
 10
-149.64285714285711
 20
64.0
 30
0.0
 11
-159.5
 21
40.0
 31
0.0
  0
LINE
  8
OUTLINE
  6
CONTINUOUS
 62
     3
 10
-125.0
 20
-124.0
 30
0.0
 11
-131.16071428571419
 21
-109.0
 31
0.0
  0
LINE
  8
OUTLINE
  6
CONTINUOUS
 62
     3
 10
-149.64285714285711
 20
-64.0
 30
0.0
 11
-159.5
 21
-40.0
 31
0.0
  0
LINE
  8
OUTLINE
  6
CONTINUOUS
 62
     3
 10
125.0
 20
-124.0
 30
0.0
 11
131.16071428571439
 21
-109.0
 31
0.0
  0
LINE
  8
OUTLINE
  6
CONTINUOUS
 62
     3
 10
149.64285714285731
 20
-64.0
 30
0.0
 11
159.5
 21
-40.0
 31
0.0
  0
LINE
  8
OUTLINE
  6
CONTINUOUS
 62
     3
 10
125.0
 20
-124.0
 30
0.0
 11
131.16071428571439
 21
-109.0
 31
0.0
  0
LINE
  8
OUTLINE
  6
CONTINUOUS
 62
     3
 10
149.64285714285731
 20
-64.0
 30
0.0
 11
159.5
 21
-40.0
 31
0.0
  0
LINE
  8
OUTLINE
  6
CONTINUOUS
 62
     3
 10
-125.0
 20
-124.0
 30
0.0
 11
-131.16071428571419
 21
-109.0
 31
0.0
  0
LINE
  8
OUTLINE
  6
CONTINUOUS
 62
     3
 10
-149.64285714285711
 20
-64.0
 30
0.0
 11
-159.5
 21
-40.0
 31
0.0
  0
LINE
  8
OUTLINE
  6
CONTINUOUS
 62
     3
 10
-125.0
 20
124.0
 30
0.0
 11
-131.16071428571419
 21
109.0
 31
0.0
  0
LINE
  8
OUTLINE
  6
CONTINUOUS
 62
     3
 10
-149.64285714285711
 20
64.0
 30
0.0
 11
-159.5
 21
40.0
 31
0.0
  0
LINE
  8
OUTLINE
  6
CONTINUOUS
 62
     3
 10
125.0
 20
124.0
 30
0.0
 11
131.16071428571439
 21
109.0
 31
0.0
  0
LINE
  8
OUTLINE
  6
CONTINUOUS
 62
     3
 10
149.64285714285731
 20
64.0
 30
0.0
 11
159.5
 21
40.0
 31
0.0
  0
LINE
  8
OUTLINE
  6
CONTINUOUS
 62
     3
 10
159.5
 20
40.0
 30
0.0
 11
159.5
 21
2.5
 31
0.0
  0
LINE
  8
OUTLINE
  6
CONTINUOUS
 62
     3
 10
159.5
 20
-2.5
 30
0.0
 11
159.5
 21
-40.0
 31
0.0
  0
LINE
  8
OUTLINE
  6
CONTINUOUS
 62
     3
 10
-159.5
 20
-2.5
 30
0.0
 11
-159.5
 21
-40.0
 31
0.0
  0
LINE
  8
OUTLINE
  6
CONTINUOUS
 62
     3
 10
-159.5
 20
40.0
 30
0.0
 11
-159.5
 21
2.5
 31
0.0
  0
LINE
  8
OUTLINE
  6
CONTINUOUS
 62
     3
 10
-180.0
 20
-2.5
 30
0.0
 11
-159.4999999999998
 21
-2.5
 31
0.0
  0
LINE
  8
OUTLINE
  6
CONTINUOUS
 62
     3
 10
159.5000000000002
 20
-2.5
 30
0.0
 11
180.0
 21
-2.5
 31
0.0
  0
LINE
  8
OUTLINE
  6
CONTINUOUS
 62
     3
 10
-180.0
 20
2.5
 30
0.0
 11
-159.4999999999998
 21
2.5
 31
0.0
  0
LINE
  8
OUTLINE
  6
CONTINUOUS
 62
     3
 10
159.5000000000002
 20
2.5
 30
0.0
 11
180.0
 21
2.5
 31
0.0
  0
LINE
  8
OUTLINE
  6
CONTINUOUS
 62
     3
 10
-180.0
 20
2.5
 30
0.0
 11
-180.0
 21
-2.5
 31
0.0
  0
LINE
  8
OUTLINE
  6
CONTINUOUS
 62
     3
 10
180.0
 20
2.5
 30
0.0
 11
180.0
 21
-2.5
 31
0.0
  0
LINE
  8
OUTLINE
  6
CONTINUOUS
 62
     3
 10
-180.0
 20
2.5
 30
0.0
 11
-159.4999999999998
 21
2.5
 31
0.0
  0
LINE
  8
OUTLINE
  6
CONTINUOUS
 62
     3
 10
159.5000000000002
 20
2.5
 30
0.0
 11
180.0
 21
2.5
 31
0.0
  0
LINE
  8
OUTLINE
  6
CONTINUOUS
 62
     3
 10
-180.0
 20
-2.5
 30
0.0
 11
-159.4999999999998
 21
-2.5
 31
0.0
  0
LINE
  8
OUTLINE
  6
CONTINUOUS
 62
     3
 10
159.5000000000002
 20
-2.5
 30
0.0
 11
180.0
 21
-2.5
 31
0.0
  0
LINE
  8
OUTLINE
  6
CONTINUOUS
 62
     3
 10
-180.0
 20
2.5
 30
0.0
 11
-180.0
 21
-2.5
 31
0.0
  0
LINE
  8
OUTLINE
  6
CONTINUOUS
 62
     3
 10
180.0
 20
2.5
 30
0.0
 11
180.0
 21
-2.5
 31
0.0
  0
TEXT
  8
NOTE
  6
CONTINUOUS
 62
     4
 10
-93.070377449933176
 20
231.89308037986939
 30
0.0
 40
64.0
  1
吸込口
 41
0.9
  0
TEXT
  8
NOTE
  6
CONTINUOUS
 62
     4
 10
-94.771286994212915
 20
-278.61384784688579
 30
0.0
 40
64.0
  1
吹出口
 41
0.9
  0
LINE
  8
SIZE
  6
CONTINUOUS
 62
    30
 10
180.0
 20
100.5
 30
0.0
 11
180.0
 21
313.0748520388579
 31
0.0
  0
LINE
  8
SIZE
  6
CONTINUOUS
 62
    30
 10
169.0
 20
100.5
 30
0.0
 11
169.0
 21
313.0748520388579
 31
0.0
  0
LINE
  8
SIZE
  6
CONTINUOUS
 62
    30
 10
157.0
 20
293.0748520388579
 30
0.0
 11
145.0
 21
293.0748520388579
 31
0.0
  0
LINE
  8
SIZE
  6
CONTINUOUS
 62
    30
 10
192.0
 20
293.0748520388579
 30
0.0
 11
311.60000000000002
 21
293.0748520388579
 31
0.0
  0
LINE
  8
SIZE
  6
CONTINUOUS
 62
    30
 10
169.0
 20
293.0748520388579
 30
0.0
 11
180.0
 21
293.0748520388579
 31
0.0
  0
CIRCLE
  8
SIZE
  6
CONTINUOUS
 62
    30
 10
169.0
 20
293.0748520388579
 30
0.0
 40
6.0
  0
LINE
  8
SIZE
  6
CONTINUOUS
 62
    30
 10
169.0
 20
293.0748520388579
 30
0.0
 11
157.0
 21
293.0748520388579
 31
0.0
  0
CIRCLE
  8
SIZE
  6
CONTINUOUS
 62
    30
 10
180.0
 20
293.0748520388579
 30
0.0
 40
6.0
  0
LINE
  8
SIZE
  6
CONTINUOUS
 62
    30
 10
180.0
 20
293.0748520388579
 30
0.0
 11
192.0
 21
293.0748520388579
 31
0.0
  0
TEXT
  8
SIZE
  6
CONTINUOUS
 62
    30
 10
215.75200000000001
 20
318.0748520388579
 30
0.0
 40
64.0
  1
11
 50
0.0
 41
0.9
 51
0.0
  7
STANDARD
 71
     0
 72
     1
 11
257.80000000000001
 21
318.0748520388579
 31
0.0
210
0.0
220
0.0
230
1.0
  0
POINT
  8
DEFPOINTS
  6
CONTINUOUS
 62
    30
 10
180.0
 20
80.5
 30
0.0
  0
POINT
  8
DEFPOINTS
  6
CONTINUOUS
 62
    30
 10
169.0
 20
80.5
 30
0.0
  0
POINT
  8
DEFPOINTS
  6
CONTINUOUS
 62
    30
 10
169.0
 20
293.0748520388579
 30
0.0
  0
ENDSEC
  0
EOF
