  0
SECTION
  2
HEADER
  9
$ACADVER
  1
AC1009
  9
$DWGCODEPAGE
  3
dos932
  9
$INSBASE
 10
0.0
 20
0.0
 30
0.0
  9
$EXTMIN
 10
-922.23356532891557
 20
-784.10338224389488
 30
-0.0015258207003583
  9
$EXTMAX
 10
1279.7973751437351
 20
484.49707821069393
 30
0.0000000349246037
  9
$LIMMIN
 10
-2970.0
 20
-2100.0
  9
$LIMMAX
 10
2970.0
 20
2100.0
  9
$ORTHOMODE
 70
     1
  9
$REGENMODE
 70
     1
  9
$FILLMODE
 70
     1
  9
$QTEXTMODE
 70
     0
  9
$MIRRTEXT
 70
     0
  9
$LTSCALE
 40
20.0
  9
$ATTMODE
 70
     1
  9
$TEXTSIZE
 40
64.0
  9
$TRACEWID
 40
0.05
  9
$TEXTSTYLE
  7
STANDARD
  9
$CLAYER
  8
SIZE
  9
$CELTYPE
  6
CONTINUOUS
  9
$CECOLOR
 62
     7
  9
$DIMSCALE
 40
1.0
  9
$DIMASZ
 40
12.0
  9
$DIMEXO
 40
20.0
  9
$DIMDLI
 40
200.0
  9
$DIMRND
 40
0.0
  9
$DIMDLE
 40
0.0
  9
$DIMEXE
 40
20.0
  9
$DIMTP
 40
0.0
  9
$DIMTM
 40
0.0
  9
$DIMTXT
 40
64.0
  9
$DIMCEN
 40
0.09
  9
$DIMTSZ
 40
0.0
  9
$DIMTOL
 70
     0
  9
$DIMLIM
 70
     0
  9
$DIMTIH
 70
     0
  9
$DIMTOH
 70
     0
  9
$DIMSE1
 70
     0
  9
$DIMSE2
 70
     0
  9
$DIMTAD
 70
     1
  9
$DIMZIN
 70
     8
  9
$DIMBLK
  1

  9
$DIMASO
 70
     1
  9
$DIMSHO
 70
     0
  9
$DIMPOST
  1

  9
$DIMAPOST
  1

  9
$DIMALT
 70
     0
  9
$DIMALTD
 70
     2
  9
$DIMALTF
 40
25.399999999999999
  9
$DIMLFAC
 40
1.0
  9
$DIMTOFL
 70
     1
  9
$DIMTVP
 40
0.0
  9
$DIMTIX
 70
     1
  9
$DIMSOXD
 70
     0
  9
$DIMSAH
 70
     0
  9
$DIMBLK1
  1

  9
$DIMBLK2
  1

  9
$DIMSTYLE
  2
STANDARD
  9
$DIMCLRD
 70
     7
  9
$DIMCLRE
 70
     7
  9
$DIMCLRT
 70
     7
  9
$DIMTFAC
 40
1.0
  9
$DIMGAP
 40
25.0
  9
$LUNITS
 70
     2
  9
$LUPREC
 70
     4
  9
$SKETCHINC
 40
0.1
  9
$FILLETRAD
 40
3.0
  9
$AUNITS
 70
     1
  9
$AUPREC
 70
     3
  9
$MENU
  1
ACAD
  9
$ELEVATION
 40
0.0
  9
$PELEVATION
 40
0.0
  9
$THICKNESS
 40
0.0
  9
$LIMCHECK
 70
     0
  9
$CHAMFERA
 40
0.0
  9
$CHAMFERB
 40
0.0
  9
$SKPOLY
 70
     0
  9
$TDCREATE
 40
2453019.62301037
  9
$TDUPDATE
 40
2459025.609122315
  9
$TDINDWG
 40
1.7128979282
  9
$TDUSRTIMER
 40
1.7128979282
  9
$USRTIMER
 70
     1
  9
$ANGBASE
 50
0.0
  9
$ANGDIR
 70
     0
  9
$PDMODE
 70
     3
  9
$PDSIZE
 40
-2.0
  9
$PLINEWID
 40
0.0
  9
$SPLFRAME
 70
     0
  9
$SPLINETYPE
 70
     6
  9
$SPLINESEGS
 70
     8
  9
$SURFTAB1
 70
     6
  9
$SURFTAB2
 70
     6
  9
$SURFTYPE
 70
     6
  9
$SURFU
 70
     6
  9
$SURFV
 70
     6
  9
$UCSNAME
  2

  9
$UCSORG
 10
0.0
 20
0.0
 30
0.0
  9
$UCSXDIR
 10
1.0
 20
0.0
 30
0.0
  9
$UCSYDIR
 10
0.0
 20
1.0
 30
0.0
  9
$PUCSNAME
  2

  9
$PUCSORG
 10
0.0
 20
0.0
 30
0.0
  9
$PUCSXDIR
 10
1.0
 20
0.0
 30
0.0
  9
$PUCSYDIR
 10
0.0
 20
1.0
 30
0.0
  9
$USERI1
 70
     0
  9
$USERI2
 70
     0
  9
$USERI3
 70
     0
  9
$USERI4
 70
     0
  9
$USERI5
 70
     0
  9
$USERR1
 40
20.0
  9
$USERR2
 40
0.0
  9
$USERR3
 40
0.0
  9
$USERR4
 40
0.0
  9
$USERR5
 40
0.0
  9
$WORLDVIEW
 70
     1
  9
$SHADEDGE
 70
     3
  9
$SHADEDIF
 70
    70
  9
$TILEMODE
 70
     1
  9
$MAXACTVP
 70
    48
  9
$PINSBASE
 10
0.0
 20
0.0
 30
0.0
  9
$PLIMCHECK
 70
     0
  9
$PEXTMIN
 10
-100000000000000000000.0
 20
-100000000000000000000.0
 30
-100000000000000000000.0
  9
$PEXTMAX
 10
100000000000000000000.0
 20
100000000000000000000.0
 30
100000000000000000000.0
  9
$PLIMMIN
 10
0.0
 20
0.0
  9
$PLIMMAX
 10
12.0
 20
9.0
  9
$UNITMODE
 70
     0
  9
$VISRETAIN
 70
     0
  9
$PLINEGEN
 70
     0
  9
$PSLTSCALE
 70
     0
  9
$TREEDEPTH
 70
  3020
  9
$ATTDIA
 70
     0
  9
$ATTREQ
 70
     1
  9
$BLIPMODE
 70
     1
  9
$COORDS
 70
     1
  9
$DRAGMODE
 70
     2
  9
$OSMODE
 70
     0
  9
$HANDLING
 70
     0
  9
$HANDSEED
  5
EDDC
  0
ENDSEC
  0
SECTION
  2
TABLES
  0
TABLE
  2
LTYPE
 70
     2
  0
LTYPE
  2
CONTINUOUS
 70
     0
  3
実線
 72
    65
 73
     0
 40
0.0
  0
LTYPE
  2
DASHDOT
 70
     0
  3
____ _ ____ _ ____ _ ____ _ ____ _ ____ _ ____
 72
    65
 73
     4
 40
5.5
 49
4.0
 49
-0.6
 49
0.3
 49
-0.6
  0
ENDTAB
  0
TABLE
  2
LAYER
 70
    12
  0
LAYER
  2
0
 70
     0
 62
     7
  6
CONTINUOUS
  0
LAYER
  2
BASIS
 70
     0
 62
     6
  6
DASHDOT
  0
LAYER
  2
OUTLINE
 70
     0
 62
     3
  6
CONTINUOUS
  0
LAYER
  2
DETAIL
 70
     0
 62
     5
  6
CONTINUOUS
  0
LAYER
  2
SIZE
 70
     0
 62
    30
  6
CONTINUOUS
  0
LAYER
  2
ARRANGE
 70
     0
 62
     1
  6
CONTINUOUS
  0
LAYER
  2
DEFPOINTS
 70
     0
 62
     7
  6
CONTINUOUS
  0
LAYER
  2
ETC
 70
     0
 62
    61
  6
CONTINUOUS
  0
LAYER
  2
FIX
 70
     0
 62
    11
  6
CONTINUOUS
  0
LAYER
  2
NOTE
 70
     0
 62
     4
  6
CONTINUOUS
  0
LAYER
  2
SERVICESPACE
 70
    64
 62
     2
  6
DASHDOT
  0
LAYER
  2
SYMBOLLINE
 70
    64
 62
    15
  6
CONTINUOUS
  0
ENDTAB
  0
TABLE
  2
STYLE
 70
     1
  0
STYLE
  2
STANDARD
 70
     0
 40
64.0
 41
0.9
 50
0.0
 71
     0
 42
64.0
  3
SIMPLEX.shx
  4
BIGFONT.shx
  0
ENDTAB
  0
TABLE
  2
APPID
 70
    19
  0
APPID
  2
ACAD
 70
     0
  0
APPID
  2
AUTOCAD_POSTSCRIPT_FIGURE
 70
     0
  0
APPID
  2
ACAD_EXEMPT_FROM_CAD_STANDARDS
 70
     0
  0
APPID
  2
ACAD_PSEXT
 70
     0
  0
APPID
  2
ACAUTHENVIRON
 70
     0
  0
APPID
  2
GENIUS_GENOENT_13
 70
     0
  0
APPID
  2
GENIUS_GENCFG_13
 70
     0
  0
APPID
  2
GENIUS_GENCFG0_13
 70
     0
  0
APPID
  2
GENIUS_GENCFG1_13
 70
     0
  0
APPID
  2
GENIUS_GENCFG2_13
 70
     0
  0
APPID
  2
GENIUS_GENCFG3_13
 70
     0
  0
APPID
  2
GENIUS_GENCFG4_13
 70
     0
  0
APPID
  2
GENIUS_GEVCFG0_13
 70
     0
  0
APPID
  2
CONTENTBLOCKICON
 70
     0
  0
APPID
  2
CONTENTBLOCKDESCRIPTION
 70
     0
  0
APPID
  2
ACAD_NAV_VCDISPLAY
 70
     0
  0
APPID
  2
ACAD_MLEADERVER
 70
     0
  0
APPID
  2
ACDBDYNAMICBLOCKTRUENAME
 70
     0
  0
APPID
  2
ACDBDYNAMICBLOCKGUID
 70
     0
  0
ENDTAB
  0
TABLE
  2
DIMSTYLE
 70
     1
  0
DIMSTYLE
  2
STANDARD
 70
     0
  3

  4

  5
_ORIGIN
  6

  7

 40
1.0
 41
12.0
 42
20.0
 43
200.0
 44
20.0
 45
0.0
 46
0.0
 47
0.0
 48
0.0
140
64.0
141
0.09
142
0.0
143
25.399999999999999
144
1.0
145
0.0
146
1.0
147
25.0
 71
     0
 72
     0
 73
     0
 74
     0
 75
     0
 76
     0
 77
     1
 78
     8
170
     0
171
     2
172
     1
173
     0
174
     1
175
     0
176
     7
177
     7
178
     7
  0
ENDTAB
  0
TABLE
  2
VIEW
 70
     1
  0
VIEW
  2
ALL
 70
     0
 40
4282.6198079999986
 10
0.0
 20
41.309904000000003
 41
5940.0
 11
0.0
 21
0.0
 31
1.0
 12
0.0
 22
0.0
 32
0.0
 42
50.0
 43
0.0
 44
0.0
 50
0.0
 71
     0
  0
ENDTAB
  0
TABLE
  2
UCS
 70
     0
  0
ENDTAB
  0
TABLE
  2
VPORT
 70
     1
  0
VPORT
  2
*ACTIVE
 70
     0
 10
0.0
 20
0.0
 11
1.0
 21
1.0
 12
178.7819049074096
 22
-149.80315201660051
 13
0.0
 23
0.0
 14
1.0
 24
1.0
 15
0.0
 25
0.0
 16
0.0
 26
0.0
 36
1.0
 17
0.0
 27
0.0
 37
0.0
 40
1277.0110712421331
 41
1.747787610619469
 42
50.0
 43
0.0
 44
0.0
 50
0.0
 51
0.0
 71
     0
 72
  1000
 73
     1
 74
     3
 75
     0
 76
     0
 77
     0
 78
     0
  0
ENDTAB
  0
ENDSEC
  0
SECTION
  2
BLOCKS
  0
BLOCK
  8
0
  2
_ORIGIN
 70
     0
 10
0.0
 20
0.0
 30
0.0
  3
_ORIGIN
  1
_ORIGIN
  0
CIRCLE
  8
0
  6
CONTINUOUS
 62
     7
 10
0.0
 20
0.0
 30
0.0
 40
0.5
  0
LINE
  8
0
  6
CONTINUOUS
 62
     7
 10
0.0
 20
0.0
 30
0.0
 11
-1.0
 21
0.0
 31
0.0
  0
ENDBLK
  8
0
  0
ENDSEC
  0
SECTION
  2
ENTITIES
  0
LINE
  8
BASIS
  6
DASHDOT
 62
     6
 10
228.54924000000031
 20
-215.0
 30
0.0
 11
-231.415716
 21
-215.0
 31
0.0
  0
LINE
  8
BASIS
  6
DASHDOT
 62
     6
 10
0.0
 20
-457.00919499999998
 30
0.0
 11
0.0
 21
39.571695999999967
 31
0.0
  0
LINE
  8
DETAIL
  6
CONTINUOUS
 62
     5
 10
145.0
 20
-365.0
 30
0.0
 11
145.0
 21
-65.0
 31
0.0
  0
LINE
  8
DETAIL
  6
CONTINUOUS
 62
     5
 10
-145.0
 20
-365.0
 30
0.0
 11
-145.0
 21
-65.0
 31
0.0
  0
LINE
  8
DETAIL
  6
CONTINUOUS
 62
     5
 10
200.0
 20
-365.0
 30
0.0
 11
145.0
 21
-365.0
 31
0.0
  0
LINE
  8
DETAIL
  6
CONTINUOUS
 62
     5
 10
200.0
 20
-65.0
 30
0.0
 11
145.0
 21
-65.0
 31
0.0
  0
LINE
  8
DETAIL
  6
CONTINUOUS
 62
     5
 10
45.0
 20
-25.0
 30
0.0
 11
2.5
 21
-25.0
 31
0.0
  0
LINE
  8
DETAIL
  6
CONTINUOUS
 62
     5
 10
45.0
 20
-405.0
 30
0.0
 11
2.5
 21
-405.0
 31
0.0
  0
LINE
  8
DETAIL
  6
CONTINUOUS
 62
     5
 10
-145.0
 20
-365.0
 30
0.0
 11
-200.0
 21
-365.0
 31
0.0
  0
LINE
  8
DETAIL
  6
CONTINUOUS
 62
     5
 10
-145.0
 20
-65.0
 30
0.0
 11
-200.0
 21
-65.0
 31
0.0
  0
LINE
  8
DETAIL
  6
CONTINUOUS
 62
     5
 10
-2.5
 20
-405.0
 30
0.0
 11
-45.0
 21
-405.0
 31
0.0
  0
LINE
  8
DETAIL
  6
CONTINUOUS
 62
     5
 10
-2.5
 20
-25.0
 30
0.0
 11
-45.0
 21
-25.0
 31
0.0
  0
LINE
  8
DETAIL
  6
CONTINUOUS
 62
     5
 10
-200.0
 20
-365.0
 30
0.0
 11
-200.0
 21
-65.0
 31
0.0
  0
LINE
  8
DETAIL
  6
CONTINUOUS
 62
     5
 10
200.0
 20
-365.0
 30
0.0
 11
200.0
 21
-65.0
 31
0.0
  0
LINE
  8
DETAIL
  6
CONTINUOUS
 62
     5
 10
-45.0
 20
-405.0
 30
0.0
 11
-45.0
 21
-25.0
 31
0.0
  0
LINE
  8
DETAIL
  6
CONTINUOUS
 62
     5
 10
45.0
 20
-405.0
 30
0.0
 11
45.0
 21
-25.0
 31
0.0
  0
LINE
  8
DETAIL
  6
CONTINUOUS
 62
     5
 10
-45.0
 20
-25.0
 30
0.0
 11
-145.0
 21
-65.0
 31
0.0
  0
LINE
  8
DETAIL
  6
CONTINUOUS
 62
     5
 10
45.0
 20
-25.0
 30
0.0
 11
145.0
 21
-65.0
 31
0.0
  0
LINE
  8
DETAIL
  6
CONTINUOUS
 62
     5
 10
-45.0
 20
-405.0
 30
0.0
 11
-145.0
 21
-365.0
 31
0.0
  0
LINE
  8
DETAIL
  6
CONTINUOUS
 62
     5
 10
45.0
 20
-405.0
 30
0.0
 11
145.0
 21
-365.0
 31
0.0
  0
LINE
  8
DETAIL
  6
CONTINUOUS
 62
     5
 10
2.5
 20
-430.0
 30
0.0
 11
2.5
 21
0.0
 31
0.0
  0
LINE
  8
DETAIL
  6
CONTINUOUS
 62
     5
 10
-2.5
 20
-430.0
 30
0.0
 11
-2.5
 21
0.0
 31
0.0
  0
LINE
  8
DETAIL
  6
CONTINUOUS
 62
     5
 10
-1.5
 20
-430.0
 30
0.0
 11
-1.5
 21
0.0
 31
0.0
  0
LINE
  8
DETAIL
  6
CONTINUOUS
 62
     5
 10
1.5
 20
-430.0
 30
0.0
 11
1.5
 21
0.0
 31
0.0
  0
LINE
  8
DETAIL
  6
CONTINUOUS
 62
     5
 10
2.5
 20
-430.0
 30
0.0
 11
-2.5
 21
-430.0
 31
0.0
  0
LINE
  8
DETAIL
  6
CONTINUOUS
 62
     5
 10
2.5
 20
0.0
 30
0.0
 11
-2.5
 21
0.0
 31
0.0
  0
LINE
  8
SIZE
  6
CONTINUOUS
 62
    30
 10
220.0
 20
-65.0
 30
0.0
 11
606.33830958089993
 21
-65.0
 31
0.0
  0
LINE
  8
SIZE
  6
CONTINUOUS
 62
    30
 10
220.0
 20
-365.0
 30
0.0
 11
606.33830958089993
 21
-365.0
 31
0.0
  0
LINE
  8
SIZE
  6
CONTINUOUS
 62
    30
 10
586.33830958089993
 20
-77.0
 30
0.0
 11
586.33830958089993
 21
-353.0
 31
0.0
  0
CIRCLE
  8
SIZE
  6
CONTINUOUS
 62
    30
 10
586.33830958089993
 20
-65.0
 30
0.0
 40
6.0
  0
LINE
  8
SIZE
  6
CONTINUOUS
 62
    30
 10
586.33830958089993
 20
-65.0
 30
0.0
 11
586.33830958089993
 21
-77.0
 31
0.0
  0
CIRCLE
  8
SIZE
  6
CONTINUOUS
 62
    30
 10
586.33830958089993
 20
-365.0
 30
0.0
 40
6.0
  0
LINE
  8
SIZE
  6
CONTINUOUS
 62
    30
 10
586.33830958089993
 20
-365.0
 30
0.0
 11
586.33830958089993
 21
-353.0
 31
0.0
  0
TEXT
  8
SIZE
  6
CONTINUOUS
 62
    30
 10
561.33830958089993
 20
-329.37714285714293
 30
0.0
 40
64.0
  1
φ300
 50
90.0
 41
0.9
 72
     1
 11
561.33830958089993
 21
-215.0
 31
0.0
  0
POINT
  8
DEFPOINTS
  6
CONTINUOUS
 62
    30
 10
586.33830958089993
 20
-365.0
 30
0.0
  0
LINE
  8
SIZE
  6
CONTINUOUS
 62
    30
 10
22.5
 20
0.0
 30
0.0
 11
740.78268758090007
 21
0.0
 31
0.0
  0
LINE
  8
SIZE
  6
CONTINUOUS
 62
    30
 10
22.5
 20
-430.0
 30
0.0
 11
740.78268758090007
 21
-430.0
 31
0.0
  0
LINE
  8
SIZE
  6
CONTINUOUS
 62
    30
 10
720.78268758090007
 20
-12.0
 30
0.0
 11
720.78268758090007
 21
-418.0
 31
0.0
  0
CIRCLE
  8
SIZE
  6
CONTINUOUS
 62
    30
 10
720.78268758090007
 20
0.0
 30
0.0
 40
6.0
  0
LINE
  8
SIZE
  6
CONTINUOUS
 62
    30
 10
720.78268758090007
 20
0.0
 30
0.0
 11
720.78268758090007
 21
-12.0
 31
0.0
  0
CIRCLE
  8
SIZE
  6
CONTINUOUS
 62
    30
 10
720.78268758090007
 20
-430.0
 30
0.0
 40
6.0
  0
LINE
  8
SIZE
  6
CONTINUOUS
 62
    30
 10
720.78268758090007
 20
-430.0
 30
0.0
 11
720.78268758090007
 21
-418.0
 31
0.0
  0
TEXT
  8
SIZE
  6
CONTINUOUS
 62
    30
 10
695.78268758090007
 20
-329.37714285714293
 30
0.0
 40
64.0
  1
φ430
 50
90.0
 41
0.9
 72
     1
 11
695.78268758090007
 21
-215.0
 31
0.0
  0
POINT
  8
DEFPOINTS
  6
CONTINUOUS
 62
    30
 10
720.78268758090007
 20
-430.0
 30
0.0
  0
LINE
  8
SIZE
  6
CONTINUOUS
 62
    30
 10
-220.0
 20
-65.0
 30
0.0
 11
-505.49720594140672
 21
-65.0
 31
0.0
  0
LINE
  8
SIZE
  6
CONTINUOUS
 62
    30
 10
-220.0
 20
-365.0
 30
0.0
 11
-505.49720594140672
 21
-365.0
 31
0.0
  0
LINE
  8
SIZE
  6
CONTINUOUS
 62
    30
 10
-485.49720594140672
 20
-77.0
 30
0.0
 11
-485.49720594140672
 21
-353.0
 31
0.0
  0
CIRCLE
  8
SIZE
  6
CONTINUOUS
 62
    30
 10
-485.49720594140672
 20
-65.0
 30
0.0
 40
6.0
  0
LINE
  8
SIZE
  6
CONTINUOUS
 62
    30
 10
-485.49720594140672
 20
-65.0
 30
0.0
 11
-485.49720594140672
 21
-77.0
 31
0.0
  0
CIRCLE
  8
SIZE
  6
CONTINUOUS
 62
    30
 10
-485.49720594140672
 20
-365.0
 30
0.0
 40
6.0
  0
LINE
  8
SIZE
  6
CONTINUOUS
 62
    30
 10
-485.49720594140672
 20
-365.0
 30
0.0
 11
-485.49720594140672
 21
-353.0
 31
0.0
  0
TEXT
  8
SIZE
  6
CONTINUOUS
 62
    30
 10
-510.49720594140672
 20
-329.37714285714293
 30
0.0
 40
64.0
  1
φ300
 50
90.0
 41
0.9
 72
     1
 11
-510.49720594140672
 21
-215.0
 31
0.0
  0
LINE
  8
SIZE
  6
CONTINUOUS
 62
    30
 10
-200.0
 20
-385.0
 30
0.0
 11
-200.0
 21
-691.00020800000004
 31
0.0
  0
LINE
  8
SIZE
  6
CONTINUOUS
 62
    30
 10
-145.0
 20
-385.0
 30
0.0
 11
-145.0
 21
-691.00020800000004
 31
0.0
  0
LINE
  8
SIZE
  6
CONTINUOUS
 62
    30
 10
-212.0
 20
-671.00020800000004
 30
0.0
 11
-224.0
 21
-671.00020800000004
 31
0.0
  0
LINE
  8
SIZE
  6
CONTINUOUS
 62
    30
 10
-133.0
 20
-671.00020800000004
 30
0.0
 11
-121.0
 21
-671.00020800000004
 31
0.0
  0
LINE
  8
SIZE
  6
CONTINUOUS
 62
    30
 10
-377.43415700000008
 20
-671.00020800000004
 30
0.0
 11
-200.0
 21
-671.00020800000004
 31
0.0
  0
TEXT
  8
SIZE
  6
CONTINUOUS
 62
    30
 10
-352.43415742857138
 20
-646.00020800000004
 30
0.0
 40
64.0
  1
55
 41
0.9
 72
     1
 11
-305.80558599999989
 21
-646.00020800000004
 31
0.0
  0
LINE
  8
SIZE
  6
CONTINUOUS
 62
    30
 10
-200.0
 20
-671.00020800000004
 30
0.0
 11
-145.0
 21
-671.00020800000004
 31
0.0
  0
LINE
  8
SIZE
  6
CONTINUOUS
 62
    30
 10
-200.0
 20
-671.00020800000004
 30
0.0
 11
-145.0
 21
-671.00020800000004
 31
0.0
  0
CIRCLE
  8
SIZE
  6
CONTINUOUS
 62
    30
 10
-200.0
 20
-671.00020800000004
 30
0.0
 40
6.0
  0
LINE
  8
SIZE
  6
CONTINUOUS
 62
    30
 10
-200.0
 20
-671.00020800000004
 30
0.0
 11
-212.0
 21
-671.00020800000004
 31
0.0
  0
CIRCLE
  8
SIZE
  6
CONTINUOUS
 62
    30
 10
-145.0
 20
-671.00020800000004
 30
0.0
 40
6.0
  0
LINE
  8
SIZE
  6
CONTINUOUS
 62
    30
 10
-145.0
 20
-671.00020800000004
 30
0.0
 11
-133.0
 21
-671.00020800000004
 31
0.0
  0
POINT
  8
DEFPOINTS
  6
CONTINUOUS
 62
    30
 10
-145.0
 20
-671.00020800000004
 30
0.0
  0
LINE
  8
SIZE
  6
CONTINUOUS
 62
    30
 10
145.0
 20
-385.0
 30
0.0
 11
145.0
 21
-691.00020800000004
 31
0.0
  0
LINE
  8
SIZE
  6
CONTINUOUS
 62
    30
 10
200.0
 20
-385.0
 30
0.0
 11
200.0
 21
-691.00020800000004
 31
0.0
  0
LINE
  8
SIZE
  6
CONTINUOUS
 62
    30
 10
133.0
 20
-671.00020800000004
 30
0.0
 11
121.0
 21
-671.00020800000004
 31
0.0
  0
LINE
  8
SIZE
  6
CONTINUOUS
 62
    30
 10
212.0
 20
-671.00020800000004
 30
0.0
 11
224.0
 21
-671.00020800000004
 31
0.0
  0
LINE
  8
SIZE
  6
CONTINUOUS
 62
    30
 10
375.24164399999972
 20
-671.00020800000004
 30
0.0
 11
200.0
 21
-671.00020800000004
 31
0.0
  0
TEXT
  8
SIZE
  6
CONTINUOUS
 62
    30
 10
256.98450057142873
 20
-646.00020800000004
 30
0.0
 40
64.0
  1
55
 41
0.9
 72
     1
 11
303.6130720000001
 21
-646.00020800000004
 31
0.0
  0
LINE
  8
SIZE
  6
CONTINUOUS
 62
    30
 10
145.0
 20
-671.00020800000004
 30
0.0
 11
200.0
 21
-671.00020800000004
 31
0.0
  0
LINE
  8
SIZE
  6
CONTINUOUS
 62
    30
 10
145.0
 20
-671.00020800000004
 30
0.0
 11
200.0
 21
-671.00020800000004
 31
0.0
  0
CIRCLE
  8
SIZE
  6
CONTINUOUS
 62
    30
 10
145.0
 20
-671.00020800000004
 30
0.0
 40
6.0
  0
LINE
  8
SIZE
  6
CONTINUOUS
 62
    30
 10
145.0
 20
-671.00020800000004
 30
0.0
 11
133.0
 21
-671.00020800000004
 31
0.0
  0
CIRCLE
  8
SIZE
  6
CONTINUOUS
 62
    30
 10
200.0
 20
-671.00020800000004
 30
0.0
 40
6.0
  0
LINE
  8
SIZE
  6
CONTINUOUS
 62
    30
 10
200.0
 20
-671.00020800000004
 30
0.0
 11
212.0
 21
-671.00020800000004
 31
0.0
  0
POINT
  8
DEFPOINTS
  6
CONTINUOUS
 62
    30
 10
200.0
 20
-671.00020800000004
 30
0.0
  0
LINE
  8
SIZE
  6
CONTINUOUS
 62
    30
 10
-200.0
 20
-385.0
 30
0.0
 11
-200.0
 21
-784.03582199999983
 31
0.0
  0
LINE
  8
SIZE
  6
CONTINUOUS
 62
    30
 10
200.0
 20
-385.0
 30
0.0
 11
200.0
 21
-784.03582199999983
 31
0.0
  0
LINE
  8
SIZE
  6
CONTINUOUS
 62
    30
 10
-188.0
 20
-764.03582199999983
 30
0.0
 11
188.0
 21
-764.03582199999983
 31
0.0
  0
CIRCLE
  8
SIZE
  6
CONTINUOUS
 62
    30
 10
-200.0
 20
-764.03582199999983
 30
0.0
 40
6.0
  0
LINE
  8
SIZE
  6
CONTINUOUS
 62
    30
 10
-200.0
 20
-764.03582199999983
 30
0.0
 11
-188.0
 21
-764.03582199999983
 31
0.0
  0
CIRCLE
  8
SIZE
  6
CONTINUOUS
 62
    30
 10
200.0
 20
-764.03582199999983
 30
0.0
 40
6.0
  0
LINE
  8
SIZE
  6
CONTINUOUS
 62
    30
 10
200.0
 20
-764.03582199999983
 30
0.0
 11
188.0
 21
-764.03582199999983
 31
0.0
  0
TEXT
  8
SIZE
  6
CONTINUOUS
 62
    30
 10
-74.05714285714285
 20
-739.03582199999983
 30
0.0
 40
64.0
  1
400
 41
0.9
 72
     1
 11
0.0
 21
-739.03582199999983
 31
0.0
  0
POINT
  8
DEFPOINTS
  6
CONTINUOUS
 62
    30
 10
200.0
 20
-764.03582199999983
 30
0.0
  0
CIRCLE
  8
ARRANGE
  6
CONTINUOUS
 62
     1
 10
0.0
 20
0.0
 30
0.0
 40
40.0
  0
POINT
  8
ARRANGE
  6
CONTINUOUS
 62
     1
 10
0.0
 20
0.0
 30
0.0
  0
LINE
  8
DETAIL
  6
CONTINUOUS
 62
     5
 10
-116.5
 20
-245.0
 30
0.0
 11
-116.5
 21
-219.0
 31
0.0
  0
LINE
  8
DETAIL
  6
CONTINUOUS
 62
     5
 10
-117.0
 20
-245.0
 30
0.0
 11
-117.0
 21
-218.5
 31
0.0
  0
LINE
  8
DETAIL
  6
CONTINUOUS
 62
     5
 10
-116.5
 20
-245.0
 30
0.0
 11
-117.0
 21
-245.0
 31
0.0
  0
CIRCLE
  8
FIX
  6
CONTINUOUS
 62
    11
 10
-88.5
 20
-215.0
 30
0.0
 40
5.5
  0
LINE
  8
DETAIL
  6
CONTINUOUS
 62
     5
 10
-72.0
 20
-208.0
 30
0.0
 11
-72.5
 21
-208.0
 31
0.0
  0
ARC
  8
DETAIL
  6
CONTINUOUS
 62
     5
 10
-113.5
 20
-218.5
 30
0.0
 40
3.5
 50
90.0
 51
180.0
  0
ARC
  8
DETAIL
  6
CONTINUOUS
 62
     5
 10
-113.0
 20
-219.0
 30
0.0
 40
3.5
 50
90.0
 51
180.0
  0
LINE
  8
DETAIL
  6
CONTINUOUS
 62
     5
 10
-72.0
 20
-227.0
 30
0.0
 11
-72.5
 21
-227.0
 31
0.0
  0
LINE
  8
DETAIL
  6
CONTINUOUS
 62
     5
 10
-72.0
 20
-215.5
 30
0.0
 11
-113.0
 21
-215.5
 31
0.0
  0
LINE
  8
DETAIL
  6
CONTINUOUS
 62
     5
 10
-72.0
 20
-215.0
 30
0.0
 11
-113.5
 21
-215.0
 31
0.0
  0
LINE
  8
DETAIL
  6
CONTINUOUS
 62
     5
 10
-72.5
 20
-227.0
 30
0.0
 11
-72.5
 21
-208.0
 31
0.0
  0
LINE
  8
DETAIL
  6
CONTINUOUS
 62
     5
 10
-72.0
 20
-227.0
 30
0.0
 11
-72.0
 21
-208.0
 31
0.0
  0
LINE
  8
NOTE
  6
CONTINUOUS
 62
     4
 10
-68.5
 20
-215.0
 30
0.0
 11
-108.5
 21
-215.0
 31
0.0
  0
LINE
  8
NOTE
  6
CONTINUOUS
 62
     4
 10
-88.5
 20
-235.0
 30
0.0
 11
-88.5
 21
-195.0
 31
0.0
  0
LINE
  8
DETAIL
  6
CONTINUOUS
 62
     5
 10
117.0
 20
-245.0
 30
0.0
 11
117.0
 21
-218.5
 31
0.0
  0
LINE
  8
DETAIL
  6
CONTINUOUS
 62
     5
 10
116.5
 20
-245.0
 30
0.0
 11
116.5
 21
-219.0
 31
0.0
  0
LINE
  8
DETAIL
  6
CONTINUOUS
 62
     5
 10
116.5
 20
-245.0
 30
0.0
 11
117.0
 21
-245.0
 31
0.0
  0
LINE
  8
DETAIL
  6
CONTINUOUS
 62
     5
 10
72.0
 20
-215.0
 30
0.0
 11
113.5
 21
-215.0
 31
0.0
  0
LINE
  8
DETAIL
  6
CONTINUOUS
 62
     5
 10
72.0
 20
-215.5
 30
0.0
 11
113.0
 21
-215.5
 31
0.0
  0
CIRCLE
  8
FIX
  6
CONTINUOUS
 62
    11
 10
88.5
 20
-215.0
 30
0.0
 40
5.5
  0
LINE
  8
DETAIL
  6
CONTINUOUS
 62
     5
 10
72.0
 20
-208.0
 30
0.0
 11
72.5
 21
-208.0
 31
0.0
  0
LINE
  8
DETAIL
  6
CONTINUOUS
 62
     5
 10
72.0
 20
-227.0
 30
0.0
 11
72.5
 21
-227.0
 31
0.0
  0
LINE
  8
NOTE
  6
CONTINUOUS
 62
     4
 10
68.5
 20
-215.0
 30
0.0
 11
108.5
 21
-215.0
 31
0.0
  0
LINE
  8
NOTE
  6
CONTINUOUS
 62
     4
 10
88.5
 20
-235.0
 30
0.0
 11
88.5
 21
-195.0
 31
0.0
  0
LINE
  8
DETAIL
  6
CONTINUOUS
 62
     5
 10
72.0
 20
-227.0
 30
0.0
 11
72.0
 21
-208.0
 31
0.0
  0
LINE
  8
DETAIL
  6
CONTINUOUS
 62
     5
 10
72.5
 20
-227.0
 30
0.0
 11
72.5
 21
-208.0
 31
0.0
  0
ARC
  8
DETAIL
  6
CONTINUOUS
 62
     5
 10
113.0
 20
-219.0
 30
0.0
 40
3.5
 50
0.0
 51
90.0
  0
ARC
  8
DETAIL
  6
CONTINUOUS
 62
     5
 10
113.5
 20
-218.5
 30
0.0
 40
3.5
 50
0.0
 51
90.0
  0
ARC
  8
DETAIL
  6
CONTINUOUS
 62
     5
 10
-115.0
 20
-140.0
 30
0.0
 40
5.0
 50
154.15806700000019
 51
25.841932999999852
  0
ARC
  8
DETAIL
  6
CONTINUOUS
 62
     5
 10
-115.0
 20
-140.0
 30
0.0
 40
6.0
 50
138.59037800000289
 51
41.409621999997071
  0
LINE
  8
NOTE
  6
CONTINUOUS
 62
     4
 10
-115.0
 20
-160.0
 30
0.0
 11
-115.0
 21
-120.0
 31
0.0
  0
LINE
  8
NOTE
  6
CONTINUOUS
 62
     4
 10
-135.0
 20
-140.0
 30
0.0
 11
-95.0
 21
-140.0
 31
0.0
  0
LINE
  8
DETAIL
  6
CONTINUOUS
 62
     5
 10
-119.5
 20
-48.336030000000051
 30
0.0
 11
-118.8658460000001
 21
-48.881678999999963
 31
0.0
  0
LINE
  8
DETAIL
  6
CONTINUOUS
 62
     5
 10
-118.8658460000001
 20
-48.881678999999963
 30
0.0
 11
-118.4590819999999
 21
-49.114911000000014
 31
0.0
  0
LINE
  8
DETAIL
  6
CONTINUOUS
 62
     5
 10
-118.4590819999999
 20
-49.114911000000014
 30
0.0
 11
-117.94469599999999
 21
-49.30063199999995
 31
0.0
  0
LINE
  8
DETAIL
  6
CONTINUOUS
 62
     5
 10
-117.94469599999999
 20
-49.30063199999995
 30
0.0
 11
-117.94469599999999
 21
-49.30063199999995
 31
0.0
  0
LINE
  8
DETAIL
  6
CONTINUOUS
 62
     5
 10
-117.94469599999999
 20
-49.30063199999995
 30
0.0
 11
-117.3901620000001
 21
-49.412134000000037
 31
0.0
  0
LINE
  8
DETAIL
  6
CONTINUOUS
 62
     5
 10
-117.3901620000001
 20
-49.412134000000037
 30
0.0
 11
-116.7603410000002
 21
-49.469495999999943
 31
0.0
  0
LINE
  8
DETAIL
  6
CONTINUOUS
 62
     5
 10
-116.7603410000002
 20
-49.469495999999943
 30
0.0
 11
-116.7603410000002
 21
-49.469495999999943
 31
0.0
  0
LINE
  8
DETAIL
  6
CONTINUOUS
 62
     5
 10
-116.7603410000002
 20
-49.469495999999943
 30
0.0
 11
-116.0958559999999
 21
-49.468731000000048
 31
0.0
  0
LINE
  8
DETAIL
  6
CONTINUOUS
 62
     5
 10
-116.0958559999999
 20
-49.468731000000048
 30
0.0
 11
-115.4649520000003
 21
-49.41397900000004
 31
0.0
  0
LINE
  8
DETAIL
  6
CONTINUOUS
 62
     5
 10
-115.4649520000003
 20
-49.41397900000004
 30
0.0
 11
-115.4649520000003
 21
-49.41397900000004
 31
0.0
  0
LINE
  8
DETAIL
  6
CONTINUOUS
 62
     5
 10
-115.4649520000003
 20
-49.41397900000004
 30
0.0
 11
-114.54501500000011
 21
-49.196503999999997
 31
0.0
  0
LINE
  8
DETAIL
  6
CONTINUOUS
 62
     5
 10
-114.54501500000011
 20
-49.196503999999997
 30
0.0
 11
-113.8623659999998
 21
-48.874671000000028
 31
0.0
  0
LINE
  8
DETAIL
  6
CONTINUOUS
 62
     5
 10
-119.5
 20
-48.336030000000051
 30
0.0
 11
-118.69953100000021
 21
-48.054046999999969
 31
0.0
  0
LINE
  8
DETAIL
  6
CONTINUOUS
 62
     5
 10
-118.69953100000021
 20
-48.054046999999969
 30
0.0
 11
-117.8868659999998
 21
-47.947413999999981
 31
0.0
  0
LINE
  8
DETAIL
  6
CONTINUOUS
 62
     5
 10
-117.8868659999998
 20
-47.947413999999981
 30
0.0
 11
-117.8868659999998
 21
-47.947413999999981
 31
0.0
  0
LINE
  8
DETAIL
  6
CONTINUOUS
 62
     5
 10
-117.8868659999998
 20
-47.947413999999981
 30
0.0
 11
-117.05951
 21
-48.11386200000004
 31
0.0
  0
LINE
  8
DETAIL
  6
CONTINUOUS
 62
     5
 10
-117.05951
 20
-48.11386200000004
 30
0.0
 11
-116.25375100000019
 21
-48.340656999999958
 31
0.0
  0
LINE
  8
DETAIL
  6
CONTINUOUS
 62
     5
 10
-116.25375100000019
 20
-48.340656999999958
 30
0.0
 11
-116.25375100000019
 21
-48.340656999999958
 31
0.0
  0
LINE
  8
DETAIL
  6
CONTINUOUS
 62
     5
 10
-116.25375100000019
 20
-48.340656999999958
 30
0.0
 11
-115.50289500000009
 21
-48.424690999999939
 31
0.0
  0
LINE
  8
DETAIL
  6
CONTINUOUS
 62
     5
 10
-115.50289500000009
 20
-48.424690999999939
 30
0.0
 11
-114.78949900000001
 21
-48.511833000000017
 31
0.0
  0
LINE
  8
DETAIL
  6
CONTINUOUS
 62
     5
 10
-114.78949900000001
 20
-48.511833000000017
 30
0.0
 11
-114.78949900000001
 21
-48.511833000000017
 31
0.0
  0
LINE
  8
DETAIL
  6
CONTINUOUS
 62
     5
 10
-114.78949900000001
 20
-48.511833000000017
 30
0.0
 11
-114.09365100000009
 21
-48.765950999999973
 31
0.0
  0
LINE
  8
DETAIL
  6
CONTINUOUS
 62
     5
 10
-114.09365100000009
 20
-48.765950999999973
 30
0.0
 11
-113.43628100000021
 21
-49.073939000000003
 31
0.0
  0
LINE
  8
DETAIL
  6
CONTINUOUS
 62
     5
 10
-113.43628100000021
 20
-49.073939000000003
 30
0.0
 11
-113.43628100000021
 21
-49.073939000000003
 31
0.0
  0
LINE
  8
DETAIL
  6
CONTINUOUS
 62
     5
 10
-113.43628100000021
 20
-49.073939000000003
 30
0.0
 11
-112.5644579999998
 21
-49.35301800000002
 31
0.0
  0
LINE
  8
DETAIL
  6
CONTINUOUS
 62
     5
 10
-112.5644579999998
 20
-49.35301800000002
 30
0.0
 11
-111.8107089999999
 21
-49.414201000000048
 31
0.0
  0
LINE
  8
DETAIL
  6
CONTINUOUS
 62
     5
 10
-111.8107089999999
 20
-49.414201000000048
 30
0.0
 11
-111.1356759999999
 21
-49.330119999999972
 31
0.0
  0
LINE
  8
DETAIL
  6
CONTINUOUS
 62
     5
 10
-111.1356759999999
 20
-49.330119999999972
 30
0.0
 11
-110.5
 21
-49.173406999999997
 31
0.0
  0
LINE
  8
NOTE
  6
CONTINUOUS
 62
     4
 10
-146.79504099999991
 20
-115.72912599999999
 30
0.0
 11
-115.0
 21
-140.0
 31
0.0
  0
LINE
  8
NOTE
  6
CONTINUOUS
 62
     4
 10
-115.0
 20
-140.0
 30
0.0
 11
-130.39987599999989
 21
-103.083285
 31
0.0
  0
LINE
  8
DETAIL
  6
CONTINUOUS
 62
     5
 10
-116.9551019999999
 20
-56.148255999999947
 30
0.0
 11
-116.4607340000002
 21
-55.854808000000048
 31
0.0
  0
LINE
  8
DETAIL
  6
CONTINUOUS
 62
     5
 10
-116.4607340000002
 20
-55.854808000000048
 30
0.0
 11
-115.8605079999998
 21
-55.625071000000048
 31
0.0
  0
LINE
  8
DETAIL
  6
CONTINUOUS
 62
     5
 10
-115.8605079999998
 20
-55.625071000000048
 30
0.0
 11
-115.8605079999998
 21
-55.625071000000048
 31
0.0
  0
LINE
  8
DETAIL
  6
CONTINUOUS
 62
     5
 10
-115.8605079999998
 20
-55.625071000000048
 30
0.0
 11
-114.791408
 21
-55.462743000000053
 31
0.0
  0
LINE
  8
DETAIL
  6
CONTINUOUS
 62
     5
 10
-114.791408
 20
-55.462743000000053
 30
0.0
 11
-113.66297399999981
 21
-55.511723999999958
 31
0.0
  0
LINE
  8
DETAIL
  6
CONTINUOUS
 62
     5
 10
-113.66297399999981
 20
-55.511723999999958
 30
0.0
 11
-113.66297399999981
 21
-55.511723999999958
 31
0.0
  0
LINE
  8
DETAIL
  6
CONTINUOUS
 62
     5
 10
-113.66297399999981
 20
-55.511723999999958
 30
0.0
 11
-112.98326999999971
 21
-55.665115000000007
 31
0.0
  0
LINE
  8
DETAIL
  6
CONTINUOUS
 62
     5
 10
-112.98326999999971
 20
-55.665115000000007
 30
0.0
 11
-112.36653200000001
 21
-55.886711999999989
 31
0.0
  0
LINE
  8
DETAIL
  6
CONTINUOUS
 62
     5
 10
-119.5
 20
-56.869568999999963
 30
0.0
 11
-119.0519639999998
 21
-56.436198999999988
 31
0.0
  0
LINE
  8
DETAIL
  6
CONTINUOUS
 62
     5
 10
-119.0519639999998
 20
-56.436198999999988
 30
0.0
 11
-118.451286
 21
-56.131660000000011
 31
0.0
  0
LINE
  8
DETAIL
  6
CONTINUOUS
 62
     5
 10
-118.451286
 20
-56.131660000000011
 30
0.0
 11
-118.451286
 21
-56.131660000000011
 31
0.0
  0
LINE
  8
DETAIL
  6
CONTINUOUS
 62
     5
 10
-118.451286
 20
-56.131660000000011
 30
0.0
 11
-117.6249170000001
 21
-56.055131999999958
 31
0.0
  0
LINE
  8
DETAIL
  6
CONTINUOUS
 62
     5
 10
-117.6249170000001
 20
-56.055131999999958
 30
0.0
 11
-116.81817099999989
 21
-56.18717700000002
 31
0.0
  0
LINE
  8
DETAIL
  6
CONTINUOUS
 62
     5
 10
-116.81817099999989
 20
-56.18717700000002
 30
0.0
 11
-116.81817099999989
 21
-56.18717700000002
 31
0.0
  0
LINE
  8
DETAIL
  6
CONTINUOUS
 62
     5
 10
-116.81817099999989
 20
-56.18717700000002
 30
0.0
 11
-116.24701300000019
 21
-56.448409999999967
 31
0.0
  0
LINE
  8
DETAIL
  6
CONTINUOUS
 62
     5
 10
-116.24701300000019
 20
-56.448409999999967
 30
0.0
 11
-115.69164499999989
 21
-56.638249999999971
 31
0.0
  0
LINE
  8
DETAIL
  6
CONTINUOUS
 62
     5
 10
-115.69164499999989
 20
-56.638249999999971
 30
0.0
 11
-115.69164499999989
 21
-56.638249999999971
 31
0.0
  0
LINE
  8
DETAIL
  6
CONTINUOUS
 62
     5
 10
-115.69164499999989
 20
-56.638249999999971
 30
0.0
 11
-114.9234189999997
 21
-56.585583000000042
 31
0.0
  0
LINE
  8
DETAIL
  6
CONTINUOUS
 62
     5
 10
-114.9234189999997
 20
-56.585583000000042
 30
0.0
 11
-114.114047
 21
-56.358353999999963
 31
0.0
  0
LINE
  8
DETAIL
  6
CONTINUOUS
 62
     5
 10
-114.114047
 20
-56.358353999999963
 30
0.0
 11
-114.114047
 21
-56.358353999999963
 31
0.0
  0
LINE
  8
DETAIL
  6
CONTINUOUS
 62
     5
 10
-114.114047
 20
-56.358353999999963
 30
0.0
 11
-113.4411099999998
 21
-56.08601299999998
 31
0.0
  0
LINE
  8
DETAIL
  6
CONTINUOUS
 62
     5
 10
-113.4411099999998
 20
-56.08601299999998
 30
0.0
 11
-112.7053109999997
 21
-55.904966999999942
 31
0.0
  0
LINE
  8
DETAIL
  6
CONTINUOUS
 62
     5
 10
-112.7053109999997
 20
-55.904966999999942
 30
0.0
 11
-112.7053109999997
 21
-55.904966999999942
 31
0.0
  0
LINE
  8
DETAIL
  6
CONTINUOUS
 62
     5
 10
-112.7053109999997
 20
-55.904966999999942
 30
0.0
 11
-111.6917509999998
 21
-55.911219999999958
 31
0.0
  0
LINE
  8
DETAIL
  6
CONTINUOUS
 62
     5
 10
-111.6917509999998
 20
-55.911219999999958
 30
0.0
 11
-110.5
 21
-56.032193000000007
 31
0.0
  0
LINE
  8
DETAIL
  6
CONTINUOUS
 62
     5
 10
-120.5
 20
-102.643625
 30
0.0
 11
-109.5
 21
-102.643625
 31
0.0
  0
LINE
  8
DETAIL
  6
CONTINUOUS
 62
     5
 10
-119.5
 20
-56.869568999999963
 30
0.0
 11
-119.5
 21
-102.643625
 31
0.0
  0
LINE
  8
DETAIL
  6
CONTINUOUS
 62
     5
 10
-110.5
 20
-56.032193000000007
 30
0.0
 11
-110.5
 21
-102.643625
 31
0.0
  0
LINE
  8
DETAIL
  6
CONTINUOUS
 62
     5
 10
-120.5
 20
-128.681152
 30
0.0
 11
-109.5
 21
-128.681152
 31
0.0
  0
LINE
  8
DETAIL
  6
CONTINUOUS
 62
     5
 10
-121.8821029999999
 20
-113.881152
 30
0.0
 11
-100.1411659999999
 21
-113.881152
 31
0.0
  0
LINE
  8
DETAIL
  6
CONTINUOUS
 62
     5
 10
-121.8821029999999
 20
-121.681152
 30
0.0
 11
-100.1411659999999
 21
-121.681152
 31
0.0
  0
LINE
  8
DETAIL
  6
CONTINUOUS
 62
     5
 10
-120.5
 20
-121.681152
 30
0.0
 11
-120.5
 21
-128.681152
 31
0.0
  0
LINE
  8
DETAIL
  6
CONTINUOUS
 62
     5
 10
-119.5
 20
-128.681152
 30
0.0
 11
-119.5
 21
-142.17944900000001
 31
0.0
  0
LINE
  8
DETAIL
  6
CONTINUOUS
 62
     5
 10
-121.8821029999999
 20
-113.881152
 30
0.0
 11
-121.8821029999999
 21
-121.681152
 31
0.0
  0
LINE
  8
DETAIL
  6
CONTINUOUS
 62
     5
 10
-100.1411659999999
 20
-113.881152
 30
0.0
 11
-100.1411659999999
 21
-121.681152
 31
0.0
  0
LINE
  8
DETAIL
  6
CONTINUOUS
 62
     5
 10
-109.5
 20
-121.681152
 30
0.0
 11
-109.5
 21
-128.681152
 31
0.0
  0
LINE
  8
DETAIL
  6
CONTINUOUS
 62
     5
 10
-110.5
 20
-128.681152
 30
0.0
 11
-110.5
 21
-142.17944900000001
 31
0.0
  0
LINE
  8
DETAIL
  6
CONTINUOUS
 62
     5
 10
-108.1411659999999
 20
-113.881152
 30
0.0
 11
-108.1411659999999
 21
-121.681152
 31
0.0
  0
LINE
  8
DETAIL
  6
CONTINUOUS
 62
     5
 10
-102.822267
 20
-116.71756000000001
 30
0.0
 11
-104.8728780000001
 21
-118.76816599999999
 31
0.0
  0
LINE
  8
DETAIL
  6
CONTINUOUS
 62
     5
 10
-104.87287499999999
 20
-116.7175570000001
 30
0.0
 11
-102.822271
 21
-118.7681689999999
 31
0.0
  0
CIRCLE
  8
DETAIL
  6
CONTINUOUS
 62
     5
 10
-103.847573
 20
-117.7428629999999
 30
0.0
 40
3.4499989999999991
  0
LINE
  8
DETAIL
  6
CONTINUOUS
 62
     5
 10
-120.5
 20
-102.643625
 30
0.0
 11
-120.5
 21
-113.881152
 31
0.0
  0
LINE
  8
DETAIL
  6
CONTINUOUS
 62
     5
 10
-109.5
 20
-102.643625
 30
0.0
 11
-109.5
 21
-113.881152
 31
0.0
  0
LINE
  8
DETAIL
  6
CONTINUOUS
 62
     5
 10
-110.5
 20
-29.52860499999997
 30
0.0
 11
-119.5
 21
-29.52860499999997
 31
0.0
  0
LINE
  8
DETAIL
  6
CONTINUOUS
 62
     5
 10
-120.0011260000001
 20
-20.980194999999981
 30
0.0
 11
-118.5596110000001
 21
-20.565424000000011
 31
0.0
  0
LINE
  8
DETAIL
  6
CONTINUOUS
 62
     5
 10
-119.5
 20
-48.336030000000051
 30
0.0
 11
-119.5
 21
-29.52860499999997
 31
0.0
  0
LINE
  8
DETAIL
  6
CONTINUOUS
 62
     5
 10
-118.5596110000001
 20
-20.565424000000011
 30
0.0
 11
-115.980611
 21
-29.52860499999997
 31
0.0
  0
LINE
  8
DETAIL
  6
CONTINUOUS
 62
     5
 10
-120.0011260000001
 20
-20.980194999999981
 30
0.0
 11
-117.54146899999979
 21
-29.52860499999997
 31
0.0
  0
LINE
  8
DETAIL
  6
CONTINUOUS
 62
     5
 10
-109.9988739999999
 20
-20.980194999999981
 30
0.0
 11
-111.4403889999999
 21
-20.565424000000011
 31
0.0
  0
LINE
  8
DETAIL
  6
CONTINUOUS
 62
     5
 10
-110.5
 20
-49.173406999999997
 30
0.0
 11
-110.5
 21
-29.52860499999997
 31
0.0
  0
LINE
  8
DETAIL
  6
CONTINUOUS
 62
     5
 10
-111.4403889999999
 20
-20.565424000000011
 30
0.0
 11
-114.019389
 21
-29.52860499999997
 31
0.0
  0
LINE
  8
DETAIL
  6
CONTINUOUS
 62
     5
 10
-109.9988739999999
 20
-20.980194999999981
 30
0.0
 11
-112.45853100000021
 21
-29.52860499999997
 31
0.0
  0
LINE
  8
DETAIL
  6
CONTINUOUS
 62
     5
 10
-120.04813800000009
 20
-18.104465999999999
 30
0.0
 11
-119.28036900000011
 21
-20.772809000000048
 31
0.0
  0
LINE
  8
DETAIL
  6
CONTINUOUS
 62
     5
 10
-109.95186199999991
 20
-18.104465999999999
 30
0.0
 11
-110.71963099999989
 21
-20.772809000000048
 31
0.0
  0
LINE
  8
NOTE
  6
CONTINUOUS
 62
     4
 10
-115.0
 20
-140.0
 30
0.0
 11
-241.59620199999969
 21
16.81074799999999
 31
0.0
  0
TEXT
  8
NOTE
  6
CONTINUOUS
 62
     4
 10
-334.96434799999997
 20
38.426765000000053
 30
0.0
 40
64.0
  1
EL
 41
0.9
  0
LINE
  8
NOTE
  6
CONTINUOUS
 62
     4
 10
-241.59620199999969
 20
16.81074799999999
 30
0.0
 11
-345.09727299999992
 21
16.81074799999999
 31
0.0
  0
LINE
  8
NOTE
  6
CONTINUOUS
 62
     4
 10
88.5
 20
-215.0
 30
0.0
 11
263.34382300000021
 21
39.266448999999973
 31
0.0
  0
LINE
  8
NOTE
  6
CONTINUOUS
 62
     4
 10
102.2254210000001
 20
-177.42856400000011
 30
0.0
 11
88.5
 21
-215.0
 31
0.0
  0
LINE
  8
NOTE
  6
CONTINUOUS
 62
     4
 10
88.5
 20
-215.0
 30
0.0
 11
119.172282
 21
-189.324893
 31
0.0
  0
LINE
  8
NOTE
  6
CONTINUOUS
 62
     4
 10
263.34382300000021
 20
39.266448999999973
 30
0.0
 11
528.09749800000009
 21
39.266448999999973
 31
0.0
  0
TEXT
  8
NOTE
  6
CONTINUOUS
 62
     4
 10
277.36384600000019
 20
68.569425000000024
 30
0.0
 40
64.0
  1
AH-4
 41
0.9
  0
LINE
  8
DETAIL
  6
CONTINUOUS
 62
     5
 10
-25.5
 20
-407.0
 30
0.0
 11
-36.5
 21
-407.0
 31
0.0
  0
LINE
  8
DETAIL
  6
CONTINUOUS
 62
     5
 10
-36.5
 20
-407.0
 30
0.0
 11
-36.5
 21
-405.0
 31
0.0
  0
LINE
  8
DETAIL
  6
CONTINUOUS
 62
     5
 10
-25.5
 20
-407.0
 30
0.0
 11
-25.5
 21
-405.0
 31
0.0
  0
LINE
  8
NOTE
  6
CONTINUOUS
 62
     4
 10
-59.131809999999859
 20
-435.43591500000002
 30
0.0
 11
-31.0
 21
-407.0
 31
0.0
  0
LINE
  8
NOTE
  6
CONTINUOUS
 62
     4
 10
-31.0
 20
-407.0
 30
0.0
 11
-69.580820000000131
 21
-417.56031999999999
 31
0.0
  0
LINE
  8
NOTE
  6
CONTINUOUS
 62
     4
 10
-31.0
 20
-407.0
 30
0.0
 11
-284.60192199999977
 21
-552.00109900000007
 31
0.0
  0
LINE
  8
NOTE
  6
CONTINUOUS
 62
     4
 10
-31.0
 20
-427.0
 30
0.0
 11
-31.0
 21
-387.0
 31
0.0
  0
LINE
  8
NOTE
  6
CONTINUOUS
 62
     4
 10
-51.0
 20
-407.0
 30
0.0
 11
-11.0
 21
-407.0
 31
0.0
  0
LINE
  8
NOTE
  6
CONTINUOUS
 62
     4
 10
-284.60192199999977
 20
-552.00109900000007
 30
0.0
 11
-922.09534099999996
 21
-552.00109900000007
 31
0.0
  0
TEXT
  8
NOTE
  6
CONTINUOUS
 62
     4
 10
-902.30279999999993
 20
-516.15448499999991
 30
0.0
 40
64.0
  1
D(ドレンキャップ)
 41
0.9
  0
LINE
  8
SIZE
  6
CONTINUOUS
 62
    30
 10
72.0
 20
-188.0
 30
0.0
 11
72.0
 21
142.50365300000001
 31
0.0
  0
LINE
  8
SIZE
  6
CONTINUOUS
 62
    30
 10
-72.0
 20
-188.0
 30
0.0
 11
-72.0
 21
142.50365300000001
 31
0.0
  0
LINE
  8
SIZE
  6
CONTINUOUS
 62
    30
 10
84.0
 20
122.503653
 30
0.0
 11
96.0
 21
122.503653
 31
0.0
  0
LINE
  8
SIZE
  6
CONTINUOUS
 62
    30
 10
-84.0
 20
122.503653
 30
0.0
 11
-96.0
 21
122.503653
 31
0.0
  0
LINE
  8
SIZE
  6
CONTINUOUS
 62
    30
 10
72.0
 20
122.503653
 30
0.0
 11
-72.0
 21
122.503653
 31
0.0
  0
CIRCLE
  8
SIZE
  6
CONTINUOUS
 62
    30
 10
72.0
 20
122.503653
 30
0.0
 40
6.0
  0
LINE
  8
SIZE
  6
CONTINUOUS
 62
    30
 10
72.0
 20
122.503653
 30
0.0
 11
84.0
 21
122.503653
 31
0.0
  0
CIRCLE
  8
SIZE
  6
CONTINUOUS
 62
    30
 10
-72.0
 20
122.503653
 30
0.0
 40
6.0
  0
LINE
  8
SIZE
  6
CONTINUOUS
 62
    30
 10
-72.0
 20
122.503653
 30
0.0
 11
-84.0
 21
122.503653
 31
0.0
  0
TEXT
  8
SIZE
  6
CONTINUOUS
 62
    30
 10
-69.942857142857136
 20
147.50365300000001
 30
0.0
 40
64.0
  1
144
 41
0.9
 72
     1
 11
0.0
 21
147.50365300000001
 31
0.0
  0
POINT
  8
DEFPOINTS
  6
CONTINUOUS
 62
    30
 10
-72.0
 20
122.503653
 30
0.0
  0
LINE
  8
SIZE
  6
CONTINUOUS
 62
    30
 10
88.5
 20
-175.0
 30
0.0
 11
88.5
 21
265.70982600000002
 31
0.0
  0
LINE
  8
SIZE
  6
CONTINUOUS
 62
    30
 10
-88.5
 20
-175.0
 30
0.0
 11
-88.5
 21
265.70982600000002
 31
0.0
  0
LINE
  8
SIZE
  6
CONTINUOUS
 62
    30
 10
100.5
 20
245.70982599999999
 30
0.0
 11
112.5
 21
245.70982599999999
 31
0.0
  0
LINE
  8
SIZE
  6
CONTINUOUS
 62
    30
 10
-100.5
 20
245.70982599999999
 30
0.0
 11
-112.5
 21
245.70982599999999
 31
0.0
  0
LINE
  8
SIZE
  6
CONTINUOUS
 62
    30
 10
88.5
 20
245.70982599999999
 30
0.0
 11
-88.5
 21
245.70982599999999
 31
0.0
  0
CIRCLE
  8
SIZE
  6
CONTINUOUS
 62
    30
 10
88.5
 20
245.70982599999999
 30
0.0
 40
6.0
  0
LINE
  8
SIZE
  6
CONTINUOUS
 62
    30
 10
88.5
 20
245.70982599999999
 30
0.0
 11
100.5
 21
245.70982599999999
 31
0.0
  0
CIRCLE
  8
SIZE
  6
CONTINUOUS
 62
    30
 10
-88.5
 20
245.70982599999999
 30
0.0
 40
6.0
  0
LINE
  8
SIZE
  6
CONTINUOUS
 62
    30
 10
-88.5
 20
245.70982599999999
 30
0.0
 11
-100.5
 21
245.70982599999999
 31
0.0
  0
TEXT
  8
SIZE
  6
CONTINUOUS
 62
    30
 10
-68.571428571428569
 20
270.70982599999979
 30
0.0
 40
64.0
  1
177
 41
0.9
 72
     1
 11
0.0
 21
270.70982599999979
 31
0.0
  0
POINT
  8
DEFPOINTS
  6
CONTINUOUS
 62
    30
 10
-88.5
 20
245.70982599999999
 30
0.0
  0
LINE
  8
SIZE
  6
CONTINUOUS
 62
    30
 10
117.0
 20
-198.5
 30
0.0
 11
117.0
 21
391.8149699999999
 31
0.0
  0
LINE
  8
SIZE
  6
CONTINUOUS
 62
    30
 10
-117.0
 20
-198.5
 30
0.0
 11
-117.0
 21
391.8149699999999
 31
0.0
  0
LINE
  8
SIZE
  6
CONTINUOUS
 62
    30
 10
105.0
 20
371.8149699999999
 30
0.0
 11
-105.0
 21
371.8149699999999
 31
0.0
  0
CIRCLE
  8
SIZE
  6
CONTINUOUS
 62
    30
 10
117.0
 20
371.8149699999999
 30
0.0
 40
6.0
  0
LINE
  8
SIZE
  6
CONTINUOUS
 62
    30
 10
117.0
 20
371.8149699999999
 30
0.0
 11
105.0
 21
371.8149699999999
 31
0.0
  0
CIRCLE
  8
SIZE
  6
CONTINUOUS
 62
    30
 10
-117.0
 20
371.8149699999999
 30
0.0
 40
6.0
  0
LINE
  8
SIZE
  6
CONTINUOUS
 62
    30
 10
-117.0
 20
371.8149699999999
 30
0.0
 11
-105.0
 21
371.8149699999999
 31
0.0
  0
TEXT
  8
SIZE
  6
CONTINUOUS
 62
    30
 10
-75.428571428571416
 20
396.8149699999999
 30
0.0
 40
64.0
  1
234
 41
0.9
 72
     1
 11
0.0
 21
396.8149699999999
 31
0.0
  0
POINT
  8
DEFPOINTS
  6
CONTINUOUS
 62
    30
 10
-117.0
 20
371.8149699999999
 30
0.0
  0
TEXT
  8
ETC
  6
CONTINUOUS
 62
    61
 10
783.18175709618208
 20
420.49352457944133
 30
0.0
 40
64.0
  1
JF-90SA2_4
 41
0.9
  0
TEXT
  8
ETC
  6
CONTINUOUS
 62
    61
 10
786.10945609618238
 20
320.81757157944139
 30
0.0
 40
64.0
  1
産業扇
 41
0.9
  0
TEXT
  8
ETC
  6
CONTINUOUS
 62
    61
 10
856.37478209618257
 20
103.0976125794416
 30
0.0
 40
50.0
  1
JF-90TA2
 41
0.9
  0
TEXT
  8
ETC
  6
CONTINUOUS
 62
    61
 10
856.37478209618257
 20
5.5472715794414853
 30
0.0
 40
50.0
  1
JF-120SA2
 41
0.9
  0
TEXT
  8
ETC
  6
CONTINUOUS
 62
    61
 10
856.37478209618257
 20
198.4193435794414
 30
0.0
 40
50.0
  1
JF-90SA2
 41
0.9
  0
TEXT
  8
ETC
  6
CONTINUOUS
 62
    61
 10
856.37478209618257
 20
-85.589210274428979
 30
0.0
 40
50.0
  1
JF-120TA2
 41
0.9
  0
LINE
  8
OUTLINE
  6
CONTINUOUS
 62
     3
 10
200.0
 20
-365.0
 30
0.0
 11
145.0
 21
-365.0
 31
0.0
  0
LINE
  8
OUTLINE
  6
CONTINUOUS
 62
     3
 10
200.0
 20
-65.0
 30
0.0
 11
145.0
 21
-65.0
 31
0.0
  0
LINE
  8
OUTLINE
  6
CONTINUOUS
 62
     3
 10
45.0
 20
-25.0
 30
0.0
 11
2.5
 21
-25.0
 31
0.0
  0
LINE
  8
OUTLINE
  6
CONTINUOUS
 62
     3
 10
45.0
 20
-405.0
 30
0.0
 11
2.5
 21
-405.0
 31
0.0
  0
LINE
  8
OUTLINE
  6
CONTINUOUS
 62
     3
 10
-145.0
 20
-365.0
 30
0.0
 11
-200.0
 21
-365.0
 31
0.0
  0
LINE
  8
OUTLINE
  6
CONTINUOUS
 62
     3
 10
-145.0
 20
-65.0
 30
0.0
 11
-200.0
 21
-65.0
 31
0.0
  0
LINE
  8
OUTLINE
  6
CONTINUOUS
 62
     3
 10
-2.5
 20
-405.0
 30
0.0
 11
-25.5
 21
-405.0
 31
0.0
  0
LINE
  8
OUTLINE
  6
CONTINUOUS
 62
     3
 10
-2.5
 20
-25.0
 30
0.0
 11
-45.0
 21
-25.0
 31
0.0
  0
LINE
  8
OUTLINE
  6
CONTINUOUS
 62
     3
 10
-200.0
 20
-365.0
 30
0.0
 11
-200.0
 21
-65.0
 31
0.0
  0
LINE
  8
OUTLINE
  6
CONTINUOUS
 62
     3
 10
200.0
 20
-365.0
 30
0.0
 11
200.0
 21
-65.0
 31
0.0
  0
LINE
  8
OUTLINE
  6
CONTINUOUS
 62
     3
 10
-45.0
 20
-25.0
 30
0.0
 11
-145.0
 21
-65.0
 31
0.0
  0
LINE
  8
OUTLINE
  6
CONTINUOUS
 62
     3
 10
45.0
 20
-25.0
 30
0.0
 11
145.0
 21
-65.0
 31
0.0
  0
LINE
  8
OUTLINE
  6
CONTINUOUS
 62
     3
 10
-45.0
 20
-405.0
 30
0.0
 11
-145.0
 21
-365.0
 31
0.0
  0
LINE
  8
OUTLINE
  6
CONTINUOUS
 62
     3
 10
45.0
 20
-405.0
 30
0.0
 11
145.0
 21
-365.0
 31
0.0
  0
LINE
  8
OUTLINE
  6
CONTINUOUS
 62
     3
 10
45.0
 20
-405.0
 30
0.0
 11
145.0
 21
-365.0
 31
0.0
  0
LINE
  8
OUTLINE
  6
CONTINUOUS
 62
     3
 10
-45.0
 20
-405.0
 30
0.0
 11
-145.0
 21
-365.0
 31
0.0
  0
LINE
  8
OUTLINE
  6
CONTINUOUS
 62
     3
 10
45.0
 20
-25.0
 30
0.0
 11
145.0
 21
-65.0
 31
0.0
  0
LINE
  8
OUTLINE
  6
CONTINUOUS
 62
     3
 10
-45.0
 20
-25.0
 30
0.0
 11
-145.0
 21
-65.0
 31
0.0
  0
LINE
  8
OUTLINE
  6
CONTINUOUS
 62
     3
 10
-2.5
 20
-25.0
 30
0.0
 11
-45.0
 21
-25.0
 31
0.0
  0
LINE
  8
OUTLINE
  6
CONTINUOUS
 62
     3
 10
-2.5
 20
-405.0
 30
0.0
 11
-25.5
 21
-405.0
 31
0.0
  0
LINE
  8
OUTLINE
  6
CONTINUOUS
 62
     3
 10
45.0
 20
-405.0
 30
0.0
 11
2.5
 21
-405.0
 31
0.0
  0
LINE
  8
OUTLINE
  6
CONTINUOUS
 62
     3
 10
45.0
 20
-25.0
 30
0.0
 11
2.5
 21
-25.0
 31
0.0
  0
LINE
  8
OUTLINE
  6
CONTINUOUS
 62
     3
 10
2.5
 20
-430.0
 30
0.0
 11
2.5
 21
-405.0
 31
0.0
  0
LINE
  8
OUTLINE
  6
CONTINUOUS
 62
     3
 10
-2.5
 20
-430.0
 30
0.0
 11
-2.5
 21
-405.0
 31
0.0
  0
LINE
  8
OUTLINE
  6
CONTINUOUS
 62
     3
 10
2.5
 20
-430.0
 30
0.0
 11
-2.5
 21
-430.0
 31
0.0
  0
LINE
  8
OUTLINE
  6
CONTINUOUS
 62
     3
 10
2.5
 20
0.0
 30
0.0
 11
-2.5
 21
0.0
 31
0.0
  0
LINE
  8
OUTLINE
  6
CONTINUOUS
 62
     3
 10
-2.5
 20
-430.0
 30
0.0
 11
-2.5
 21
-405.0
 31
0.0
  0
LINE
  8
OUTLINE
  6
CONTINUOUS
 62
     3
 10
2.5
 20
-430.0
 30
0.0
 11
2.5
 21
-405.0
 31
0.0
  0
LINE
  8
OUTLINE
  6
CONTINUOUS
 62
     3
 10
2.5
 20
-430.0
 30
0.0
 11
-2.5
 21
-430.0
 31
0.0
  0
LINE
  8
OUTLINE
  6
CONTINUOUS
 62
     3
 10
2.5
 20
0.0
 30
0.0
 11
-2.5
 21
0.0
 31
0.0
  0
POINT
  8
DEFPOINTS
  6
CONTINUOUS
 62
    30
 10
575.40936442645034
 20
-576.59515420910702
 30
0.0
  0
LINE
  8
OUTLINE
  6
CONTINUOUS
 62
     3
 10
-25.5
 20
-407.0
 30
0.0
 11
-36.5
 21
-407.0
 31
0.0
  0
LINE
  8
OUTLINE
  6
CONTINUOUS
 62
     3
 10
-36.5
 20
-407.0
 30
0.0
 11
-36.5
 21
-405.0
 31
0.0
  0
LINE
  8
OUTLINE
  6
CONTINUOUS
 62
     3
 10
-25.5
 20
-407.0
 30
0.0
 11
-25.5
 21
-405.0
 31
0.0
  0
LINE
  8
OUTLINE
  6
CONTINUOUS
 62
     3
 10
2.5
 20
-25.0
 30
0.0
 11
2.5
 21
0.0
 31
0.0
  0
LINE
  8
OUTLINE
  6
CONTINUOUS
 62
     3
 10
-2.5
 20
-25.0
 30
0.0
 11
-2.5
 21
0.0
 31
0.0
  0
LINE
  8
OUTLINE
  6
CONTINUOUS
 62
     3
 10
-2.5
 20
-25.0
 30
0.0
 11
-2.5
 21
0.0
 31
0.0
  0
LINE
  8
OUTLINE
  6
CONTINUOUS
 62
     3
 10
2.5
 20
-25.0
 30
0.0
 11
2.5
 21
0.0
 31
0.0
  0
LINE
  8
OUTLINE
  6
CONTINUOUS
 62
     3
 10
-36.5
 20
-405.0
 30
0.0
 11
-45.0
 21
-405.0
 31
0.0
  0
LINE
  8
OUTLINE
  6
CONTINUOUS
 62
     3
 10
-36.5
 20
-405.0
 30
0.0
 11
-45.0
 21
-405.0
 31
0.0
  0
TEXT
  8
NOTE
  6
CONTINUOUS
 62
     4
 10
249.77240774621529
 20
-244.83362356607859
 30
0.0
 40
64.0
  1
吸込口
 41
0.9
  0
TEXT
  8
NOTE
  6
CONTINUOUS
 62
     4
 10
-438.83974269871118
 20
-241.82889057007449
 30
0.0
 40
64.0
  1
吹出口
 41
0.9
  0
ENDSEC
  0
EOF
