  0
SECTION
  2
HEADER
  9
$ACADVER
  1
AC1009
  9
$DWGCODEPAGE
  3
dos932
  9
$INSBASE
 10
0.0
 20
0.0
 30
0.0
  9
$EXTMIN
 10
-618.14573538506738
 20
-624.84740061318553
 30
-0.001525820700358
  9
$EXTMAX
 10
1175.1114009007711
 20
728.02735193169974
 30
0.000000034924604
  9
$LIMMIN
 10
-2970.0
 20
-2100.0
  9
$LIMMAX
 10
2970.0
 20
2100.0
  9
$ORTHOMODE
 70
     1
  9
$REGENMODE
 70
     1
  9
$FILLMODE
 70
     1
  9
$QTEXTMODE
 70
     0
  9
$MIRRTEXT
 70
     0
  9
$LTSCALE
 40
20.0
  9
$ATTMODE
 70
     1
  9
$TEXTSIZE
 40
64.0
  9
$TRACEWID
 40
0.05
  9
$TEXTSTYLE
  7
STANDARD
  9
$CLAYER
  8
SIZE
  9
$CELTYPE
  6
CONTINUOUS
  9
$CECOLOR
 62
     7
  9
$DIMSCALE
 40
1.0
  9
$DIMASZ
 40
12.0
  9
$DIMEXO
 40
20.0
  9
$DIMDLI
 40
200.0
  9
$DIMRND
 40
0.0
  9
$DIMDLE
 40
0.0
  9
$DIMEXE
 40
20.0
  9
$DIMTP
 40
0.0
  9
$DIMTM
 40
0.0
  9
$DIMTXT
 40
64.0
  9
$DIMCEN
 40
0.09
  9
$DIMTSZ
 40
0.0
  9
$DIMTOL
 70
     0
  9
$DIMLIM
 70
     0
  9
$DIMTIH
 70
     0
  9
$DIMTOH
 70
     0
  9
$DIMSE1
 70
     0
  9
$DIMSE2
 70
     0
  9
$DIMTAD
 70
     1
  9
$DIMZIN
 70
     8
  9
$DIMBLK
  1

  9
$DIMASO
 70
     1
  9
$DIMSHO
 70
     0
  9
$DIMPOST
  1

  9
$DIMAPOST
  1

  9
$DIMALT
 70
     0
  9
$DIMALTD
 70
     2
  9
$DIMALTF
 40
25.399999999999999
  9
$DIMLFAC
 40
1.0
  9
$DIMTOFL
 70
     1
  9
$DIMTVP
 40
0.0
  9
$DIMTIX
 70
     1
  9
$DIMSOXD
 70
     0
  9
$DIMSAH
 70
     0
  9
$DIMBLK1
  1

  9
$DIMBLK2
  1

  9
$DIMSTYLE
  2
STANDARD
  9
$DIMCLRD
 70
     7
  9
$DIMCLRE
 70
     7
  9
$DIMCLRT
 70
     7
  9
$DIMTFAC
 40
1.0
  9
$DIMGAP
 40
25.0
  9
$LUNITS
 70
     2
  9
$LUPREC
 70
     4
  9
$SKETCHINC
 40
0.1
  9
$FILLETRAD
 40
3.0
  9
$AUNITS
 70
     1
  9
$AUPREC
 70
     3
  9
$MENU
  1
ACAD
  9
$ELEVATION
 40
0.0
  9
$PELEVATION
 40
0.0
  9
$THICKNESS
 40
0.0
  9
$LIMCHECK
 70
     0
  9
$CHAMFERA
 40
0.0
  9
$CHAMFERB
 40
0.0
  9
$SKPOLY
 70
     0
  9
$TDCREATE
 40
2453019.62301037
  9
$TDUPDATE
 40
2459025.609245451
  9
$TDINDWG
 40
1.7132335764
  9
$TDUSRTIMER
 40
1.7132335764
  9
$USRTIMER
 70
     1
  9
$ANGBASE
 50
0.0
  9
$ANGDIR
 70
     0
  9
$PDMODE
 70
     3
  9
$PDSIZE
 40
-2.0
  9
$PLINEWID
 40
0.0
  9
$SPLFRAME
 70
     0
  9
$SPLINETYPE
 70
     6
  9
$SPLINESEGS
 70
     8
  9
$SURFTAB1
 70
     6
  9
$SURFTAB2
 70
     6
  9
$SURFTYPE
 70
     6
  9
$SURFU
 70
     6
  9
$SURFV
 70
     6
  9
$UCSNAME
  2

  9
$UCSORG
 10
0.0
 20
0.0
 30
0.0
  9
$UCSXDIR
 10
1.0
 20
0.0
 30
0.0
  9
$UCSYDIR
 10
0.0
 20
1.0
 30
0.0
  9
$PUCSNAME
  2

  9
$PUCSORG
 10
0.0
 20
0.0
 30
0.0
  9
$PUCSXDIR
 10
1.0
 20
0.0
 30
0.0
  9
$PUCSYDIR
 10
0.0
 20
1.0
 30
0.0
  9
$USERI1
 70
     0
  9
$USERI2
 70
     0
  9
$USERI3
 70
     0
  9
$USERI4
 70
     0
  9
$USERI5
 70
     0
  9
$USERR1
 40
20.0
  9
$USERR2
 40
0.0
  9
$USERR3
 40
0.0
  9
$USERR4
 40
0.0
  9
$USERR5
 40
0.0
  9
$WORLDVIEW
 70
     1
  9
$SHADEDGE
 70
     3
  9
$SHADEDIF
 70
    70
  9
$TILEMODE
 70
     1
  9
$MAXACTVP
 70
    48
  9
$PINSBASE
 10
0.0
 20
0.0
 30
0.0
  9
$PLIMCHECK
 70
     0
  9
$PEXTMIN
 10
-100000000000000000000.0
 20
-100000000000000000000.0
 30
-100000000000000000000.0
  9
$PEXTMAX
 10
100000000000000000000.0
 20
100000000000000000000.0
 30
100000000000000000000.0
  9
$PLIMMIN
 10
0.0
 20
0.0
  9
$PLIMMAX
 10
12.0
 20
9.0
  9
$UNITMODE
 70
     0
  9
$VISRETAIN
 70
     0
  9
$PLINEGEN
 70
     0
  9
$PSLTSCALE
 70
     0
  9
$TREEDEPTH
 70
  3020
  9
$ATTDIA
 70
     0
  9
$ATTREQ
 70
     1
  9
$BLIPMODE
 70
     1
  9
$COORDS
 70
     1
  9
$DRAGMODE
 70
     2
  9
$OSMODE
 70
     0
  9
$HANDLING
 70
     0
  9
$HANDSEED
  5
F1A6
  0
ENDSEC
  0
SECTION
  2
TABLES
  0
TABLE
  2
LTYPE
 70
     2
  0
LTYPE
  2
CONTINUOUS
 70
     0
  3
実線
 72
    65
 73
     0
 40
0.0
  0
LTYPE
  2
DASHDOT
 70
     0
  3
____ _ ____ _ ____ _ ____ _ ____ _ ____ _ ____
 72
    65
 73
     4
 40
5.5
 49
4.0
 49
-0.6
 49
0.3
 49
-0.6
  0
ENDTAB
  0
TABLE
  2
LAYER
 70
    12
  0
LAYER
  2
0
 70
     0
 62
     7
  6
CONTINUOUS
  0
LAYER
  2
BASIS
 70
     0
 62
     6
  6
DASHDOT
  0
LAYER
  2
OUTLINE
 70
     0
 62
     3
  6
CONTINUOUS
  0
LAYER
  2
DETAIL
 70
     0
 62
     5
  6
CONTINUOUS
  0
LAYER
  2
SIZE
 70
     0
 62
    30
  6
CONTINUOUS
  0
LAYER
  2
ARRANGE
 70
     0
 62
     1
  6
CONTINUOUS
  0
LAYER
  2
DEFPOINTS
 70
     0
 62
     7
  6
CONTINUOUS
  0
LAYER
  2
ETC
 70
     0
 62
    61
  6
CONTINUOUS
  0
LAYER
  2
FIX
 70
     0
 62
    11
  6
CONTINUOUS
  0
LAYER
  2
NOTE
 70
     0
 62
     4
  6
CONTINUOUS
  0
LAYER
  2
SERVICESPACE
 70
    64
 62
     2
  6
DASHDOT
  0
LAYER
  2
SYMBOLLINE
 70
    64
 62
    15
  6
CONTINUOUS
  0
ENDTAB
  0
TABLE
  2
STYLE
 70
     1
  0
STYLE
  2
STANDARD
 70
     0
 40
64.0
 41
0.9
 50
0.0
 71
     0
 42
64.0
  3
SIMPLEX.shx
  4
BIGFONT.shx
  0
ENDTAB
  0
TABLE
  2
APPID
 70
    19
  0
APPID
  2
ACAD
 70
     0
  0
APPID
  2
AUTOCAD_POSTSCRIPT_FIGURE
 70
     0
  0
APPID
  2
ACAD_EXEMPT_FROM_CAD_STANDARDS
 70
     0
  0
APPID
  2
ACAD_PSEXT
 70
     0
  0
APPID
  2
ACAUTHENVIRON
 70
     0
  0
APPID
  2
GENIUS_GENOENT_13
 70
     0
  0
APPID
  2
GENIUS_GENCFG_13
 70
     0
  0
APPID
  2
GENIUS_GENCFG0_13
 70
     0
  0
APPID
  2
GENIUS_GENCFG1_13
 70
     0
  0
APPID
  2
GENIUS_GENCFG2_13
 70
     0
  0
APPID
  2
GENIUS_GENCFG3_13
 70
     0
  0
APPID
  2
GENIUS_GENCFG4_13
 70
     0
  0
APPID
  2
GENIUS_GEVCFG0_13
 70
     0
  0
APPID
  2
CONTENTBLOCKICON
 70
     0
  0
APPID
  2
CONTENTBLOCKDESCRIPTION
 70
     0
  0
APPID
  2
ACAD_NAV_VCDISPLAY
 70
     0
  0
APPID
  2
ACAD_MLEADERVER
 70
     0
  0
APPID
  2
ACDBDYNAMICBLOCKTRUENAME
 70
     0
  0
APPID
  2
ACDBDYNAMICBLOCKGUID
 70
     0
  0
ENDTAB
  0
TABLE
  2
DIMSTYLE
 70
     1
  0
DIMSTYLE
  2
STANDARD
 70
     0
  3

  4

  5
_ORIGIN
  6

  7

 40
1.0
 41
12.0
 42
20.0
 43
200.0
 44
20.0
 45
0.0
 46
0.0
 47
0.0
 48
0.0
140
64.0
141
0.09
142
0.0
143
25.399999999999999
144
1.0
145
0.0
146
1.0
147
25.0
 71
     0
 72
     0
 73
     0
 74
     0
 75
     0
 76
     0
 77
     1
 78
     8
170
     0
171
     2
172
     1
173
     0
174
     1
175
     0
176
     7
177
     7
178
     7
  0
ENDTAB
  0
TABLE
  2
VIEW
 70
     1
  0
VIEW
  2
ALL
 70
     0
 40
4282.6198079999986
 10
0.0
 20
41.309904000000003
 41
5940.0
 11
0.0
 21
0.0
 31
1.0
 12
0.0
 22
0.0
 32
0.0
 42
50.0
 43
0.0
 44
0.0
 50
0.0
 71
     0
  0
ENDTAB
  0
TABLE
  2
UCS
 70
     0
  0
ENDTAB
  0
TABLE
  2
VPORT
 70
     1
  0
VPORT
  2
*ACTIVE
 70
     0
 10
0.0
 20
0.0
 11
1.0
 21
1.0
 12
278.4828327578515
 22
51.589975659257107
 13
0.0
 23
0.0
 14
1.0
 24
1.0
 15
0.0
 25
0.0
 16
0.0
 26
0.0
 36
1.0
 17
0.0
 27
0.0
 37
0.0
 40
1361.844087920874
 41
1.747787610619469
 42
50.0
 43
0.0
 44
0.0
 50
0.0
 51
0.0
 71
     0
 72
  1000
 73
     1
 74
     3
 75
     0
 76
     0
 77
     0
 78
     0
  0
ENDTAB
  0
ENDSEC
  0
SECTION
  2
BLOCKS
  0
BLOCK
  8
0
  2
_ORIGIN
 70
     0
 10
0.0
 20
0.0
 30
0.0
  3
_ORIGIN
  1
_ORIGIN
  0
CIRCLE
  8
0
  6
CONTINUOUS
 62
     7
 10
0.0
 20
0.0
 30
0.0
 40
0.5
  0
LINE
  8
0
  6
CONTINUOUS
 62
     7
 10
0.0
 20
0.0
 30
0.0
 11
-1.0
 21
0.0
 31
0.0
  0
ENDBLK
  8
0
  0
ENDSEC
  0
SECTION
  2
ENTITIES
  0
LINE
  8
BASIS
  6
DASHDOT
 62
     6
 10
0.0
 20
-228.54924
 30
0.0
 11
0.0
 21
231.415716
 31
0.0
  0
LINE
  8
BASIS
  6
DASHDOT
 62
     6
 10
-242.00919500000001
 20
0.0
 30
0.0
 11
254.571696
 21
0.0
 31
0.0
  0
LINE
  8
DETAIL
  6
CONTINUOUS
 62
     5
 10
-150.0
 20
-145.0
 30
0.0
 11
150.0
 21
-145.0
 31
0.0
  0
LINE
  8
DETAIL
  6
CONTINUOUS
 62
     5
 10
-150.0
 20
145.0
 30
0.0
 11
150.0
 21
145.0
 31
0.0
  0
LINE
  8
DETAIL
  6
CONTINUOUS
 62
     5
 10
-150.0
 20
-200.0
 30
0.0
 11
-150.0
 21
-145.0
 31
0.0
  0
LINE
  8
DETAIL
  6
CONTINUOUS
 62
     5
 10
150.0
 20
-200.0
 30
0.0
 11
150.0
 21
-145.0
 31
0.0
  0
LINE
  8
DETAIL
  6
CONTINUOUS
 62
     5
 10
-225.0
 20
72.0
 30
0.0
 11
-210.5
 21
72.0
 31
0.0
  0
LINE
  8
DETAIL
  6
CONTINUOUS
 62
     5
 10
-225.0
 20
117.0
 30
0.0
 11
-161.19999999999999
 21
117.0
 31
0.0
  0
LINE
  8
DETAIL
  6
CONTINUOUS
 62
     5
 10
-225.0
 20
72.0
 30
0.0
 11
-225.0
 21
117.0
 31
0.0
  0
LINE
  8
DETAIL
  6
CONTINUOUS
 62
     5
 10
-210.5
 20
72.0
 30
0.0
 11
-210.5
 21
88.5
 31
0.0
  0
LINE
  8
DETAIL
  6
CONTINUOUS
 62
     5
 10
-199.5
 20
72.0
 30
0.0
 11
-199.5
 21
88.5
 31
0.0
  0
ARC
  8
DETAIL
  6
CONTINUOUS
 62
     5
 10
-205.0
 20
88.5
 30
0.0
 40
5.5
 50
0.0
 51
180.0
  0
LINE
  8
NOTE
  6
CONTINUOUS
 62
     4
 10
-205.0
 20
68.5
 30
0.0
 11
-205.0
 21
108.5
 31
0.0
  0
LINE
  8
NOTE
  6
CONTINUOUS
 62
     4
 10
-225.0
 20
88.5
 30
0.0
 11
-185.0
 21
88.5
 31
0.0
  0
LINE
  8
DETAIL
  6
CONTINUOUS
 62
     5
 10
225.0
 20
72.0
 30
0.0
 11
225.0
 21
117.0
 31
0.0
  0
LINE
  8
DETAIL
  6
CONTINUOUS
 62
     5
 10
225.0
 20
72.0
 30
0.0
 11
210.5
 21
72.0
 31
0.0
  0
LINE
  8
DETAIL
  6
CONTINUOUS
 62
     5
 10
210.5
 20
72.0
 30
0.0
 11
210.5
 21
88.5
 31
0.0
  0
LINE
  8
DETAIL
  6
CONTINUOUS
 62
     5
 10
199.5
 20
72.0
 30
0.0
 11
199.5
 21
88.5
 31
0.0
  0
ARC
  8
DETAIL
  6
CONTINUOUS
 62
     5
 10
205.0
 20
88.5
 30
0.0
 40
5.5
 50
0.0
 51
180.0
  0
LINE
  8
NOTE
  6
CONTINUOUS
 62
     4
 10
205.0
 20
68.5
 30
0.0
 11
205.0
 21
108.5
 31
0.0
  0
LINE
  8
NOTE
  6
CONTINUOUS
 62
     4
 10
225.0
 20
88.5
 30
0.0
 11
185.0
 21
88.5
 31
0.0
  0
LINE
  8
DETAIL
  6
CONTINUOUS
 62
     5
 10
-199.5
 20
72.0
 30
0.0
 11
-179.1999999999999
 21
72.0
 31
0.0
  0
LINE
  8
DETAIL
  6
CONTINUOUS
 62
     5
 10
199.5
 20
72.0
 30
0.0
 11
179.1999999999999
 21
72.0
 31
0.0
  0
LINE
  8
DETAIL
  6
CONTINUOUS
 62
     5
 10
161.19999999999999
 20
117.0
 30
0.0
 11
225.0
 21
117.0
 31
0.0
  0
LINE
  8
DETAIL
  6
CONTINUOUS
 62
     5
 10
190.0
 20
-45.0
 30
0.0
 11
190.0
 21
-2.5
 31
0.0
  0
LINE
  8
DETAIL
  6
CONTINUOUS
 62
     5
 10
-190.0
 20
-45.0
 30
0.0
 11
-190.0
 21
-2.5
 31
0.0
  0
LINE
  8
DETAIL
  6
CONTINUOUS
 62
     5
 10
-150.0
 20
145.0
 30
0.0
 11
-150.0
 21
200.0
 31
0.0
  0
LINE
  8
DETAIL
  6
CONTINUOUS
 62
     5
 10
150.0
 20
145.0
 30
0.0
 11
150.0
 21
200.0
 31
0.0
  0
LINE
  8
DETAIL
  6
CONTINUOUS
 62
     5
 10
-190.0
 20
2.5
 30
0.0
 11
-190.0
 21
45.0
 31
0.0
  0
LINE
  8
DETAIL
  6
CONTINUOUS
 62
     5
 10
190.0
 20
2.5
 30
0.0
 11
190.0
 21
45.0
 31
0.0
  0
LINE
  8
DETAIL
  6
CONTINUOUS
 62
     5
 10
-199.5
 20
-72.0
 30
0.0
 11
-179.1999999999999
 21
-72.0
 31
0.0
  0
LINE
  8
NOTE
  6
CONTINUOUS
 62
     4
 10
-205.0
 20
-68.5
 30
0.0
 11
-205.0
 21
-108.5
 31
0.0
  0
LINE
  8
NOTE
  6
CONTINUOUS
 62
     4
 10
-225.0
 20
-88.5
 30
0.0
 11
-185.0
 21
-88.5
 31
0.0
  0
ARC
  8
DETAIL
  6
CONTINUOUS
 62
     5
 10
-205.0
 20
-88.5
 30
0.0
 40
5.5
 50
180.0
 51
0.0
  0
LINE
  8
DETAIL
  6
CONTINUOUS
 62
     5
 10
-199.5
 20
-72.0
 30
0.0
 11
-199.5
 21
-88.5
 31
0.0
  0
LINE
  8
DETAIL
  6
CONTINUOUS
 62
     5
 10
-210.5
 20
-72.0
 30
0.0
 11
-210.5
 21
-88.5
 31
0.0
  0
LINE
  8
DETAIL
  6
CONTINUOUS
 62
     5
 10
-225.0
 20
-72.0
 30
0.0
 11
-225.0
 21
-117.0
 31
0.0
  0
LINE
  8
DETAIL
  6
CONTINUOUS
 62
     5
 10
-225.0
 20
-117.0
 30
0.0
 11
-161.19999999999999
 21
-117.0
 31
0.0
  0
LINE
  8
DETAIL
  6
CONTINUOUS
 62
     5
 10
-225.0
 20
-72.0
 30
0.0
 11
-210.5
 21
-72.0
 31
0.0
  0
LINE
  8
DETAIL
  6
CONTINUOUS
 62
     5
 10
161.19999999999999
 20
-117.0
 30
0.0
 11
225.0
 21
-117.0
 31
0.0
  0
LINE
  8
DETAIL
  6
CONTINUOUS
 62
     5
 10
199.5
 20
-72.0
 30
0.0
 11
179.1999999999999
 21
-72.0
 31
0.0
  0
LINE
  8
NOTE
  6
CONTINUOUS
 62
     4
 10
205.0
 20
-68.5
 30
0.0
 11
205.0
 21
-108.5
 31
0.0
  0
LINE
  8
NOTE
  6
CONTINUOUS
 62
     4
 10
225.0
 20
-88.5
 30
0.0
 11
185.0
 21
-88.5
 31
0.0
  0
ARC
  8
DETAIL
  6
CONTINUOUS
 62
     5
 10
205.0
 20
-88.5
 30
0.0
 40
5.5
 50
180.0
 51
0.0
  0
LINE
  8
DETAIL
  6
CONTINUOUS
 62
     5
 10
199.5
 20
-72.0
 30
0.0
 11
199.5
 21
-88.5
 31
0.0
  0
LINE
  8
DETAIL
  6
CONTINUOUS
 62
     5
 10
210.5
 20
-72.0
 30
0.0
 11
210.5
 21
-88.5
 31
0.0
  0
LINE
  8
DETAIL
  6
CONTINUOUS
 62
     5
 10
225.0
 20
-72.0
 30
0.0
 11
210.5
 21
-72.0
 31
0.0
  0
LINE
  8
DETAIL
  6
CONTINUOUS
 62
     5
 10
225.0
 20
-72.0
 30
0.0
 11
225.0
 21
-117.0
 31
0.0
  0
CIRCLE
  8
FIX
  6
CONTINUOUS
 62
    11
 10
-205.0
 20
88.5
 30
0.0
 40
5.5
  0
CIRCLE
  8
FIX
  6
CONTINUOUS
 62
    11
 10
-205.0
 20
-88.5
 30
0.0
 40
5.5
  0
CIRCLE
  8
FIX
  6
CONTINUOUS
 62
    11
 10
205.0
 20
-88.5
 30
0.0
 40
5.5
  0
CIRCLE
  8
FIX
  6
CONTINUOUS
 62
    11
 10
205.0
 20
88.5
 30
0.0
 40
5.5
  0
LINE
  8
NOTE
  6
CONTINUOUS
 62
     4
 10
205.0
 20
88.5
 30
0.0
 11
316.02058399999999
 21
197.2231360000001
 31
0.0
  0
LINE
  8
NOTE
  6
CONTINUOUS
 62
     4
 10
225.34637000000001
 20
122.938717
 30
0.0
 11
205.0
 21
88.5
 31
0.0
  0
LINE
  8
NOTE
  6
CONTINUOUS
 62
     4
 10
205.0
 20
88.5
 30
0.0
 11
239.839832
 21
108.151618
 31
0.0
  0
LINE
  8
DETAIL
  6
CONTINUOUS
 62
     5
 10
-150.0
 20
200.0
 30
0.0
 11
150.0
 21
200.0
 31
0.0
  0
LINE
  8
DETAIL
  6
CONTINUOUS
 62
     5
 10
-150.0
 20
-200.0
 30
0.0
 11
150.0
 21
-200.0
 31
0.0
  0
LINE
  8
DETAIL
  6
CONTINUOUS
 62
     5
 10
-190.0
 20
45.0
 30
0.0
 11
190.0
 21
45.0
 31
0.0
  0
LINE
  8
DETAIL
  6
CONTINUOUS
 62
     5
 10
-190.0
 20
-45.0
 30
0.0
 11
190.0
 21
-45.0
 31
0.0
  0
LINE
  8
DETAIL
  6
CONTINUOUS
 62
     5
 10
190.0
 20
45.0
 30
0.0
 11
150.0
 21
145.0
 31
0.0
  0
LINE
  8
DETAIL
  6
CONTINUOUS
 62
     5
 10
190.0
 20
-45.0
 30
0.0
 11
150.0
 21
-145.0
 31
0.0
  0
LINE
  8
DETAIL
  6
CONTINUOUS
 62
     5
 10
-190.0
 20
45.0
 30
0.0
 11
-150.0
 21
145.0
 31
0.0
  0
LINE
  8
DETAIL
  6
CONTINUOUS
 62
     5
 10
-190.0
 20
-45.0
 30
0.0
 11
-150.0
 21
-145.0
 31
0.0
  0
POINT
  8
ARRANGE
  6
CONTINUOUS
 62
     1
 10
0.0
 20
0.0
 30
0.0
  0
CIRCLE
  8
ARRANGE
  6
CONTINUOUS
 62
     1
 10
0.0
 20
0.0
 30
0.0
 40
40.0
  0
LINE
  8
DETAIL
  6
CONTINUOUS
 62
     5
 10
-215.0
 20
-2.5
 30
0.0
 11
215.0
 21
-2.5
 31
0.0
  0
LINE
  8
DETAIL
  6
CONTINUOUS
 62
     5
 10
-215.0
 20
2.5
 30
0.0
 11
215.0
 21
2.5
 31
0.0
  0
LINE
  8
DETAIL
  6
CONTINUOUS
 62
     5
 10
-215.0
 20
1.5
 30
0.0
 11
215.0
 21
1.5
 31
0.0
  0
LINE
  8
DETAIL
  6
CONTINUOUS
 62
     5
 10
-215.0
 20
-1.5
 30
0.0
 11
215.0
 21
-1.5
 31
0.0
  0
LINE
  8
DETAIL
  6
CONTINUOUS
 62
     5
 10
-215.0
 20
-2.5
 30
0.0
 11
-215.0
 21
2.5
 31
0.0
  0
LINE
  8
DETAIL
  6
CONTINUOUS
 62
     5
 10
215.0
 20
-2.5
 30
0.0
 11
215.0
 21
2.5
 31
0.0
  0
LINE
  8
SIZE
  6
CONTINUOUS
 62
    30
 10
150.0
 20
-220.0
 30
0.0
 11
150.0
 21
-490.09316231099228
 31
0.0
  0
LINE
  8
SIZE
  6
CONTINUOUS
 62
    30
 10
-150.0
 20
-220.0
 30
0.0
 11
-150.0
 21
-490.09316231099228
 31
0.0
  0
LINE
  8
SIZE
  6
CONTINUOUS
 62
    30
 10
138.0
 20
-470.09316231099228
 30
0.0
 11
-138.0
 21
-470.09316231099228
 31
0.0
  0
CIRCLE
  8
SIZE
  6
CONTINUOUS
 62
    30
 10
150.0
 20
-470.09316231099228
 30
0.0
 40
6.0
  0
LINE
  8
SIZE
  6
CONTINUOUS
 62
    30
 10
150.0
 20
-470.09316231099228
 30
0.0
 11
138.0
 21
-470.09316231099228
 31
0.0
  0
CIRCLE
  8
SIZE
  6
CONTINUOUS
 62
    30
 10
-150.0
 20
-470.09316231099228
 30
0.0
 40
6.0
  0
LINE
  8
SIZE
  6
CONTINUOUS
 62
    30
 10
-150.0
 20
-470.09316231099228
 30
0.0
 11
-138.0
 21
-470.09316231099228
 31
0.0
  0
TEXT
  8
SIZE
  6
CONTINUOUS
 62
    30
 10
-114.3771428571429
 20
-445.09316231099228
 30
0.0
 40
64.0
  1
φ300
 41
0.9
 72
     1
 11
0.0
 21
-445.09316231099228
 31
0.0
  0
LINE
  8
SIZE
  6
CONTINUOUS
 62
    30
 10
215.0
 20
-22.5
 30
0.0
 11
215.0
 21
-624.53754031099231
 31
0.0
  0
LINE
  8
SIZE
  6
CONTINUOUS
 62
    30
 10
-215.0
 20
-22.5
 30
0.0
 11
-215.0
 21
-624.53754031099231
 31
0.0
  0
LINE
  8
SIZE
  6
CONTINUOUS
 62
    30
 10
203.0
 20
-604.53754031099231
 30
0.0
 11
-203.0
 21
-604.53754031099231
 31
0.0
  0
CIRCLE
  8
SIZE
  6
CONTINUOUS
 62
    30
 10
215.0
 20
-604.53754031099231
 30
0.0
 40
6.0
  0
LINE
  8
SIZE
  6
CONTINUOUS
 62
    30
 10
215.0
 20
-604.53754031099231
 30
0.0
 11
203.0
 21
-604.53754031099231
 31
0.0
  0
CIRCLE
  8
SIZE
  6
CONTINUOUS
 62
    30
 10
-215.0
 20
-604.53754031099231
 30
0.0
 40
6.0
  0
LINE
  8
SIZE
  6
CONTINUOUS
 62
    30
 10
-215.0
 20
-604.53754031099231
 30
0.0
 11
-203.0
 21
-604.53754031099231
 31
0.0
  0
TEXT
  8
SIZE
  6
CONTINUOUS
 62
    30
 10
-114.3771428571429
 20
-579.53754031099231
 30
0.0
 40
64.0
  1
φ430
 41
0.9
 72
     1
 11
0.0
 21
-579.53754031099231
 31
0.0
  0
POINT
  8
DEFPOINTS
  6
CONTINUOUS
 62
    30
 10
-215.0
 20
-604.53754031099231
 30
0.0
  0
LINE
  8
SIZE
  6
CONTINUOUS
 62
    30
 10
150.0
 20
220.0
 30
0.0
 11
150.0
 21
384.24882064655782
 31
0.0
  0
LINE
  8
SIZE
  6
CONTINUOUS
 62
    30
 10
-150.0
 20
220.0
 30
0.0
 11
-150.0
 21
384.24882064655782
 31
0.0
  0
LINE
  8
SIZE
  6
CONTINUOUS
 62
    30
 10
138.0
 20
364.24882064655782
 30
0.0
 11
-138.0
 21
364.24882064655782
 31
0.0
  0
CIRCLE
  8
SIZE
  6
CONTINUOUS
 62
    30
 10
150.0
 20
364.24882064655782
 30
0.0
 40
6.0
  0
LINE
  8
SIZE
  6
CONTINUOUS
 62
    30
 10
150.0
 20
364.24882064655782
 30
0.0
 11
138.0
 21
364.24882064655782
 31
0.0
  0
CIRCLE
  8
SIZE
  6
CONTINUOUS
 62
    30
 10
-150.0
 20
364.24882064655782
 30
0.0
 40
6.0
  0
LINE
  8
SIZE
  6
CONTINUOUS
 62
    30
 10
-150.0
 20
364.24882064655782
 30
0.0
 11
-138.0
 21
364.24882064655782
 31
0.0
  0
TEXT
  8
SIZE
  6
CONTINUOUS
 62
    30
 10
-114.3771428571429
 20
389.24882064655782
 30
0.0
 40
64.0
  1
φ300
 41
0.9
 72
     1
 11
0.0
 21
389.24882064655782
 31
0.0
  0
LINE
  8
SIZE
  6
CONTINUOUS
 62
    30
 10
205.0
 20
128.5
 30
0.0
 11
205.0
 21
517.34875464655761
 31
0.0
  0
LINE
  8
SIZE
  6
CONTINUOUS
 62
    30
 10
-205.0
 20
128.5
 30
0.0
 11
-205.0
 21
517.34875464655761
 31
0.0
  0
LINE
  8
SIZE
  6
CONTINUOUS
 62
    30
 10
193.0
 20
497.34875464655761
 30
0.0
 11
-193.0
 21
497.34875464655761
 31
0.0
  0
CIRCLE
  8
SIZE
  6
CONTINUOUS
 62
    30
 10
205.0
 20
497.34875464655761
 30
0.0
 40
6.0
  0
LINE
  8
SIZE
  6
CONTINUOUS
 62
    30
 10
205.0
 20
497.34875464655761
 30
0.0
 11
193.0
 21
497.34875464655761
 31
0.0
  0
CIRCLE
  8
SIZE
  6
CONTINUOUS
 62
    30
 10
-205.0
 20
497.34875464655761
 30
0.0
 40
6.0
  0
LINE
  8
SIZE
  6
CONTINUOUS
 62
    30
 10
-205.0
 20
497.34875464655761
 30
0.0
 11
-193.0
 21
497.34875464655761
 31
0.0
  0
TEXT
  8
SIZE
  6
CONTINUOUS
 62
    30
 10
-68.571428571428555
 20
522.34875464655761
 30
0.0
 40
64.0
  1
410
 41
0.9
 72
     1
 11
0.0
 21
522.34875464655761
 31
0.0
  0
POINT
  8
DEFPOINTS
  6
CONTINUOUS
 62
    30
 10
-205.0
 20
497.34875464655761
 30
0.0
  0
LINE
  8
SIZE
  6
CONTINUOUS
 62
    30
 10
225.0
 20
137.0
 30
0.0
 11
225.0
 21
658.94623064655752
 31
0.0
  0
LINE
  8
SIZE
  6
CONTINUOUS
 62
    30
 10
-225.0
 20
137.0
 30
0.0
 11
-225.0
 21
658.94623064655752
 31
0.0
  0
LINE
  8
SIZE
  6
CONTINUOUS
 62
    30
 10
213.0
 20
638.94623064655752
 30
0.0
 11
-213.0
 21
638.94623064655752
 31
0.0
  0
CIRCLE
  8
SIZE
  6
CONTINUOUS
 62
    30
 10
225.0
 20
638.94623064655752
 30
0.0
 40
6.0
  0
LINE
  8
SIZE
  6
CONTINUOUS
 62
    30
 10
225.0
 20
638.94623064655752
 30
0.0
 11
213.0
 21
638.94623064655752
 31
0.0
  0
CIRCLE
  8
SIZE
  6
CONTINUOUS
 62
    30
 10
-225.0
 20
638.94623064655752
 30
0.0
 40
6.0
  0
LINE
  8
SIZE
  6
CONTINUOUS
 62
    30
 10
-225.0
 20
638.94623064655752
 30
0.0
 11
-213.0
 21
638.94623064655752
 31
0.0
  0
TEXT
  8
SIZE
  6
CONTINUOUS
 62
    30
 10
-74.05714285714285
 20
663.94623064655752
 30
0.0
 40
64.0
  1
450
 41
0.9
 72
     1
 11
0.0
 21
663.94623064655752
 31
0.0
  0
POINT
  8
DEFPOINTS
  6
CONTINUOUS
 62
    30
 10
-225.0
 20
638.94623064655752
 30
0.0
  0
LINE
  8
SIZE
  6
CONTINUOUS
 62
    30
 10
-170.0
 20
200.0
 30
0.0
 11
-436.00020799999999
 21
200.0
 31
0.0
  0
LINE
  8
SIZE
  6
CONTINUOUS
 62
    30
 10
-170.0
 20
145.0
 30
0.0
 11
-436.00020799999999
 21
145.0
 31
0.0
  0
LINE
  8
SIZE
  6
CONTINUOUS
 62
    30
 10
-416.00020799999987
 20
212.0
 30
0.0
 11
-416.00020799999987
 21
224.0
 31
0.0
  0
LINE
  8
SIZE
  6
CONTINUOUS
 62
    30
 10
-416.00020799999987
 20
133.0
 30
0.0
 11
-416.00020799999987
 21
121.0
 31
0.0
  0
LINE
  8
SIZE
  6
CONTINUOUS
 62
    30
 10
-416.00020799999987
 20
377.43415700000003
 30
0.0
 11
-416.00020799999987
 21
200.0
 31
0.0
  0
TEXT
  8
SIZE
  6
CONTINUOUS
 62
    30
 10
-441.00020799999987
 20
259.17701457142851
 30
0.0
 40
64.0
  1
55
 50
90.0
 41
0.9
 72
     1
 11
-441.00020799999987
 21
305.80558599999989
 31
0.0
  0
LINE
  8
SIZE
  6
CONTINUOUS
 62
    30
 10
-416.00020799999987
 20
200.0
 30
0.0
 11
-416.00020799999987
 21
145.0
 31
0.0
  0
LINE
  8
SIZE
  6
CONTINUOUS
 62
    30
 10
-416.00020799999987
 20
200.0
 30
0.0
 11
-416.00020799999987
 21
145.0
 31
0.0
  0
CIRCLE
  8
SIZE
  6
CONTINUOUS
 62
    30
 10
-416.00020799999987
 20
200.0
 30
0.0
 40
6.0
  0
LINE
  8
SIZE
  6
CONTINUOUS
 62
    30
 10
-416.00020799999987
 20
200.0
 30
0.0
 11
-416.00020799999987
 21
212.0
 31
0.0
  0
CIRCLE
  8
SIZE
  6
CONTINUOUS
 62
    30
 10
-416.00020799999987
 20
145.0
 30
0.0
 40
6.0
  0
LINE
  8
SIZE
  6
CONTINUOUS
 62
    30
 10
-416.00020799999987
 20
145.0
 30
0.0
 11
-416.00020799999987
 21
133.0
 31
0.0
  0
LINE
  8
SIZE
  6
CONTINUOUS
 62
    30
 10
-170.0
 20
-145.0
 30
0.0
 11
-436.00020799999999
 21
-145.0
 31
0.0
  0
LINE
  8
SIZE
  6
CONTINUOUS
 62
    30
 10
-170.0
 20
-200.0
 30
0.0
 11
-436.00020799999999
 21
-200.0
 31
0.0
  0
LINE
  8
SIZE
  6
CONTINUOUS
 62
    30
 10
-416.00020799999987
 20
-133.0
 30
0.0
 11
-416.00020799999987
 21
-121.0
 31
0.0
  0
LINE
  8
SIZE
  6
CONTINUOUS
 62
    30
 10
-416.00020799999987
 20
-212.0
 30
0.0
 11
-416.00020799999987
 21
-224.0
 31
0.0
  0
LINE
  8
SIZE
  6
CONTINUOUS
 62
    30
 10
-416.00020799999987
 20
-375.24164400000001
 30
0.0
 11
-416.00020799999987
 21
-200.0
 31
0.0
  0
TEXT
  8
SIZE
  6
CONTINUOUS
 62
    30
 10
-441.00020799999987
 20
-350.24164342857142
 30
0.0
 40
64.0
  1
55
 50
90.0
 41
0.9
 72
     1
 11
-441.00020799999987
 21
-303.61307199999999
 31
0.0
  0
LINE
  8
SIZE
  6
CONTINUOUS
 62
    30
 10
-416.00020799999987
 20
-145.0
 30
0.0
 11
-416.00020799999987
 21
-200.0
 31
0.0
  0
LINE
  8
SIZE
  6
CONTINUOUS
 62
    30
 10
-416.00020799999987
 20
-145.0
 30
0.0
 11
-416.00020799999987
 21
-200.0
 31
0.0
  0
CIRCLE
  8
SIZE
  6
CONTINUOUS
 62
    30
 10
-416.00020799999987
 20
-145.0
 30
0.0
 40
6.0
  0
LINE
  8
SIZE
  6
CONTINUOUS
 62
    30
 10
-416.00020799999987
 20
-145.0
 30
0.0
 11
-416.00020799999987
 21
-133.0
 31
0.0
  0
CIRCLE
  8
SIZE
  6
CONTINUOUS
 62
    30
 10
-416.00020799999987
 20
-200.0
 30
0.0
 40
6.0
  0
LINE
  8
SIZE
  6
CONTINUOUS
 62
    30
 10
-416.00020799999987
 20
-200.0
 30
0.0
 11
-416.00020799999987
 21
-212.0
 31
0.0
  0
LINE
  8
SIZE
  6
CONTINUOUS
 62
    30
 10
-170.0
 20
200.0
 30
0.0
 11
-549.03582200000005
 21
200.0
 31
0.0
  0
LINE
  8
SIZE
  6
CONTINUOUS
 62
    30
 10
-170.0
 20
-200.0
 30
0.0
 11
-549.03582200000005
 21
-200.0
 31
0.0
  0
LINE
  8
SIZE
  6
CONTINUOUS
 62
    30
 10
-529.03582200000005
 20
188.0
 30
0.0
 11
-529.03582200000005
 21
-188.0
 31
0.0
  0
CIRCLE
  8
SIZE
  6
CONTINUOUS
 62
    30
 10
-529.03582200000005
 20
200.0
 30
0.0
 40
6.0
  0
LINE
  8
SIZE
  6
CONTINUOUS
 62
    30
 10
-529.03582200000005
 20
200.0
 30
0.0
 11
-529.03582200000005
 21
188.0
 31
0.0
  0
CIRCLE
  8
SIZE
  6
CONTINUOUS
 62
    30
 10
-529.03582200000005
 20
-200.0
 30
0.0
 40
6.0
  0
LINE
  8
SIZE
  6
CONTINUOUS
 62
    30
 10
-529.03582200000005
 20
-200.0
 30
0.0
 11
-529.03582200000005
 21
-188.0
 31
0.0
  0
TEXT
  8
SIZE
  6
CONTINUOUS
 62
    30
 10
-554.03582200000005
 20
-74.05714285714285
 30
0.0
 40
64.0
  1
400
 50
90.0
 41
0.9
 72
     1
 11
-554.03582200000005
 21
0.0
 31
0.0
  0
POINT
  8
DEFPOINTS
  6
CONTINUOUS
 62
    30
 10
-529.03582200000005
 20
-200.0
 30
0.0
  0
LINE
  8
SIZE
  6
CONTINUOUS
 62
    30
 10
245.0
 20
-117.0
 30
0.0
 11
700.29300799999987
 21
-117.0
 31
0.0
  0
LINE
  8
SIZE
  6
CONTINUOUS
 62
    30
 10
245.0
 20
117.0
 30
0.0
 11
700.29300799999987
 21
117.0
 31
0.0
  0
LINE
  8
SIZE
  6
CONTINUOUS
 62
    30
 10
680.2930080000001
 20
-105.0
 30
0.0
 11
680.2930080000001
 21
105.0
 31
0.0
  0
CIRCLE
  8
SIZE
  6
CONTINUOUS
 62
    30
 10
680.2930080000001
 20
-117.0
 30
0.0
 40
6.0
  0
LINE
  8
SIZE
  6
CONTINUOUS
 62
    30
 10
680.2930080000001
 20
-117.0
 30
0.0
 11
680.2930080000001
 21
-105.0
 31
0.0
  0
CIRCLE
  8
SIZE
  6
CONTINUOUS
 62
    30
 10
680.2930080000001
 20
117.0
 30
0.0
 40
6.0
  0
LINE
  8
SIZE
  6
CONTINUOUS
 62
    30
 10
680.2930080000001
 20
117.0
 30
0.0
 11
680.2930080000001
 21
105.0
 31
0.0
  0
TEXT
  8
SIZE
  6
CONTINUOUS
 62
    30
 10
655.2930080000001
 20
-75.428571428571416
 30
0.0
 40
64.0
  1
234
 50
90.0
 41
0.9
 72
     1
 11
655.2930080000001
 21
0.0
 31
0.0
  0
POINT
  8
DEFPOINTS
  6
CONTINUOUS
 62
    30
 10
680.2930080000001
 20
117.0
 30
0.0
  0
LINE
  8
SIZE
  6
CONTINUOUS
 62
    30
 10
245.0
 20
88.5
 30
0.0
 11
575.02020799999991
 21
88.5
 31
0.0
  0
LINE
  8
SIZE
  6
CONTINUOUS
 62
    30
 10
245.0
 20
-88.5
 30
0.0
 11
575.02020799999991
 21
-88.5
 31
0.0
  0
LINE
  8
SIZE
  6
CONTINUOUS
 62
    30
 10
555.02020799999991
 20
100.5
 30
0.0
 11
555.02020799999991
 21
112.5
 31
0.0
  0
LINE
  8
SIZE
  6
CONTINUOUS
 62
    30
 10
555.02020799999991
 20
-100.5
 30
0.0
 11
555.02020799999991
 21
-112.5
 31
0.0
  0
LINE
  8
SIZE
  6
CONTINUOUS
 62
    30
 10
555.02020799999991
 20
88.5
 30
0.0
 11
555.02020799999991
 21
-88.5
 31
0.0
  0
CIRCLE
  8
SIZE
  6
CONTINUOUS
 62
    30
 10
555.02020799999991
 20
88.5
 30
0.0
 40
6.0
  0
LINE
  8
SIZE
  6
CONTINUOUS
 62
    30
 10
555.02020799999991
 20
88.5
 30
0.0
 11
555.02020799999991
 21
100.5
 31
0.0
  0
CIRCLE
  8
SIZE
  6
CONTINUOUS
 62
    30
 10
555.02020799999991
 20
-88.5
 30
0.0
 40
6.0
  0
LINE
  8
SIZE
  6
CONTINUOUS
 62
    30
 10
555.02020799999991
 20
-88.5
 30
0.0
 11
555.02020799999991
 21
-100.5
 31
0.0
  0
TEXT
  8
SIZE
  6
CONTINUOUS
 62
    30
 10
530.02020799999991
 20
-68.571428571428569
 30
0.0
 40
64.0
  1
177
 50
90.0
 41
0.9
 72
     1
 11
530.02020799999991
 21
0.0
 31
0.0
  0
LINE
  8
SIZE
  6
CONTINUOUS
 62
    30
 10
245.0
 20
72.0
 30
0.0
 11
445.61507699999993
 21
72.0
 31
0.0
  0
LINE
  8
SIZE
  6
CONTINUOUS
 62
    30
 10
245.0
 20
-72.0
 30
0.0
 11
445.61507699999993
 21
-72.0
 31
0.0
  0
LINE
  8
SIZE
  6
CONTINUOUS
 62
    30
 10
425.61507699999993
 20
84.0
 30
0.0
 11
425.61507699999993
 21
96.0
 31
0.0
  0
LINE
  8
SIZE
  6
CONTINUOUS
 62
    30
 10
425.61507699999993
 20
-84.0
 30
0.0
 11
425.61507699999993
 21
-96.0
 31
0.0
  0
LINE
  8
SIZE
  6
CONTINUOUS
 62
    30
 10
425.61507699999993
 20
72.0
 30
0.0
 11
425.61507699999993
 21
-72.0
 31
0.0
  0
CIRCLE
  8
SIZE
  6
CONTINUOUS
 62
    30
 10
425.61507699999993
 20
72.0
 30
0.0
 40
6.0
  0
LINE
  8
SIZE
  6
CONTINUOUS
 62
    30
 10
425.61507699999993
 20
72.0
 30
0.0
 11
425.61507699999993
 21
84.0
 31
0.0
  0
CIRCLE
  8
SIZE
  6
CONTINUOUS
 62
    30
 10
425.61507699999993
 20
-72.0
 30
0.0
 40
6.0
  0
LINE
  8
SIZE
  6
CONTINUOUS
 62
    30
 10
425.61507699999993
 20
-72.0
 30
0.0
 11
425.61507699999993
 21
-84.0
 31
0.0
  0
TEXT
  8
SIZE
  6
CONTINUOUS
 62
    30
 10
400.61507699999993
 20
-69.942857142857136
 30
0.0
 40
64.0
  1
144
 50
90.0
 41
0.9
 72
     1
 11
400.61507699999993
 21
0.0
 31
0.0
  0
TEXT
  8
NOTE
  6
CONTINUOUS
 62
     4
 10
331.98107700000008
 20
226.52611300000001
 30
0.0
 40
64.0
  1
AH-4
 41
0.9
  0
LINE
  8
NOTE
  6
CONTINUOUS
 62
     4
 10
316.02058399999999
 20
197.2231360000001
 30
0.0
 11
581.35641099999975
 21
197.2231360000001
 31
0.0
  0
CIRCLE
  8
DETAIL
  6
CONTINUOUS
 62
     5
 10
0.0
 20
-31.0
 30
0.0
 40
5.5
  0
LINE
  8
NOTE
  6
CONTINUOUS
 62
     4
 10
0.0
 20
-11.0
 30
0.0
 11
0.0
 21
-51.0
 31
0.0
  0
LINE
  8
NOTE
  6
CONTINUOUS
 62
     4
 10
-20.0
 20
-31.0
 30
0.0
 11
20.0
 21
-31.0
 31
0.0
  0
LINE
  8
NOTE
  6
CONTINUOUS
 62
     4
 10
324.19921199999999
 20
-346.39254199999999
 30
0.0
 11
967.87613999999985
 21
-346.39254199999999
 31
0.0
  0
TEXT
  8
NOTE
  6
CONTINUOUS
 62
     4
 10
334.45243900000008
 20
-312.32185393744078
 30
0.0
 40
64.0
  1
D(ドレンキャップ)
 41
0.9
  0
LINE
  8
NOTE
  6
CONTINUOUS
 62
     4
 10
0.0
 20
-31.0
 30
0.0
 11
324.19921199999999
 21
-346.39254199999999
 31
0.0
  0
LINE
  8
NOTE
  6
CONTINUOUS
 62
     4
 10
20.842609000000039
 20
-65.14067399999999
 30
0.0
 11
0.0
 21
-31.0
 31
0.0
  0
LINE
  8
NOTE
  6
CONTINUOUS
 62
     4
 10
0.0
 20
-31.0
 30
0.0
 11
35.120566000000053
 21
-50.145387000000028
 31
0.0
  0
TEXT
  8
ETC
  6
CONTINUOUS
 62
    61
 10
683.78655442198601
 20
621.77579863183155
 30
0.0
 40
64.0
  1
JF-90SA2_6
 41
0.9
  0
TEXT
  8
ETC
  6
CONTINUOUS
 62
    61
 10
686.71425342198609
 20
522.09984563183161
 30
0.0
 40
64.0
  1
産業扇
 41
0.9
  0
TEXT
  8
ETC
  6
CONTINUOUS
 62
    61
 10
756.97957942198627
 20
304.37988663183182
 30
0.0
 40
50.0
  1
JF-90TA2
 41
0.9
  0
TEXT
  8
ETC
  6
CONTINUOUS
 62
    61
 10
756.97957942198627
 20
206.82954563183171
 30
0.0
 40
50.0
  1
JF-120SA2
 41
0.9
  0
TEXT
  8
ETC
  6
CONTINUOUS
 62
    61
 10
756.97957942198627
 20
399.7016176318316
 30
0.0
 40
50.0
  1
JF-90SA2
 41
0.9
  0
TEXT
  8
ETC
  6
CONTINUOUS
 62
    61
 10
756.97957942198627
 20
115.6930637779612
 30
0.0
 40
50.0
  1
JF-120TA2
 41
0.9
  0
LINE
  8
OUTLINE
  6
CONTINUOUS
 62
     3
 10
-150.0
 20
-200.0
 30
0.0
 11
-150.0
 21
-145.0
 31
0.0
  0
LINE
  8
OUTLINE
  6
CONTINUOUS
 62
     3
 10
150.0
 20
-200.0
 30
0.0
 11
150.0
 21
-145.0
 31
0.0
  0
LINE
  8
OUTLINE
  6
CONTINUOUS
 62
     3
 10
-225.0
 20
72.0
 30
0.0
 11
-210.5
 21
72.0
 31
0.0
  0
LINE
  8
OUTLINE
  6
CONTINUOUS
 62
     3
 10
-225.0
 20
117.0
 30
0.0
 11
-161.19999999999999
 21
117.0
 31
0.0
  0
LINE
  8
OUTLINE
  6
CONTINUOUS
 62
     3
 10
-225.0
 20
72.0
 30
0.0
 11
-225.0
 21
117.0
 31
0.0
  0
LINE
  8
OUTLINE
  6
CONTINUOUS
 62
     3
 10
-210.5
 20
72.0
 30
0.0
 11
-210.5
 21
88.5
 31
0.0
  0
LINE
  8
OUTLINE
  6
CONTINUOUS
 62
     3
 10
-199.5
 20
72.0
 30
0.0
 11
-199.5
 21
88.5
 31
0.0
  0
ARC
  8
OUTLINE
  6
CONTINUOUS
 62
     3
 10
-205.0
 20
88.5
 30
0.0
 40
5.5
 50
0.0
 51
180.0
  0
LINE
  8
OUTLINE
  6
CONTINUOUS
 62
     3
 10
225.0
 20
72.0
 30
0.0
 11
225.0
 21
117.0
 31
0.0
  0
LINE
  8
OUTLINE
  6
CONTINUOUS
 62
     3
 10
225.0
 20
72.0
 30
0.0
 11
210.5
 21
72.0
 31
0.0
  0
LINE
  8
OUTLINE
  6
CONTINUOUS
 62
     3
 10
210.5
 20
72.0
 30
0.0
 11
210.5
 21
88.5
 31
0.0
  0
LINE
  8
OUTLINE
  6
CONTINUOUS
 62
     3
 10
199.5
 20
72.0
 30
0.0
 11
199.5
 21
88.5
 31
0.0
  0
ARC
  8
OUTLINE
  6
CONTINUOUS
 62
     3
 10
205.0
 20
88.5
 30
0.0
 40
5.5
 50
0.0
 51
180.0
  0
LINE
  8
OUTLINE
  6
CONTINUOUS
 62
     3
 10
-199.5
 20
72.0
 30
0.0
 11
-179.19999999999979
 21
72.0
 31
0.0
  0
LINE
  8
OUTLINE
  6
CONTINUOUS
 62
     3
 10
199.5
 20
72.0
 30
0.0
 11
179.19999999999979
 21
72.0
 31
0.0
  0
LINE
  8
OUTLINE
  6
CONTINUOUS
 62
     3
 10
161.19999999999999
 20
117.0
 30
0.0
 11
225.0
 21
117.0
 31
0.0
  0
LINE
  8
OUTLINE
  6
CONTINUOUS
 62
     3
 10
190.0
 20
-45.0
 30
0.0
 11
190.0
 21
-2.5
 31
0.0
  0
LINE
  8
OUTLINE
  6
CONTINUOUS
 62
     3
 10
-190.0
 20
-45.0
 30
0.0
 11
-190.0
 21
-2.5
 31
0.0
  0
LINE
  8
OUTLINE
  6
CONTINUOUS
 62
     3
 10
-150.0
 20
145.0
 30
0.0
 11
-150.0
 21
200.0
 31
0.0
  0
LINE
  8
OUTLINE
  6
CONTINUOUS
 62
     3
 10
150.0
 20
145.0
 30
0.0
 11
150.0
 21
200.0
 31
0.0
  0
LINE
  8
OUTLINE
  6
CONTINUOUS
 62
     3
 10
-190.0
 20
2.5
 30
0.0
 11
-190.0
 21
45.0
 31
0.0
  0
LINE
  8
OUTLINE
  6
CONTINUOUS
 62
     3
 10
190.0
 20
2.5
 30
0.0
 11
190.0
 21
45.0
 31
0.0
  0
LINE
  8
OUTLINE
  6
CONTINUOUS
 62
     3
 10
-199.5
 20
-72.0
 30
0.0
 11
-179.19999999999979
 21
-72.0
 31
0.0
  0
ARC
  8
OUTLINE
  6
CONTINUOUS
 62
     3
 10
-205.0
 20
-88.5
 30
0.0
 40
5.5
 50
180.0
 51
0.0
  0
LINE
  8
OUTLINE
  6
CONTINUOUS
 62
     3
 10
-199.5
 20
-72.0
 30
0.0
 11
-199.5
 21
-88.5
 31
0.0
  0
LINE
  8
OUTLINE
  6
CONTINUOUS
 62
     3
 10
-210.5
 20
-72.0
 30
0.0
 11
-210.5
 21
-88.5
 31
0.0
  0
LINE
  8
OUTLINE
  6
CONTINUOUS
 62
     3
 10
-225.0
 20
-72.0
 30
0.0
 11
-225.0
 21
-117.0
 31
0.0
  0
LINE
  8
OUTLINE
  6
CONTINUOUS
 62
     3
 10
-225.0
 20
-117.0
 30
0.0
 11
-161.19999999999999
 21
-117.0
 31
0.0
  0
LINE
  8
OUTLINE
  6
CONTINUOUS
 62
     3
 10
-225.0
 20
-72.0
 30
0.0
 11
-210.5
 21
-72.0
 31
0.0
  0
LINE
  8
OUTLINE
  6
CONTINUOUS
 62
     3
 10
161.19999999999999
 20
-117.0
 30
0.0
 11
225.0
 21
-117.0
 31
0.0
  0
LINE
  8
OUTLINE
  6
CONTINUOUS
 62
     3
 10
199.5
 20
-72.0
 30
0.0
 11
179.19999999999999
 21
-72.0
 31
0.0
  0
LINE
  8
OUTLINE
  6
CONTINUOUS
 62
     3
 10
-179.19999999999999
 20
-72.0
 30
0.0
 11
-199.5
 21
-72.0
 31
0.0
  0
ARC
  8
OUTLINE
  6
CONTINUOUS
 62
     3
 10
205.0
 20
-88.5
 30
0.0
 40
5.5
 50
180.0
 51
0.0
  0
LINE
  8
OUTLINE
  6
CONTINUOUS
 62
     3
 10
199.5
 20
-72.0
 30
0.0
 11
199.5
 21
-88.5
 31
0.0
  0
LINE
  8
OUTLINE
  6
CONTINUOUS
 62
     3
 10
210.5
 20
-72.0
 30
0.0
 11
210.5
 21
-88.5
 31
0.0
  0
LINE
  8
OUTLINE
  6
CONTINUOUS
 62
     3
 10
225.0
 20
-72.0
 30
0.0
 11
210.5
 21
-72.0
 31
0.0
  0
LINE
  8
OUTLINE
  6
CONTINUOUS
 62
     3
 10
225.0
 20
-72.0
 30
0.0
 11
225.0
 21
-117.0
 31
0.0
  0
LINE
  8
OUTLINE
  6
CONTINUOUS
 62
     3
 10
-150.0
 20
200.0
 30
0.0
 11
150.0
 21
200.0
 31
0.0
  0
LINE
  8
OUTLINE
  6
CONTINUOUS
 62
     3
 10
-150.0
 20
-200.0
 30
0.0
 11
150.0
 21
-200.0
 31
0.0
  0
LINE
  8
OUTLINE
  6
CONTINUOUS
 62
     3
 10
190.0
 20
45.0
 30
0.0
 11
179.19999999999979
 21
72.0
 31
0.0
  0
LINE
  8
OUTLINE
  6
CONTINUOUS
 62
     3
 10
161.19999999999999
 20
117.0
 30
0.0
 11
150.0
 21
145.0
 31
0.0
  0
LINE
  8
OUTLINE
  6
CONTINUOUS
 62
     3
 10
190.0
 20
-45.0
 30
0.0
 11
179.19999999999999
 21
-72.0
 31
0.0
  0
LINE
  8
OUTLINE
  6
CONTINUOUS
 62
     3
 10
161.19999999999999
 20
-117.0
 30
0.0
 11
150.0
 21
-145.0
 31
0.0
  0
LINE
  8
OUTLINE
  6
CONTINUOUS
 62
     3
 10
-190.0
 20
45.0
 30
0.0
 11
-179.19999999999999
 21
72.0
 31
0.0
  0
LINE
  8
OUTLINE
  6
CONTINUOUS
 62
     3
 10
-161.19999999999999
 20
117.0
 30
0.0
 11
-150.0
 21
145.0
 31
0.0
  0
LINE
  8
OUTLINE
  6
CONTINUOUS
 62
     3
 10
-190.0
 20
-45.0
 30
0.0
 11
-179.19999999999999
 21
-72.0
 31
0.0
  0
LINE
  8
OUTLINE
  6
CONTINUOUS
 62
     3
 10
-161.19999999999999
 20
-117.0
 30
0.0
 11
-150.0
 21
-145.0
 31
0.0
  0
LINE
  8
OUTLINE
  6
CONTINUOUS
 62
     3
 10
-190.0
 20
-45.0
 30
0.0
 11
-179.19999999999999
 21
-72.0
 31
0.0
  0
LINE
  8
OUTLINE
  6
CONTINUOUS
 62
     3
 10
-161.19999999999999
 20
-117.0
 30
0.0
 11
-150.0
 21
-145.0
 31
0.0
  0
LINE
  8
OUTLINE
  6
CONTINUOUS
 62
     3
 10
-190.0
 20
45.0
 30
0.0
 11
-179.19999999999999
 21
72.0
 31
0.0
  0
LINE
  8
OUTLINE
  6
CONTINUOUS
 62
     3
 10
-161.19999999999999
 20
117.0
 30
0.0
 11
-150.0
 21
145.0
 31
0.0
  0
LINE
  8
OUTLINE
  6
CONTINUOUS
 62
     3
 10
190.0
 20
-45.0
 30
0.0
 11
179.19999999999999
 21
-72.0
 31
0.0
  0
LINE
  8
OUTLINE
  6
CONTINUOUS
 62
     3
 10
161.19999999999999
 20
-117.0
 30
0.0
 11
150.0
 21
-145.0
 31
0.0
  0
LINE
  8
OUTLINE
  6
CONTINUOUS
 62
     3
 10
190.0
 20
45.0
 30
0.0
 11
179.19999999999979
 21
72.0
 31
0.0
  0
LINE
  8
OUTLINE
  6
CONTINUOUS
 62
     3
 10
161.19999999999999
 20
117.0
 30
0.0
 11
150.0
 21
145.0
 31
0.0
  0
LINE
  8
OUTLINE
  6
CONTINUOUS
 62
     3
 10
190.0
 20
2.5
 30
0.0
 11
190.0
 21
45.0
 31
0.0
  0
LINE
  8
OUTLINE
  6
CONTINUOUS
 62
     3
 10
-190.0
 20
2.5
 30
0.0
 11
-190.0
 21
45.0
 31
0.0
  0
LINE
  8
OUTLINE
  6
CONTINUOUS
 62
     3
 10
-190.0
 20
-45.0
 30
0.0
 11
-190.0
 21
-2.5
 31
0.0
  0
LINE
  8
OUTLINE
  6
CONTINUOUS
 62
     3
 10
190.0
 20
-45.0
 30
0.0
 11
190.0
 21
-2.5
 31
0.0
  0
LINE
  8
OUTLINE
  6
CONTINUOUS
 62
     3
 10
-215.0
 20
-2.5
 30
0.0
 11
-190.0
 21
-2.5
 31
0.0
  0
LINE
  8
OUTLINE
  6
CONTINUOUS
 62
     3
 10
190.0
 20
-2.5
 30
0.0
 11
215.0
 21
-2.5
 31
0.0
  0
LINE
  8
OUTLINE
  6
CONTINUOUS
 62
     3
 10
-215.0
 20
2.5
 30
0.0
 11
-190.0
 21
2.5
 31
0.0
  0
LINE
  8
OUTLINE
  6
CONTINUOUS
 62
     3
 10
190.0
 20
2.5
 30
0.0
 11
215.0
 21
2.5
 31
0.0
  0
LINE
  8
OUTLINE
  6
CONTINUOUS
 62
     3
 10
-215.0
 20
-2.5
 30
0.0
 11
-215.0
 21
2.5
 31
0.0
  0
LINE
  8
OUTLINE
  6
CONTINUOUS
 62
     3
 10
215.0
 20
-2.5
 30
0.0
 11
215.0
 21
2.5
 31
0.0
  0
LINE
  8
OUTLINE
  6
CONTINUOUS
 62
     3
 10
-215.0
 20
2.5
 30
0.0
 11
-190.0
 21
2.5
 31
0.0
  0
LINE
  8
OUTLINE
  6
CONTINUOUS
 62
     3
 10
190.0
 20
2.5
 30
0.0
 11
215.0
 21
2.5
 31
0.0
  0
LINE
  8
OUTLINE
  6
CONTINUOUS
 62
     3
 10
-215.0
 20
-2.5
 30
0.0
 11
-190.0
 21
-2.5
 31
0.0
  0
LINE
  8
OUTLINE
  6
CONTINUOUS
 62
     3
 10
190.0
 20
-2.5
 30
0.0
 11
215.0
 21
-2.5
 31
0.0
  0
LINE
  8
OUTLINE
  6
CONTINUOUS
 62
     3
 10
-215.0
 20
-2.5
 30
0.0
 11
-215.0
 21
2.5
 31
0.0
  0
LINE
  8
OUTLINE
  6
CONTINUOUS
 62
     3
 10
215.0
 20
-2.5
 30
0.0
 11
215.0
 21
2.5
 31
0.0
  0
LINE
  8
SIZE
  6
CONTINUOUS
 62
    30
 10
210.5
 20
108.5
 30
0.0
 11
210.5
 21
384.24882064655782
 31
0.0
  0
LINE
  8
SIZE
  6
CONTINUOUS
 62
    30
 10
199.5
 20
108.5
 30
0.0
 11
199.5
 21
384.24882064655782
 31
0.0
  0
LINE
  8
SIZE
  6
CONTINUOUS
 62
    30
 10
187.5
 20
364.24882064655782
 30
0.0
 11
175.5
 21
364.24882064655782
 31
0.0
  0
LINE
  8
SIZE
  6
CONTINUOUS
 62
    30
 10
222.5
 20
364.24882064655782
 30
0.0
 11
342.10000000000002
 21
364.24882064655782
 31
0.0
  0
LINE
  8
SIZE
  6
CONTINUOUS
 62
    30
 10
199.5
 20
364.24882064655782
 30
0.0
 11
210.5
 21
364.24882064655782
 31
0.0
  0
CIRCLE
  8
SIZE
  6
CONTINUOUS
 62
    30
 10
199.5
 20
364.24882064655782
 30
0.0
 40
6.0
  0
LINE
  8
SIZE
  6
CONTINUOUS
 62
    30
 10
199.5
 20
364.24882064655782
 30
0.0
 11
187.5
 21
364.24882064655782
 31
0.0
  0
CIRCLE
  8
SIZE
  6
CONTINUOUS
 62
    30
 10
210.5
 20
364.24882064655782
 30
0.0
 40
6.0
  0
LINE
  8
SIZE
  6
CONTINUOUS
 62
    30
 10
210.5
 20
364.24882064655782
 30
0.0
 11
222.5
 21
364.24882064655782
 31
0.0
  0
TEXT
  8
SIZE
  6
CONTINUOUS
 62
    30
 10
259.49999999999989
 20
389.24882064655782
 30
0.0
 40
64.0
  1
11
 41
0.9
 72
     1
 11
288.30000000000001
 21
389.24882064655782
 31
0.0
  0
POINT
  8
DEFPOINTS
  6
CONTINUOUS
 62
    30
 10
210.5
 20
88.5
 30
0.0
  0
POINT
  8
DEFPOINTS
  6
CONTINUOUS
 62
    30
 10
199.5
 20
88.5
 30
0.0
  0
POINT
  8
DEFPOINTS
  6
CONTINUOUS
 62
    30
 10
199.5
 20
364.24882064655782
 30
0.0
  0
TEXT
  8
NOTE
  6
CONTINUOUS
 62
     4
 10
-93.661423326520662
 20
257.46657055987862
 30
0.0
 40
64.0
  1
吸込口
 41
0.9
  0
TEXT
  8
NOTE
  6
CONTINUOUS
 62
     4
 10
-95.362332870800401
 20
-320.57444789850291
 30
0.0
 40
64.0
  1
吹出口
 41
0.9
  0
ENDSEC
  0
EOF
