  0
SECTION
  2
HEADER
  9
$ACADVER
  1
AC1009
  9
$DWGCODEPAGE
  3
dos932
  9
$INSBASE
 10
0.0
 20
0.0
 30
0.0
  9
$EXTMIN
 10
-839.75370683445908
 20
-1196.182240145494
 30
-0.0000000000000015
  9
$EXTMAX
 10
1736.1557130773469
 20
967.3919762337955
 30
0.0000000000000138
  9
$LIMMIN
 10
-2970.0
 20
-2100.0
  9
$LIMMAX
 10
2970.0
 20
2100.0
  9
$ORTHOMODE
 70
     1
  9
$REGENMODE
 70
     1
  9
$FILLMODE
 70
     1
  9
$QTEXTMODE
 70
     0
  9
$MIRRTEXT
 70
     0
  9
$LTSCALE
 40
20.0
  9
$ATTMODE
 70
     1
  9
$TEXTSIZE
 40
64.0
  9
$TRACEWID
 40
0.05
  9
$TEXTSTYLE
  7
STANDARD
  9
$CLAYER
  8
NOTE
  9
$CELTYPE
  6
CONTINUOUS
  9
$CECOLOR
 62
     7
  9
$DIMSCALE
 40
1.0
  9
$DIMASZ
 40
12.0
  9
$DIMEXO
 40
20.0
  9
$DIMDLI
 40
200.0
  9
$DIMRND
 40
0.0
  9
$DIMDLE
 40
0.0
  9
$DIMEXE
 40
20.0
  9
$DIMTP
 40
0.0
  9
$DIMTM
 40
0.0
  9
$DIMTXT
 40
64.0
  9
$DIMCEN
 40
0.09
  9
$DIMTSZ
 40
0.0
  9
$DIMTOL
 70
     0
  9
$DIMLIM
 70
     0
  9
$DIMTIH
 70
     0
  9
$DIMTOH
 70
     0
  9
$DIMSE1
 70
     0
  9
$DIMSE2
 70
     0
  9
$DIMTAD
 70
     1
  9
$DIMZIN
 70
     8
  9
$DIMBLK
  1

  9
$DIMASO
 70
     1
  9
$DIMSHO
 70
     0
  9
$DIMPOST
  1

  9
$DIMAPOST
  1

  9
$DIMALT
 70
     0
  9
$DIMALTD
 70
     2
  9
$DIMALTF
 40
25.399999999999999
  9
$DIMLFAC
 40
1.0
  9
$DIMTOFL
 70
     1
  9
$DIMTVP
 40
0.0
  9
$DIMTIX
 70
     1
  9
$DIMSOXD
 70
     0
  9
$DIMSAH
 70
     0
  9
$DIMBLK1
  1

  9
$DIMBLK2
  1

  9
$DIMSTYLE
  2
STANDARD
  9
$DIMCLRD
 70
     7
  9
$DIMCLRE
 70
     7
  9
$DIMCLRT
 70
     7
  9
$DIMTFAC
 40
1.0
  9
$DIMGAP
 40
25.0
  9
$LUNITS
 70
     2
  9
$LUPREC
 70
     4
  9
$SKETCHINC
 40
0.1
  9
$FILLETRAD
 40
3.0
  9
$AUNITS
 70
     1
  9
$AUPREC
 70
     3
  9
$MENU
  1
ACAD
  9
$ELEVATION
 40
0.0
  9
$PELEVATION
 40
0.0
  9
$THICKNESS
 40
50.0
  9
$LIMCHECK
 70
     0
  9
$CHAMFERA
 40
0.0
  9
$CHAMFERB
 40
0.0
  9
$SKPOLY
 70
     0
  9
$TDCREATE
 40
2453019.62301037
  9
$TDUPDATE
 40
2458926.759317627
  9
$TDINDWG
 40
1.7440719213
  9
$TDUSRTIMER
 40
1.7440719213
  9
$USRTIMER
 70
     1
  9
$ANGBASE
 50
0.0
  9
$ANGDIR
 70
     0
  9
$PDMODE
 70
     3
  9
$PDSIZE
 40
-2.0
  9
$PLINEWID
 40
0.0
  9
$SPLFRAME
 70
     0
  9
$SPLINETYPE
 70
     6
  9
$SPLINESEGS
 70
     8
  9
$SURFTAB1
 70
     6
  9
$SURFTAB2
 70
     6
  9
$SURFTYPE
 70
     6
  9
$SURFU
 70
     6
  9
$SURFV
 70
     6
  9
$UCSNAME
  2

  9
$UCSORG
 10
0.0
 20
0.0
 30
0.0
  9
$UCSXDIR
 10
1.0
 20
0.0
 30
0.0
  9
$UCSYDIR
 10
0.0
 20
1.0
 30
0.0
  9
$PUCSNAME
  2

  9
$PUCSORG
 10
0.0
 20
0.0
 30
0.0
  9
$PUCSXDIR
 10
1.0
 20
0.0
 30
0.0
  9
$PUCSYDIR
 10
0.0
 20
1.0
 30
0.0
  9
$USERI1
 70
     0
  9
$USERI2
 70
     0
  9
$USERI3
 70
     0
  9
$USERI4
 70
     0
  9
$USERI5
 70
     0
  9
$USERR1
 40
20.0
  9
$USERR2
 40
0.0
  9
$USERR3
 40
0.0
  9
$USERR4
 40
0.0
  9
$USERR5
 40
0.0
  9
$WORLDVIEW
 70
     1
  9
$SHADEDGE
 70
     3
  9
$SHADEDIF
 70
    70
  9
$TILEMODE
 70
     1
  9
$MAXACTVP
 70
    48
  9
$PINSBASE
 10
0.0
 20
0.0
 30
0.0
  9
$PLIMCHECK
 70
     0
  9
$PEXTMIN
 10
-100000000000000000000.0
 20
-100000000000000000000.0
 30
-100000000000000000000.0
  9
$PEXTMAX
 10
100000000000000000000.0
 20
100000000000000000000.0
 30
100000000000000000000.0
  9
$PLIMMIN
 10
0.0
 20
0.0
  9
$PLIMMAX
 10
12.0
 20
9.0
  9
$UNITMODE
 70
     0
  9
$VISRETAIN
 70
     0
  9
$PLINEGEN
 70
     0
  9
$PSLTSCALE
 70
     0
  9
$TREEDEPTH
 70
  3020
  9
$ATTDIA
 70
     0
  9
$ATTREQ
 70
     1
  9
$BLIPMODE
 70
     1
  9
$COORDS
 70
     1
  9
$DRAGMODE
 70
     2
  9
$OSMODE
 70
     0
  9
$HANDLING
 70
     0
  9
$HANDSEED
  5
EB73
  0
ENDSEC
  0
SECTION
  2
TABLES
  0
TABLE
  2
LTYPE
 70
     2
  0
LTYPE
  2
CONTINUOUS
 70
     0
  3
実線
 72
    65
 73
     0
 40
0.0
  0
LTYPE
  2
DASHDOT
 70
     0
  3
____ _ ____ _ ____ _ ____ _ ____ _ ____ _ ____
 72
    65
 73
     4
 40
5.5
 49
4.0
 49
-0.6
 49
0.3
 49
-0.6
  0
ENDTAB
  0
TABLE
  2
LAYER
 70
    12
  0
LAYER
  2
0
 70
     0
 62
     7
  6
CONTINUOUS
  0
LAYER
  2
BASIS
 70
     0
 62
     6
  6
DASHDOT
  0
LAYER
  2
OUTLINE
 70
     0
 62
     3
  6
CONTINUOUS
  0
LAYER
  2
DETAIL
 70
     0
 62
     5
  6
CONTINUOUS
  0
LAYER
  2
SIZE
 70
     0
 62
    30
  6
CONTINUOUS
  0
LAYER
  2
ARRANGE
 70
     0
 62
     1
  6
CONTINUOUS
  0
LAYER
  2
DEFPOINTS
 70
     0
 62
     7
  6
CONTINUOUS
  0
LAYER
  2
ETC
 70
     0
 62
    61
  6
CONTINUOUS
  0
LAYER
  2
FIX
 70
     0
 62
    11
  6
CONTINUOUS
  0
LAYER
  2
NOTE
 70
     0
 62
     4
  6
CONTINUOUS
  0
LAYER
  2
SERVICESPACE
 70
    64
 62
     2
  6
DASHDOT
  0
LAYER
  2
SYMBOLLINE
 70
    64
 62
    15
  6
CONTINUOUS
  0
ENDTAB
  0
TABLE
  2
STYLE
 70
     1
  0
STYLE
  2
STANDARD
 70
     0
 40
64.0
 41
0.9
 50
0.0
 71
     0
 42
64.0
  3
SIMPLEX.shx
  4
BIGFONT.shx
  0
ENDTAB
  0
TABLE
  2
APPID
 70
    16
  0
APPID
  2
ACAD
 70
     0
  0
APPID
  2
AUTOCAD_POSTSCRIPT_FIGURE
 70
     0
  0
APPID
  2
ACAD_EXEMPT_FROM_CAD_STANDARDS
 70
     0
  0
APPID
  2
ACAD_PSEXT
 70
     0
  0
APPID
  2
ACAUTHENVIRON
 70
     0
  0
APPID
  2
GENIUS_GENOENT_13
 70
     0
  0
APPID
  2
GENIUS_GENCFG_13
 70
     0
  0
APPID
  2
GENIUS_GENCFG0_13
 70
     0
  0
APPID
  2
GENIUS_GENCFG1_13
 70
     0
  0
APPID
  2
GENIUS_GENCFG2_13
 70
     0
  0
APPID
  2
GENIUS_GENCFG3_13
 70
     0
  0
APPID
  2
GENIUS_GENCFG4_13
 70
     0
  0
APPID
  2
GENIUS_GEVCFG0_13
 70
     0
  0
APPID
  2
CONTENTBLOCKICON
 70
     0
  0
APPID
  2
CONTENTBLOCKDESCRIPTION
 70
     0
  0
APPID
  2
ACAD_NAV_VCDISPLAY
 70
     0
  0
ENDTAB
  0
TABLE
  2
DIMSTYLE
 70
     1
  0
DIMSTYLE
  2
STANDARD
 70
     0
  3

  4

  5
_ORIGIN
  6

  7

 40
1.0
 41
12.0
 42
20.0
 43
200.0
 44
20.0
 45
0.0
 46
0.0
 47
0.0
 48
0.0
140
64.0
141
0.09
142
0.0
143
25.399999999999999
144
1.0
145
0.0
146
1.0
147
25.0
 71
     0
 72
     0
 73
     0
 74
     0
 75
     0
 76
     0
 77
     1
 78
     8
170
     0
171
     2
172
     1
173
     0
174
     1
175
     0
176
     7
177
     7
178
     7
  0
ENDTAB
  0
TABLE
  2
VIEW
 70
     1
  0
VIEW
  2
ALL
 70
     0
 40
4282.6198079999986
 10
0.0
 20
41.309904000000003
 41
5940.0
 11
0.0
 21
0.0
 31
1.0
 12
0.0
 22
0.0
 32
0.0
 42
50.0
 43
0.0
 44
0.0
 50
0.0
 71
     0
  0
ENDTAB
  0
TABLE
  2
UCS
 70
     0
  0
ENDTAB
  0
TABLE
  2
VPORT
 70
     1
  0
VPORT
  2
*ACTIVE
 70
     0
 10
0.0
 20
0.0
 11
1.0
 21
1.0
 12
448.20100312144422
 22
-114.3951319558491
 13
0.0
 23
0.0
 14
1.0
 24
1.0
 15
0.0
 25
0.0
 16
0.0
 26
0.0
 36
1.0
 17
0.0
 27
0.0
 37
0.0
 40
2179.0652012220999
 41
1.7980884109916371
 42
50.0
 43
0.0
 44
0.0
 50
0.0
 51
0.0
 71
     0
 72
  1000
 73
     1
 74
     3
 75
     0
 76
     0
 77
     0
 78
     0
  0
ENDTAB
  0
ENDSEC
  0
SECTION
  2
BLOCKS
  0
BLOCK
  8
0
  2
_ORIGIN
 70
     0
 10
0.0
 20
0.0
 30
0.0
  3
_ORIGIN
  1
_ORIGIN
  0
CIRCLE
  8
0
  6
CONTINUOUS
 62
     7
 10
0.0
 20
0.0
 30
0.0
 40
0.5
  0
LINE
  8
0
  6
CONTINUOUS
 62
     7
 10
0.0
 20
0.0
 30
0.0
 11
-1.0
 21
0.0
 31
0.0
  0
ENDBLK
  8
0
  0
ENDSEC
  0
SECTION
  2
ENTITIES
  0
TEXT
  8
ETC
  6
CONTINUOUS
 62
    61
 10
1162.6706433547549
 20
898.48726568403072
 30
0.0
 40
64.0
  1
JFU-160SA2_1
 41
0.9
  0
TEXT
  8
ETC
  6
CONTINUOUS
 62
    61
 10
1156.6706493547549
 20
798.75198568403084
 30
0.0
 40
64.0
  1
産業扇
 41
0.9
  0
TEXT
  8
ETC
  6
CONTINUOUS
 62
    61
 10
1200.684394218546
 20
710.65152361554146
 30
0.0
 40
50.0
  1
JFU-160SA2
 50
0.0
 41
0.9
 51
0.0
  7
STANDARD
 71
     0
 11
0.0
 21
0.0
 31
0.0
210
0.0
220
0.0
230
1.0
  0
TEXT
  8
ETC
  6
CONTINUOUS
 62
    61
 10
1200.684394218546
 20
628.15152361554146
 30
0.0
 40
50.0
  1
JFU-160TA2
 50
0.0
 41
0.9
 51
0.0
  7
STANDARD
 71
     0
 11
0.0
 21
0.0
 31
0.0
210
0.0
220
0.0
230
1.0
  0
TEXT
  8
ETC
  6
CONTINUOUS
 62
    61
 10
1200.684394218546
 20
545.65152361554146
 30
0.0
 40
50.0
  1
JFU-210SA2
 50
0.0
 41
0.9
 51
0.0
  7
STANDARD
 71
     0
 11
0.0
 21
0.0
 31
0.0
210
0.0
220
0.0
230
1.0
  0
TEXT
  8
ETC
  6
CONTINUOUS
 62
    61
 10
1200.684394218546
 20
463.15152361554146
 30
0.0
 40
50.0
  1
JFU-210TA2
 50
0.0
 41
0.9
 51
0.0
  7
STANDARD
 71
     0
 11
0.0
 21
0.0
 31
0.0
210
0.0
220
0.0
230
1.0
  0
LINE
  8
BASIS
  6
DASHDOT
 62
     6
 10
305.12341099999998
 20
0.0
 30
0.0
 11
-305.69596899999988
 21
0.0
 31
0.0
  0
LINE
  8
BASIS
  6
DASHDOT
 62
     6
 10
0.0
 20
540.72448399999996
 30
0.0
 11
0.0
 21
-537.72448399999996
 31
0.0
  0
LINE
  8
DETAIL
  6
CONTINUOUS
 62
     5
 10
247.0
 20
458.5
 30
0.0
 11
-247.0
 21
458.5
 31
0.0
  0
LINE
  8
DETAIL
  6
CONTINUOUS
 62
     5
 10
161.5
 20
488.5
 30
0.0
 11
-161.5
 21
488.5
 31
0.0
  0
LINE
  8
DETAIL
  6
CONTINUOUS
 62
     5
 10
161.5
 20
488.5
 30
0.0
 11
161.5
 21
458.5
 31
0.0
  0
LINE
  8
DETAIL
  6
CONTINUOUS
 62
     5
 10
-238.5
 20
458.5
 30
0.0
 11
-238.5
 21
-268.5
 31
0.0
  0
LINE
  8
DETAIL
  6
CONTINUOUS
 62
     5
 10
238.5
 20
458.5
 30
0.0
 11
238.5
 21
-268.5
 31
0.0
  0
LINE
  8
DETAIL
  6
CONTINUOUS
 62
     5
 10
247.0
 20
433.5
 30
0.0
 11
-247.0
 21
433.5
 31
0.0
  0
LINE
  8
DETAIL
  6
CONTINUOUS
 62
     5
 10
257.5
 20
-268.5
 30
0.0
 11
-257.5
 21
-268.5
 31
0.0
  0
LINE
  8
DETAIL
  6
CONTINUOUS
 62
     5
 10
257.5
 20
-273.5
 30
0.0
 11
-257.5
 21
-273.5
 31
0.0
  0
LINE
  8
DETAIL
  6
CONTINUOUS
 62
     5
 10
-257.5
 20
-273.5
 30
0.0
 11
-257.5
 21
-268.5
 31
0.0
  0
LINE
  8
DETAIL
  6
CONTINUOUS
 62
     5
 10
257.5
 20
-273.5
 30
0.0
 11
257.5
 21
-268.5
 31
0.0
  0
LINE
  8
DETAIL
  6
CONTINUOUS
 62
     5
 10
235.99474699999999
 20
-308.5
 30
0.0
 11
-235.99474699999999
 21
-308.5
 31
0.0
  0
LINE
  8
SIZE
  6
CONTINUOUS
 62
    30
 10
-415.38780059238161
 20
-488.49999999999977
 30
0.0
 11
-415.38780059238161
 21
-615.51050999999984
 31
0.0
  0
LINE
  8
DETAIL
  6
CONTINUOUS
 62
     5
 10
-296.5
 20
458.5
 30
0.0
 11
-247.0
 21
458.5
 31
0.0
  0
LINE
  8
DETAIL
  6
CONTINUOUS
 62
     5
 10
-296.5
 20
458.5
 30
0.0
 11
-296.5
 21
403.5
 31
0.0
  0
LINE
  8
DETAIL
  6
CONTINUOUS
 62
     5
 10
-296.5
 20
403.5
 30
0.0
 11
-276.5
 21
403.5
 31
0.0
  0
LINE
  8
DETAIL
  6
CONTINUOUS
 62
     5
 10
-263.5
 20
403.5
 30
0.0
 11
-247.0
 21
403.5
 31
0.0
  0
TEXT
  8
NOTE
  6
CONTINUOUS
 62
     4
 10
381.59133029796209
 20
589.38144737026437
 30
0.0
 40
64.0
  1
AH 4-φ13×37.5
 41
0.9
  0
LINE
  8
NOTE
  6
CONTINUOUS
 62
     4
 10
1083.6984652768381
 20
564.32444027395672
 30
0.0
 11
376.49477927683819
 21
564.32444027395672
 31
0.0
  0
LINE
  8
DETAIL
  6
CONTINUOUS
 62
     5
 10
238.5
 20
-243.5
 30
0.0
 11
-238.5
 21
-243.5
 31
0.0
  0
CIRCLE
  8
DETAIL
  6
CONTINUOUS
 62
     5
 10
158.5
 20
-393.5
 30
0.0
 40
6.0
  0
LINE
  8
NOTE
  6
CONTINUOUS
 62
     4
 10
158.5
 20
-393.5
 30
0.0
 11
371.30980599999998
 21
-525.91055000000006
 31
0.0
  0
TEXT
  8
NOTE
  6
CONTINUOUS
 62
     4
 10
390.15475857142837
 20
-510.94159084951389
 30
0.0
 40
64.0
  1
EL
 41
0.9
  0
LINE
  8
NOTE
  6
CONTINUOUS
 62
     4
 10
371.30980599999998
 20
-525.91055000000006
 30
0.0
 11
485.31625400000007
 21
-525.91055000000006
 31
0.0
  0
LINE
  8
SIZE
  6
CONTINUOUS
 62
    30
 10
-627.72136499999988
 20
420.5
 30
0.0
 11
-627.72136499999988
 21
275.97678700000012
 31
0.0
  0
LINE
  8
SIZE
  6
CONTINUOUS
 62
    30
 10
-503.09483799999998
 20
438.99999999999989
 30
0.0
 11
-503.09483799999998
 21
272.31387599999988
 31
0.0
  0
LINE
  8
SIZE
  6
CONTINUOUS
 62
    30
 10
251.0
 20
751.05085499999996
 30
0.0
 11
422.23395899999991
 21
751.05085499999996
 31
0.0
  0
TEXT
  8
NOTE
  6
CONTINUOUS
 62
     4
 10
-89.592593000000036
 20
562.68244766666646
 30
0.0
 40
64.0
  1
吸込口
 41
0.9
  0
TEXT
  8
NOTE
  6
CONTINUOUS
 62
     4
 10
-91.902308000000133
 20
-649.09391700000015
 30
0.0
 40
64.0
  1
吹出口
 41
0.9
  0
LINE
  8
NOTE
  6
CONTINUOUS
 62
     4
 10
270.0
 20
434.5
 30
0.0
 11
376.49477927683819
 21
564.32444027395672
 31
0.0
  0
LINE
  8
SIZE
  6
CONTINUOUS
 62
    30
 10
-410.42176399999988
 20
488.5
 30
0.0
 11
-410.42176399999988
 21
618.62336600000003
 31
0.0
  0
LINE
  8
DETAIL
  6
CONTINUOUS
 62
     5
 10
-10.0
 20
433.5
 30
0.0
 11
-10.0
 21
-243.5
 31
0.0
  0
LINE
  8
DETAIL
  6
CONTINUOUS
 62
     5
 10
10.0
 20
433.5
 30
0.0
 11
10.0
 21
-243.5
 31
0.0
  0
LINE
  8
DETAIL
  6
CONTINUOUS
 62
     5
 10
-161.5
 20
488.5
 30
0.0
 11
-161.5
 21
458.5
 31
0.0
  0
LINE
  8
DETAIL
  6
CONTINUOUS
 62
     5
 10
161.5
 20
-488.5
 30
0.0
 11
-161.5
 21
-488.5
 31
0.0
  0
LINE
  8
DETAIL
  6
CONTINUOUS
 62
     5
 10
161.5
 20
-440.5
 30
0.0
 11
161.5
 21
-488.5
 31
0.0
  0
LINE
  8
DETAIL
  6
CONTINUOUS
 62
     5
 10
-161.5
 20
-440.5
 30
0.0
 11
-161.5
 21
-488.5
 31
0.0
  0
LINE
  8
DETAIL
  6
CONTINUOUS
 62
     5
 10
161.5
 20
-440.5
 30
0.0
 11
-161.5
 21
-440.5
 31
0.0
  0
LINE
  8
DETAIL
  6
CONTINUOUS
 62
     5
 10
-276.5
 20
434.5
 30
0.0
 11
-276.5
 21
403.5
 31
0.0
  0
LINE
  8
DETAIL
  6
CONTINUOUS
 62
     5
 10
-263.5
 20
434.5
 30
0.0
 11
-263.5
 21
403.5
 31
0.0
  0
ARC
  8
DETAIL
  6
CONTINUOUS
 62
     5
 10
-270.0
 20
434.5
 30
0.0
 40
6.5
 50
0.0
 51
180.0
  0
CIRCLE
  8
FIX
  6
CONTINUOUS
 62
    11
 10
-270.0
 20
434.5
 30
0.0
 40
6.5
  0
CIRCLE
  8
FIX
  6
CONTINUOUS
 62
    11
 10
270.0
 20
434.5
 30
0.0
 40
6.5
  0
ARC
  8
DETAIL
  6
CONTINUOUS
 62
     5
 10
270.0
 20
434.5
 30
0.0
 40
6.5
 50
0.0
 51
180.0
  0
LINE
  8
DETAIL
  6
CONTINUOUS
 62
     5
 10
263.5
 20
434.5
 30
0.0
 11
263.5
 21
403.5
 31
0.0
  0
LINE
  8
DETAIL
  6
CONTINUOUS
 62
     5
 10
276.5
 20
434.5
 30
0.0
 11
276.5
 21
403.5
 31
0.0
  0
LINE
  8
DETAIL
  6
CONTINUOUS
 62
     5
 10
263.5
 20
403.5
 30
0.0
 11
247.0
 21
403.5
 31
0.0
  0
LINE
  8
DETAIL
  6
CONTINUOUS
 62
     5
 10
296.5
 20
403.5
 30
0.0
 11
276.5
 21
403.5
 31
0.0
  0
LINE
  8
DETAIL
  6
CONTINUOUS
 62
     5
 10
296.5
 20
458.5
 30
0.0
 11
296.5
 21
403.5
 31
0.0
  0
LINE
  8
DETAIL
  6
CONTINUOUS
 62
     5
 10
296.5
 20
458.5
 30
0.0
 11
247.0
 21
458.5
 31
0.0
  0
ARC
  8
DETAIL
  6
CONTINUOUS
 62
     5
 10
270.0
 20
-375.5
 30
0.0
 40
6.5
 50
180.0
 51
0.0
  0
LINE
  8
DETAIL
  6
CONTINUOUS
 62
     5
 10
263.5
 20
-344.5
 30
0.0
 11
217.966667
 21
-344.5
 31
0.0
  0
CIRCLE
  8
FIX
  6
CONTINUOUS
 62
    11
 10
270.0
 20
-375.5
 30
0.0
 40
6.5
  0
LINE
  8
DETAIL
  6
CONTINUOUS
 62
     5
 10
263.5
 20
-344.5
 30
0.0
 11
263.5
 21
-375.5
 31
0.0
  0
LINE
  8
DETAIL
  6
CONTINUOUS
 62
     5
 10
276.5
 20
-344.5
 30
0.0
 11
276.5
 21
-375.49999899999989
 31
0.0
  0
LINE
  8
DETAIL
  6
CONTINUOUS
 62
     5
 10
296.5
 20
-344.5
 30
0.0
 11
296.5
 21
-407.5
 31
0.0
  0
LINE
  8
DETAIL
  6
CONTINUOUS
 62
     5
 10
296.5
 20
-344.5
 30
0.0
 11
276.5
 21
-344.5
 31
0.0
  0
LINE
  8
DETAIL
  6
CONTINUOUS
 62
     5
 10
296.5
 20
-407.5
 30
0.0
 11
182.03333300000011
 21
-407.5
 31
0.0
  0
LINE
  8
DETAIL
  6
CONTINUOUS
 62
     5
 10
-296.5
 20
-407.5
 30
0.0
 11
-182.03333300000011
 21
-407.5
 31
0.0
  0
LINE
  8
DETAIL
  6
CONTINUOUS
 62
     5
 10
-296.5
 20
-344.5
 30
0.0
 11
-276.5
 21
-344.5
 31
0.0
  0
LINE
  8
DETAIL
  6
CONTINUOUS
 62
     5
 10
-296.5
 20
-344.5
 30
0.0
 11
-296.5
 21
-407.5
 31
0.0
  0
LINE
  8
DETAIL
  6
CONTINUOUS
 62
     5
 10
-276.5
 20
-344.5
 30
0.0
 11
-276.5
 21
-375.49999899999989
 31
0.0
  0
LINE
  8
DETAIL
  6
CONTINUOUS
 62
     5
 10
-263.5
 20
-344.5
 30
0.0
 11
-263.5
 21
-375.5
 31
0.0
  0
CIRCLE
  8
FIX
  6
CONTINUOUS
 62
    11
 10
-270.0
 20
-375.5
 30
0.0
 40
6.5
  0
LINE
  8
DETAIL
  6
CONTINUOUS
 62
     5
 10
-263.5
 20
-344.5
 30
0.0
 11
-217.96666699999989
 21
-344.5
 31
0.0
  0
ARC
  8
DETAIL
  6
CONTINUOUS
 62
     5
 10
-270.0
 20
-375.5
 30
0.0
 40
6.5
 50
180.0
 51
0.0
  0
LINE
  8
DETAIL
  6
CONTINUOUS
 62
     5
 10
247.0
 20
403.5
 30
0.0
 11
247.0
 21
458.5
 31
0.0
  0
LINE
  8
DETAIL
  6
CONTINUOUS
 62
     5
 10
-247.0
 20
403.5
 30
0.0
 11
-247.0
 21
458.5
 31
0.0
  0
LINE
  8
DETAIL
  6
CONTINUOUS
 62
     5
 10
238.5
 20
-273.5
 30
0.0
 11
238.5
 21
-289.94038899999993
 31
0.0
  0
LINE
  8
DETAIL
  6
CONTINUOUS
 62
     5
 10
229.30471800000001
 20
-324.62159900000012
 30
0.0
 11
161.5
 21
-440.5
 31
0.0
  0
ARC
  8
DETAIL
  6
CONTINUOUS
 62
     5
 10
168.5
 20
-289.94038899999993
 30
0.0
 40
70.0
 50
330.30084599999151
 51
0.0
  0
LINE
  8
DETAIL
  6
CONTINUOUS
 62
     5
 10
-229.30471800000009
 20
-324.62159900000012
 30
0.0
 11
-161.5
 21
-440.5
 31
0.0
  0
ARC
  8
DETAIL
  6
CONTINUOUS
 62
     5
 10
-168.5
 20
-289.94038899999993
 30
0.0
 40
70.0
 50
180.0
 51
209.69915400000841
  0
LINE
  8
DETAIL
  6
CONTINUOUS
 62
     5
 10
-238.5
 20
-273.5
 30
0.0
 11
-238.5
 21
-289.94038899999993
 31
0.0
  0
POINT
  8
ARRANGE
  6
CONTINUOUS
 62
     1
 10
0.0
 20
0.0
 30
0.0
 50
180.0
  0
CIRCLE
  8
ARRANGE
  6
CONTINUOUS
 62
     1
 10
0.0
 20
0.0
 30
0.0
 40
40.0
  0
LINE
  8
SIZE
  6
CONTINUOUS
 62
    30
 10
263.5
 20
454.5
 30
0.0
 11
263.5
 21
781.05085499999984
 31
0.0
  0
LINE
  8
SIZE
  6
CONTINUOUS
 62
    30
 10
276.5
 20
454.5
 30
0.0
 11
276.5
 21
781.05085499999984
 31
0.0
  0
LINE
  8
SIZE
  6
CONTINUOUS
 62
    30
 10
278.5
 20
751.05085499999996
 30
0.0
 11
280.5
 21
751.05085499999996
 31
0.0
  0
LINE
  8
SIZE
  6
CONTINUOUS
 62
    30
 10
261.5
 20
751.05085499999996
 30
0.0
 11
259.5
 21
751.05085499999996
 31
0.0
  0
LINE
  8
SIZE
  6
CONTINUOUS
 62
    30
 10
276.5
 20
751.05085499999996
 30
0.0
 11
263.5
 21
751.05085499999996
 31
0.0
  0
TEXT
  8
SIZE
  6
CONTINUOUS
 62
    30
 10
321.04253702112368
 20
759.18551976297431
 30
0.0
 40
64.0
  1
13
 41
0.9
  0
LINE
  8
SIZE
  6
CONTINUOUS
 62
    30
 10
-296.5
 20
-427.5
 30
0.0
 11
-296.5
 21
-1196.0425502462219
 31
0.0
  0
LINE
  8
SIZE
  6
CONTINUOUS
 62
    30
 10
296.5
 20
-427.5
 30
0.0
 11
296.5
 21
-1196.0425502462219
 31
0.0
  0
LINE
  8
SIZE
  6
CONTINUOUS
 62
    30
 10
-294.5
 20
-1166.0425502462219
 30
0.0
 11
294.5
 21
-1166.0425502462219
 31
0.0
  0
TEXT
  8
SIZE
  6
CONTINUOUS
 62
    30
 10
-74.057142714285717
 20
-1158.52
 30
0.0
 40
64.0
  1
593
 41
0.9
  0
LINE
  8
SIZE
  6
CONTINUOUS
 62
    30
 10
-270.0
 20
-415.5
 30
0.0
 11
-270.0
 21
-1075.1605502462221
 31
0.0
  0
LINE
  8
SIZE
  6
CONTINUOUS
 62
    30
 10
270.0
 20
-415.5
 30
0.0
 11
270.0
 21
-1075.1605502462221
 31
0.0
  0
LINE
  8
SIZE
  6
CONTINUOUS
 62
    30
 10
-268.0
 20
-1045.1608042462219
 30
0.0
 11
268.0
 21
-1045.1608042462219
 31
0.0
  0
TEXT
  8
SIZE
  6
CONTINUOUS
 62
    30
 10
-74.057142714285717
 20
-1037.6379999999999
 30
0.0
 40
64.0
  1
540
 41
0.9
  0
LINE
  8
SIZE
  6
CONTINUOUS
 62
    30
 10
-257.5
 20
-293.5
 30
0.0
 11
-257.5
 21
-952.70916124622158
 31
0.0
  0
LINE
  8
SIZE
  6
CONTINUOUS
 62
    30
 10
257.5
 20
-293.5
 30
0.0
 11
257.5
 21
-952.70916124622158
 31
0.0
  0
LINE
  8
SIZE
  6
CONTINUOUS
 62
    30
 10
-255.5
 20
-922.70916124622158
 30
0.0
 11
255.5
 21
-922.70916124622158
 31
0.0
  0
TEXT
  8
SIZE
  6
CONTINUOUS
 62
    30
 10
-100.1142852857143
 20
-893.85327766666649
 30
0.0
 40
64.0
  1
φ515
 41
0.9
  0
LINE
  8
SIZE
  6
CONTINUOUS
 62
    30
 10
-161.5
 20
-508.5
 30
0.0
 11
-161.5
 21
-825.54784024622177
 31
0.0
  0
LINE
  8
SIZE
  6
CONTINUOUS
 62
    30
 10
161.5
 20
-508.5
 30
0.0
 11
161.5
 21
-825.54784024622177
 31
0.0
  0
LINE
  8
SIZE
  6
CONTINUOUS
 62
    30
 10
-159.5
 20
-795.54784024622177
 30
0.0
 11
159.5
 21
-795.54784024622177
 31
0.0
  0
TEXT
  8
SIZE
  6
CONTINUOUS
 62
    30
 10
-105.5999998571429
 20
-766.69195666666667
 30
0.0
 40
64.0
  1
φ323
 41
0.9
  0
LINE
  8
SIZE
  6
CONTINUOUS
 62
    30
 10
-161.5
 20
508.5
 30
0.0
 11
-161.5
 21
781.49079299999983
 31
0.0
  0
LINE
  8
SIZE
  6
CONTINUOUS
 62
    30
 10
161.5
 20
508.5
 30
0.0
 11
161.5
 21
781.49079299999983
 31
0.0
  0
LINE
  8
SIZE
  6
CONTINUOUS
 62
    30
 10
-159.5
 20
751.49079300000005
 30
0.0
 11
159.5
 21
751.49079300000005
 31
0.0
  0
TEXT
  8
SIZE
  6
CONTINUOUS
 62
    30
 10
-110.5614205503048
 20
780.95879109630778
 30
0.0
 40
64.0
  1
φ323
 41
0.9
  0
LINE
  8
SIZE
  6
CONTINUOUS
 62
    30
 10
-238.5
 20
478.5
 30
0.0
 11
-238.5
 21
903.6200060000001
 31
0.0
  0
LINE
  8
SIZE
  6
CONTINUOUS
 62
    30
 10
238.5
 20
478.5
 30
0.0
 11
238.5
 21
903.6200060000001
 31
0.0
  0
LINE
  8
SIZE
  6
CONTINUOUS
 62
    30
 10
-236.5
 20
873.62000599999999
 30
0.0
 11
236.5
 21
873.62000599999999
 31
0.0
  0
TEXT
  8
SIZE
  6
CONTINUOUS
 62
    30
 10
-110.5614205503048
 20
903.08800409630771
 30
0.0
 40
64.0
  1
φ477
 41
0.9
  0
LINE
  8
SIZE
  6
CONTINUOUS
 62
    30
 10
-267.0
 20
458.5
 30
0.0
 11
-440.42176399999988
 21
458.5
 31
0.0
  0
LINE
  8
SIZE
  6
CONTINUOUS
 62
    30
 10
-181.5
 20
488.5
 30
0.0
 11
-440.42176399999988
 21
488.5
 31
0.0
  0
LINE
  8
SIZE
  6
CONTINUOUS
 62
    30
 10
-410.42176399999988
 20
490.5
 30
0.0
 11
-410.42176399999988
 21
492.5
 31
0.0
  0
LINE
  8
SIZE
  6
CONTINUOUS
 62
    30
 10
-410.42176399999988
 20
456.5
 30
0.0
 11
-410.42176399999988
 21
454.5
 31
0.0
  0
LINE
  8
SIZE
  6
CONTINUOUS
 62
    30
 10
-410.42176399999988
 20
488.5
 30
0.0
 11
-410.42176399999988
 21
458.5
 31
0.0
  0
TEXT
  8
SIZE
  6
CONTINUOUS
 62
    30
 10
-426.05374264172792
 20
518.93379344660423
 30
0.0
 40
64.0
  1
30
 50
90.0
 41
0.9
  0
LINE
  8
SIZE
  6
CONTINUOUS
 62
    30
 10
-181.5
 20
-488.5
 30
0.0
 11
-445.38780059238161
 21
-488.49999999999977
 31
0.0
  0
LINE
  8
SIZE
  6
CONTINUOUS
 62
    30
 10
-181.5
 20
-440.5
 30
0.0
 11
-445.38780059238161
 21
-440.49999999999977
 31
0.0
  0
LINE
  8
SIZE
  6
CONTINUOUS
 62
    30
 10
-415.38780059238161
 20
-438.49999999999977
 30
0.0
 11
-415.38780059238161
 21
-436.49999999999977
 31
0.0
  0
LINE
  8
SIZE
  6
CONTINUOUS
 62
    30
 10
-415.38780059238161
 20
-490.49999999999977
 30
0.0
 11
-415.38780059238161
 21
-492.49999999999977
 31
0.0
  0
LINE
  8
SIZE
  6
CONTINUOUS
 62
    30
 10
-415.38780059238161
 20
-440.49999999999977
 30
0.0
 11
-415.38780059238161
 21
-488.49999999999977
 31
0.0
  0
TEXT
  8
SIZE
  6
CONTINUOUS
 62
    30
 10
-431.01977923410959
 20
-599.67483055339551
 30
0.0
 40
64.0
  1
48
 50
90.0
 41
0.9
  0
LINE
  8
SIZE
  6
CONTINUOUS
 62
    30
 10
316.5
 20
458.5
 30
0.0
 11
824.56031731677103
 21
458.5
 31
0.0
  0
LINE
  8
SIZE
  6
CONTINUOUS
 62
    30
 10
316.5
 20
-407.5
 30
0.0
 11
824.56031731677103
 21
-407.5
 31
0.0
  0
LINE
  8
SIZE
  6
CONTINUOUS
 62
    30
 10
794.56031731677103
 20
456.5
 30
0.0
 11
794.56031731677103
 21
-405.5
 31
0.0
  0
TEXT
  8
SIZE
  6
CONTINUOUS
 62
    30
 10
778.92833867504305
 20
-39.747525267681539
 30
0.0
 40
64.0
  1
866
 50
90.0
 41
0.9
  0
LINE
  8
SIZE
  6
CONTINUOUS
 62
    30
 10
310.0
 20
434.5
 30
0.0
 11
696.5855973167711
 21
434.5
 31
0.0
  0
LINE
  8
SIZE
  6
CONTINUOUS
 62
    30
 10
310.0
 20
-375.5
 30
0.0
 11
696.5855973167711
 21
-375.5
 31
0.0
  0
LINE
  8
SIZE
  6
CONTINUOUS
 62
    30
 10
666.58559731677099
 20
432.5
 30
0.0
 11
666.58559731677099
 21
-373.5
 31
0.0
  0
TEXT
  8
SIZE
  6
CONTINUOUS
 62
    30
 10
650.95361867504312
 20
-31.633238839110081
 30
0.0
 40
64.0
  1
810
 50
90.0
 41
0.9
  0
LINE
  8
SIZE
  6
CONTINUOUS
 62
    30
 10
316.5
 20
403.5
 30
0.0
 11
564.61166731677088
 21
403.5
 31
0.0
  0
LINE
  8
SIZE
  6
CONTINUOUS
 62
    30
 10
316.5
 20
-344.5
 30
0.0
 11
564.61166731677088
 21
-344.5
 31
0.0
  0
LINE
  8
SIZE
  6
CONTINUOUS
 62
    30
 10
534.6116673167711
 20
401.5
 30
0.0
 11
534.6116673167711
 21
-342.5
 31
0.0
  0
TEXT
  8
SIZE
  6
CONTINUOUS
 62
    30
 10
518.97968867504312
 20
-37.118953410538609
 30
0.0
 40
64.0
  1
748
 50
90.0
 41
0.9
  0
LINE
  8
SIZE
  6
CONTINUOUS
 62
    30
 10
-316.5
 20
458.5
 30
0.0
 11
-657.72136499999988
 21
458.5
 31
0.0
  0
LINE
  8
SIZE
  6
CONTINUOUS
 62
    30
 10
-316.5
 20
403.5
 30
0.0
 11
-657.72136499999988
 21
403.5
 31
0.0
  0
LINE
  8
SIZE
  6
CONTINUOUS
 62
    30
 10
-627.72136499999988
 20
401.5
 30
0.0
 11
-627.72136499999988
 21
399.5
 31
0.0
  0
LINE
  8
SIZE
  6
CONTINUOUS
 62
    30
 10
-627.72136499999988
 20
460.5
 30
0.0
 11
-627.72136499999988
 21
462.5
 31
0.0
  0
LINE
  8
SIZE
  6
CONTINUOUS
 62
    30
 10
-627.72136499999988
 20
403.5
 30
0.0
 11
-627.72136499999988
 21
458.5
 31
0.0
  0
TEXT
  8
SIZE
  6
CONTINUOUS
 62
    30
 10
-643.35334364172786
 20
296.17508844660432
 30
0.0
 40
64.0
  1
55
 50
90.0
 41
0.9
  0
LINE
  8
SIZE
  6
CONTINUOUS
 62
    30
 10
-316.5
 20
458.5
 30
0.0
 11
-533.09483799999998
 21
458.5
 31
0.0
  0
LINE
  8
SIZE
  6
CONTINUOUS
 62
    30
 10
-310.0
 20
434.5
 30
0.0
 11
-533.09483799999998
 21
434.5
 31
0.0
  0
LINE
  8
SIZE
  6
CONTINUOUS
 62
    30
 10
-503.09483799999998
 20
432.5
 30
0.0
 11
-503.09483799999998
 21
430.5
 31
0.0
  0
LINE
  8
SIZE
  6
CONTINUOUS
 62
    30
 10
-503.09483799999998
 20
460.5
 30
0.0
 11
-503.09483799999998
 21
462.5
 31
0.0
  0
LINE
  8
SIZE
  6
CONTINUOUS
 62
    30
 10
-503.09483799999998
 20
434.5
 30
0.0
 11
-503.09483799999998
 21
458.5
 31
0.0
  0
TEXT
  8
SIZE
  6
CONTINUOUS
 62
    30
 10
-518.72681664172796
 20
293.2250203037471
 30
0.0
 40
64.0
  1
24
 50
90.0
 41
0.9
  0
CIRCLE
  8
SIZE
  6
CONTINUOUS
 62
    30
 10
-503.09483799999998
 20
458.5
 30
0.0
 40
6.0
  0
CIRCLE
  8
SIZE
  6
CONTINUOUS
 62
    30
 10
-503.09483799999998
 20
434.5
 30
0.0
 40
6.0
  0
CIRCLE
  8
SIZE
  6
CONTINUOUS
 62
    30
 10
-627.72136499999988
 20
458.5
 30
0.0
 40
6.0
  0
CIRCLE
  8
SIZE
  6
CONTINUOUS
 62
    30
 10
-627.72136499999988
 20
403.5
 30
0.0
 40
6.0
  0
CIRCLE
  8
SIZE
  6
CONTINUOUS
 62
    30
 10
534.6116673167711
 20
-344.5
 30
0.0
 40
6.0
  0
CIRCLE
  8
SIZE
  6
CONTINUOUS
 62
    30
 10
534.6116673167711
 20
403.5
 30
0.0
 40
6.0
  0
CIRCLE
  8
SIZE
  6
CONTINUOUS
 62
    30
 10
666.58559731677099
 20
-375.5
 30
0.0
 40
6.0
  0
CIRCLE
  8
SIZE
  6
CONTINUOUS
 62
    30
 10
666.58559731677099
 20
434.5
 30
0.0
 40
6.0
  0
CIRCLE
  8
SIZE
  6
CONTINUOUS
 62
    30
 10
794.56031731677103
 20
-407.5
 30
0.0
 40
6.0
  0
CIRCLE
  8
SIZE
  6
CONTINUOUS
 62
    30
 10
794.56031731677103
 20
458.5
 30
0.0
 40
6.0
  0
CIRCLE
  8
SIZE
  6
CONTINUOUS
 62
    30
 10
-415.38780059238161
 20
-488.49999999999977
 30
0.0
 40
6.0
  0
CIRCLE
  8
SIZE
  6
CONTINUOUS
 62
    30
 10
-415.38780059238161
 20
-440.49999999999977
 30
0.0
 40
6.0
  0
CIRCLE
  8
SIZE
  6
CONTINUOUS
 62
    30
 10
-410.42176399999988
 20
458.5
 30
0.0
 40
6.0
  0
CIRCLE
  8
SIZE
  6
CONTINUOUS
 62
    30
 10
-410.42176399999988
 20
488.5
 30
0.0
 40
6.0
  0
CIRCLE
  8
SIZE
  6
CONTINUOUS
 62
    30
 10
238.5
 20
873.62000599999999
 30
0.0
 40
6.0
  0
CIRCLE
  8
SIZE
  6
CONTINUOUS
 62
    30
 10
-238.5
 20
873.62000599999999
 30
0.0
 40
6.0
  0
CIRCLE
  8
SIZE
  6
CONTINUOUS
 62
    30
 10
161.5
 20
751.49079300000005
 30
0.0
 40
6.0
  0
CIRCLE
  8
SIZE
  6
CONTINUOUS
 62
    30
 10
-161.5
 20
751.49079300000005
 30
0.0
 40
6.0
  0
CIRCLE
  8
SIZE
  6
CONTINUOUS
 62
    30
 10
161.5
 20
-795.54784024622177
 30
0.0
 40
6.0
  0
CIRCLE
  8
SIZE
  6
CONTINUOUS
 62
    30
 10
-161.5
 20
-795.54784024622177
 30
0.0
 40
6.0
  0
CIRCLE
  8
SIZE
  6
CONTINUOUS
 62
    30
 10
257.5
 20
-922.70916124622158
 30
0.0
 40
6.0
  0
CIRCLE
  8
SIZE
  6
CONTINUOUS
 62
    30
 10
-257.5
 20
-922.70916124622158
 30
0.0
 40
6.0
  0
CIRCLE
  8
SIZE
  6
CONTINUOUS
 62
    30
 10
270.0
 20
-1045.1608042462219
 30
0.0
 40
6.0
  0
CIRCLE
  8
SIZE
  6
CONTINUOUS
 62
    30
 10
-270.0
 20
-1045.1608042462219
 30
0.0
 40
6.0
  0
CIRCLE
  8
SIZE
  6
CONTINUOUS
 62
    30
 10
296.5
 20
-1166.0425502462219
 30
0.0
 40
6.0
  0
CIRCLE
  8
SIZE
  6
CONTINUOUS
 62
    30
 10
-296.5
 20
-1166.0425502462219
 30
0.0
 40
6.0
  0
CIRCLE
  8
SIZE
  6
CONTINUOUS
 62
    30
 10
263.5
 20
751.05085499999996
 30
0.0
 40
6.0
  0
CIRCLE
  8
SIZE
  6
CONTINUOUS
 62
    30
 10
276.5
 20
751.05085499999996
 30
0.0
 40
6.0
  0
LINE
  8
NOTE
  6
CONTINUOUS
 62
     4
 10
-270.0
 20
-355.5
 30
0.0
 11
-270.0
 21
-395.5
 31
0.0
  0
LINE
  8
NOTE
  6
CONTINUOUS
 62
     4
 10
-290.0
 20
-375.5
 30
0.0
 11
-250.0
 21
-375.5
 31
0.0
  0
LINE
  8
NOTE
  6
CONTINUOUS
 62
     4
 10
270.0
 20
-355.5
 30
0.0
 11
270.0
 21
-395.5
 31
0.0
  0
LINE
  8
NOTE
  6
CONTINUOUS
 62
     4
 10
290.0
 20
-375.5
 30
0.0
 11
250.0
 21
-375.5
 31
0.0
  0
LINE
  8
NOTE
  6
CONTINUOUS
 62
     4
 10
270.0
 20
414.5
 30
0.0
 11
270.0
 21
454.5
 31
0.0
  0
LINE
  8
NOTE
  6
CONTINUOUS
 62
     4
 10
290.0
 20
434.5
 30
0.0
 11
250.0
 21
434.5
 31
0.0
  0
LINE
  8
NOTE
  6
CONTINUOUS
 62
     4
 10
287.95181200000002
 20
470.245384
 30
0.0
 11
270.0
 21
434.5
 31
0.0
  0
LINE
  8
NOTE
  6
CONTINUOUS
 62
     4
 10
270.0
 20
434.5
 30
0.0
 11
303.41941700000012
 21
456.480504
 31
0.0
  0
LINE
  8
NOTE
  6
CONTINUOUS
 62
     4
 10
158.5
 20
-373.5
 30
0.0
 11
158.5
 21
-413.5
 31
0.0
  0
LINE
  8
NOTE
  6
CONTINUOUS
 62
     4
 10
178.5
 20
-393.5
 30
0.0
 11
138.5
 21
-393.5
 31
0.0
  0
LINE
  8
NOTE
  6
CONTINUOUS
 62
     4
 10
196.88835300000011
 20
-404.73985499999981
 30
0.0
 11
158.5
 21
-393.5
 31
0.0
  0
LINE
  8
NOTE
  6
CONTINUOUS
 62
     4
 10
158.5
 20
-393.5
 30
0.0
 11
186.125361
 21
-422.42817700000001
 31
0.0
  0
LINE
  8
NOTE
  6
CONTINUOUS
 62
     4
 10
-270.0
 20
414.5
 30
0.0
 11
-270.0
 21
454.5
 31
0.0
  0
LINE
  8
NOTE
  6
CONTINUOUS
 62
     4
 10
-290.0
 20
434.5
 30
0.0
 11
-250.0
 21
434.5
 31
0.0
  0
LINE
  8
SIZE
  6
CONTINUOUS
 62
    30
 10
-310.0
 20
-407.5
 30
0.0
 11
-446.5
 21
-407.5
 31
0.0
  0
LINE
  8
SIZE
  6
CONTINUOUS
 62
    30
 10
-310.0
 20
-344.5
 30
0.0
 11
-446.5
 21
-344.5
 31
0.0
  0
CIRCLE
  8
SIZE
  6
CONTINUOUS
 62
    30
 10
-415.89175999999998
 20
-407.5
 30
0.0
 40
6.0
  0
CIRCLE
  8
SIZE
  6
CONTINUOUS
 62
    30
 10
-415.38780059238161
 20
-344.5
 30
0.0
 40
6.0
  0
LINE
  8
SIZE
  6
CONTINUOUS
 62
    30
 10
-415.38780059238161
 20
-138.56860035581491
 30
0.0
 11
-415.38780059238161
 21
-407.5
 31
0.0
  0
TEXT
  8
SIZE
  6
CONTINUOUS
 62
    30
 10
-435.66456553690671
 20
-320.36494712181201
 30
0.0
 40
64.0
  1
62.8
 50
90.0
 41
0.9
  0
LINE
  8
OUTLINE
  6
CONTINUOUS
 62
     3
 10
247.0
 20
458.5
 30
0.0
 11
161.5
 21
458.5
 31
0.0
  0
LINE
  8
OUTLINE
  6
CONTINUOUS
 62
     3
 10
-161.5
 20
458.5
 30
0.0
 11
-247.0
 21
458.5
 31
0.0
  0
LINE
  8
OUTLINE
  6
CONTINUOUS
 62
     3
 10
161.5
 20
488.5
 30
0.0
 11
-161.5
 21
488.5
 31
0.0
  0
LINE
  8
OUTLINE
  6
CONTINUOUS
 62
     3
 10
161.5
 20
488.5
 30
0.0
 11
161.5
 21
458.5
 31
0.0
  0
LINE
  8
OUTLINE
  6
CONTINUOUS
 62
     3
 10
-238.5
 20
433.49999999999989
 30
0.0
 11
-238.5
 21
-268.5
 31
0.0
  0
LINE
  8
OUTLINE
  6
CONTINUOUS
 62
     3
 10
238.5
 20
433.49999999999989
 30
0.0
 11
238.5
 21
-268.5
 31
0.0
  0
LINE
  8
OUTLINE
  6
CONTINUOUS
 62
     3
 10
247.0
 20
433.5
 30
0.0
 11
238.5
 21
433.5
 31
0.0
  0
LINE
  8
OUTLINE
  6
CONTINUOUS
 62
     3
 10
-238.5
 20
433.49999999999989
 30
0.0
 11
-247.0
 21
433.5
 31
0.0
  0
LINE
  8
OUTLINE
  6
CONTINUOUS
 62
     3
 10
257.5
 20
-268.5
 30
0.0
 11
238.5
 21
-268.5
 31
0.0
  0
LINE
  8
OUTLINE
  6
CONTINUOUS
 62
     3
 10
-238.5
 20
-268.5
 30
0.0
 11
-257.5
 21
-268.5
 31
0.0
  0
LINE
  8
OUTLINE
  6
CONTINUOUS
 62
     3
 10
257.5
 20
-273.5
 30
0.0
 11
238.5
 21
-273.5
 31
0.0
  0
LINE
  8
OUTLINE
  6
CONTINUOUS
 62
     3
 10
-238.5
 20
-273.5
 30
0.0
 11
-257.5
 21
-273.5
 31
0.0
  0
LINE
  8
OUTLINE
  6
CONTINUOUS
 62
     3
 10
-257.5
 20
-273.5
 30
0.0
 11
-257.5
 21
-268.5
 31
0.0
  0
LINE
  8
OUTLINE
  6
CONTINUOUS
 62
     3
 10
257.5
 20
-273.5
 30
0.0
 11
257.5
 21
-268.5
 31
0.0
  0
LINE
  8
OUTLINE
  6
CONTINUOUS
 62
     3
 10
-296.5
 20
458.5
 30
0.0
 11
-247.0
 21
458.5
 31
0.0
  0
LINE
  8
OUTLINE
  6
CONTINUOUS
 62
     3
 10
-296.5
 20
458.5
 30
0.0
 11
-296.5
 21
403.5
 31
0.0
  0
LINE
  8
OUTLINE
  6
CONTINUOUS
 62
     3
 10
-296.5
 20
403.5
 30
0.0
 11
-276.5
 21
403.5
 31
0.0
  0
LINE
  8
OUTLINE
  6
CONTINUOUS
 62
     3
 10
-263.5
 20
403.5
 30
0.0
 11
-247.0
 21
403.5
 31
0.0
  0
LINE
  8
OUTLINE
  6
CONTINUOUS
 62
     3
 10
-161.5
 20
488.5
 30
0.0
 11
-161.5
 21
458.5
 31
0.0
  0
LINE
  8
OUTLINE
  6
CONTINUOUS
 62
     3
 10
161.5
 20
-488.5
 30
0.0
 11
-161.5
 21
-488.5
 31
0.0
  0
LINE
  8
OUTLINE
  6
CONTINUOUS
 62
     3
 10
161.5
 20
-440.5
 30
0.0
 11
161.5
 21
-488.5
 31
0.0
  0
LINE
  8
OUTLINE
  6
CONTINUOUS
 62
     3
 10
-161.5
 20
-440.5
 30
0.0
 11
-161.5
 21
-488.5
 31
0.0
  0
LINE
  8
OUTLINE
  6
CONTINUOUS
 62
     3
 10
-276.5
 20
434.5
 30
0.0
 11
-276.5
 21
403.5
 31
0.0
  0
LINE
  8
OUTLINE
  6
CONTINUOUS
 62
     3
 10
-263.5
 20
434.5
 30
0.0
 11
-263.5
 21
403.5
 31
0.0
  0
ARC
  8
OUTLINE
  6
CONTINUOUS
 62
     3
 10
-270.0
 20
434.5
 30
0.0
 40
6.5
 50
0.0
 51
180.0
  0
ARC
  8
OUTLINE
  6
CONTINUOUS
 62
     3
 10
270.0
 20
434.5
 30
0.0
 40
6.5
 50
0.0
 51
180.0
  0
LINE
  8
OUTLINE
  6
CONTINUOUS
 62
     3
 10
263.5
 20
434.5
 30
0.0
 11
263.5
 21
403.5
 31
0.0
  0
LINE
  8
OUTLINE
  6
CONTINUOUS
 62
     3
 10
276.5
 20
434.5
 30
0.0
 11
276.5
 21
403.5
 31
0.0
  0
LINE
  8
OUTLINE
  6
CONTINUOUS
 62
     3
 10
263.5
 20
403.5
 30
0.0
 11
247.0
 21
403.5
 31
0.0
  0
LINE
  8
OUTLINE
  6
CONTINUOUS
 62
     3
 10
296.5
 20
403.5
 30
0.0
 11
276.5
 21
403.5
 31
0.0
  0
LINE
  8
OUTLINE
  6
CONTINUOUS
 62
     3
 10
296.5
 20
458.5
 30
0.0
 11
296.5
 21
403.5
 31
0.0
  0
LINE
  8
OUTLINE
  6
CONTINUOUS
 62
     3
 10
296.5
 20
458.5
 30
0.0
 11
247.0
 21
458.5
 31
0.0
  0
ARC
  8
OUTLINE
  6
CONTINUOUS
 62
     3
 10
270.0
 20
-375.5
 30
0.0
 40
6.5
 50
180.0
 51
0.0
  0
LINE
  8
OUTLINE
  6
CONTINUOUS
 62
     3
 10
263.5
 20
-344.5
 30
0.0
 11
217.96666700000009
 21
-344.5
 31
0.0
  0
LINE
  8
OUTLINE
  6
CONTINUOUS
 62
     3
 10
263.5
 20
-344.5
 30
0.0
 11
263.5
 21
-375.5
 31
0.0
  0
LINE
  8
OUTLINE
  6
CONTINUOUS
 62
     3
 10
276.5
 20
-344.5
 30
0.0
 11
276.5
 21
-375.49999899999989
 31
0.0
  0
LINE
  8
OUTLINE
  6
CONTINUOUS
 62
     3
 10
296.5
 20
-344.5
 30
0.0
 11
296.5
 21
-407.5
 31
0.0
  0
LINE
  8
OUTLINE
  6
CONTINUOUS
 62
     3
 10
296.5
 20
-344.5
 30
0.0
 11
276.5
 21
-344.5
 31
0.0
  0
LINE
  8
OUTLINE
  6
CONTINUOUS
 62
     3
 10
296.5
 20
-407.5
 30
0.0
 11
182.033333452222
 21
-407.5
 31
0.0
  0
LINE
  8
OUTLINE
  6
CONTINUOUS
 62
     3
 10
-296.5
 20
-407.5
 30
0.0
 11
-182.03333300000011
 21
-407.5
 31
0.0
  0
LINE
  8
OUTLINE
  6
CONTINUOUS
 62
     3
 10
-296.5
 20
-344.5
 30
0.0
 11
-276.5
 21
-344.5
 31
0.0
  0
LINE
  8
OUTLINE
  6
CONTINUOUS
 62
     3
 10
-296.5
 20
-344.5
 30
0.0
 11
-296.5
 21
-407.5
 31
0.0
  0
LINE
  8
OUTLINE
  6
CONTINUOUS
 62
     3
 10
-276.5
 20
-344.5
 30
0.0
 11
-276.5
 21
-375.49999899999989
 31
0.0
  0
LINE
  8
OUTLINE
  6
CONTINUOUS
 62
     3
 10
-263.5
 20
-344.5
 30
0.0
 11
-263.5
 21
-375.5
 31
0.0
  0
LINE
  8
OUTLINE
  6
CONTINUOUS
 62
     3
 10
-263.5
 20
-344.5
 30
0.0
 11
-217.9666669936116
 21
-344.5
 31
0.0
  0
ARC
  8
OUTLINE
  6
CONTINUOUS
 62
     3
 10
-270.0
 20
-375.5
 30
0.0
 40
6.5
 50
180.0
 51
0.0
  0
LINE
  8
OUTLINE
  6
CONTINUOUS
 62
     3
 10
247.0
 20
403.5
 30
0.0
 11
247.0
 21
433.49999999999989
 31
0.0
  0
LINE
  8
OUTLINE
  6
CONTINUOUS
 62
     3
 10
-247.0
 20
403.5
 30
0.0
 11
-247.0
 21
433.49999999999989
 31
0.0
  0
LINE
  8
OUTLINE
  6
CONTINUOUS
 62
     3
 10
238.5
 20
-273.5
 30
0.0
 11
238.5
 21
-289.94038899999993
 31
0.0
  0
LINE
  8
OUTLINE
  6
CONTINUOUS
 62
     3
 10
229.30471799999989
 20
-324.62159900000012
 30
0.0
 11
217.9666669936114
 21
-344.5
 31
0.0
  0
LINE
  8
OUTLINE
  6
CONTINUOUS
 62
     3
 10
182.033333452222
 20
-407.5
 30
0.0
 11
161.5
 21
-440.5
 31
0.0
  0
ARC
  8
OUTLINE
  6
CONTINUOUS
 62
     3
 10
168.5
 20
-289.94038899999993
 30
0.0
 40
70.0
 50
330.30084599998872
 51
0.0
  0
LINE
  8
OUTLINE
  6
CONTINUOUS
 62
     3
 10
-229.30471800000009
 20
-324.62159900000012
 30
0.0
 11
-217.9666669936116
 21
-344.5
 31
0.0
  0
LINE
  8
OUTLINE
  6
CONTINUOUS
 62
     3
 10
-182.03333345222219
 20
-407.5
 30
0.0
 11
-161.5
 21
-440.5
 31
0.0
  0
ARC
  8
OUTLINE
  6
CONTINUOUS
 62
     3
 10
-168.5
 20
-289.94038899999993
 30
0.0
 40
70.0
 50
180.0
 51
209.6991540000113
  0
LINE
  8
OUTLINE
  6
CONTINUOUS
 62
     3
 10
-238.5
 20
-273.5
 30
0.0
 11
-238.5
 21
-289.94038899999993
 31
0.0
  0
LINE
  8
OUTLINE
  6
CONTINUOUS
 62
     3
 10
-238.5
 20
-273.5
 30
0.0
 11
-238.5
 21
-289.94038899999993
 31
0.0
  0
ARC
  8
OUTLINE
  6
CONTINUOUS
 62
     3
 10
-168.5
 20
-289.94038899999993
 30
0.0
 40
70.0
 50
180.0
 51
209.6991540000113
  0
LINE
  8
OUTLINE
  6
CONTINUOUS
 62
     3
 10
-229.30471800000009
 20
-324.62159900000012
 30
0.0
 11
-217.9666669936116
 21
-344.5
 31
0.0
  0
LINE
  8
OUTLINE
  6
CONTINUOUS
 62
     3
 10
-182.03333345222219
 20
-407.5
 30
0.0
 11
-161.5
 21
-440.5
 31
0.0
  0
ARC
  8
OUTLINE
  6
CONTINUOUS
 62
     3
 10
168.5
 20
-289.94038899999993
 30
0.0
 40
70.0
 50
330.30084599998872
 51
0.0
  0
LINE
  8
OUTLINE
  6
CONTINUOUS
 62
     3
 10
229.30471799999989
 20
-324.62159900000012
 30
0.0
 11
217.9666669936114
 21
-344.5
 31
0.0
  0
LINE
  8
OUTLINE
  6
CONTINUOUS
 62
     3
 10
182.033333452222
 20
-407.5
 30
0.0
 11
161.5
 21
-440.5
 31
0.0
  0
LINE
  8
OUTLINE
  6
CONTINUOUS
 62
     3
 10
238.5
 20
-273.5
 30
0.0
 11
238.5
 21
-289.94038899999993
 31
0.0
  0
LINE
  8
OUTLINE
  6
CONTINUOUS
 62
     3
 10
257.5
 20
-273.5
 30
0.0
 11
257.5
 21
-268.5
 31
0.0
  0
LINE
  8
OUTLINE
  6
CONTINUOUS
 62
     3
 10
-257.5
 20
-273.5
 30
0.0
 11
-257.5
 21
-268.5
 31
0.0
  0
LINE
  8
OUTLINE
  6
CONTINUOUS
 62
     3
 10
257.5
 20
-273.5
 30
0.0
 11
238.5
 21
-273.5
 31
0.0
  0
LINE
  8
OUTLINE
  6
CONTINUOUS
 62
     3
 10
-238.5
 20
-273.5
 30
0.0
 11
-257.5
 21
-273.5
 31
0.0
  0
LINE
  8
OUTLINE
  6
CONTINUOUS
 62
     3
 10
257.5
 20
-268.5
 30
0.0
 11
238.5
 21
-268.5
 31
0.0
  0
LINE
  8
OUTLINE
  6
CONTINUOUS
 62
     3
 10
-238.5
 20
-268.5
 30
0.0
 11
-257.5
 21
-268.5
 31
0.0
  0
LINE
  8
OUTLINE
  6
CONTINUOUS
 62
     3
 10
238.5
 20
433.49999999999989
 30
0.0
 11
238.5
 21
-268.5
 31
0.0
  0
LINE
  8
OUTLINE
  6
CONTINUOUS
 62
     3
 10
-238.5
 20
433.49999999999989
 30
0.0
 11
-238.5
 21
-268.5
 31
0.0
  0
LINE
  8
OUTLINE
  6
CONTINUOUS
 62
     3
 10
238.5
 20
458.5
 30
0.0
 11
161.5
 21
458.5
 31
0.0
  0
LINE
  8
OUTLINE
  6
CONTINUOUS
 62
     3
 10
-161.5
 20
458.5
 30
0.0
 11
-238.5
 21
458.5
 31
0.0
  0
LINE
  8
SIZE
  6
CONTINUOUS
 62
    30
 10
-181.5
 20
488.5
 30
0.0
 11
-770.45949869605806
 21
488.50000000000023
 31
0.0
  0
LINE
  8
SIZE
  6
CONTINUOUS
 62
    30
 10
-181.5
 20
-488.5
 30
0.0
 11
-770.45949869605829
 21
-488.49999999999977
 31
0.0
  0
LINE
  8
SIZE
  6
CONTINUOUS
 62
    30
 10
-750.45949869605806
 20
476.50000000000023
 30
0.0
 11
-750.45949869605829
 21
-476.49999999999977
 31
0.0
  0
CIRCLE
  8
SIZE
  6
CONTINUOUS
 62
    30
 10
-750.45949869605806
 20
488.50000000000023
 30
0.0
 40
6.0
  0
LINE
  8
SIZE
  6
CONTINUOUS
 62
    30
 10
-750.45949869605806
 20
488.50000000000023
 30
0.0
 11
-750.45949869605806
 21
476.50000000000023
 31
0.0
  0
CIRCLE
  8
SIZE
  6
CONTINUOUS
 62
    30
 10
-750.45949869605829
 20
-488.49999999999977
 30
0.0
 40
6.0
  0
LINE
  8
SIZE
  6
CONTINUOUS
 62
    30
 10
-750.45949869605829
 20
-488.49999999999977
 30
0.0
 11
-750.45949869605829
 21
-476.49999999999977
 31
0.0
  0
TEXT
  8
SIZE
  6
CONTINUOUS
 62
    30
 10
-775.45949869605818
 20
-80.351999999999919
 30
0.0
 40
64.0
  1
977
 50
90.0
 41
0.9
 51
0.0
  7
STANDARD
 71
     0
 72
     1
 11
-775.45949869605818
 21
0.0000000000000509
 31
0.0
210
0.0
220
0.0
230
1.0
  0
POINT
  8
DEFPOINTS
  6
CONTINUOUS
 62
    30
 10
-161.5
 20
488.5
 30
0.0
  0
POINT
  8
DEFPOINTS
  6
CONTINUOUS
 62
    30
 10
-161.5
 20
-488.5
 30
0.0
  0
POINT
  8
DEFPOINTS
  6
CONTINUOUS
 62
    30
 10
-750.45949869605829
 20
-488.49999999999977
 30
0.0
  0
ENDSEC
  0
EOF
