  0
SECTION
  2
HEADER
  9
$ACADVER
  1
AC1009
  9
$DWGCODEPAGE
  3
dos932
  9
$INSBASE
 10
0.0
 20
0.0
 30
0.0
  9
$EXTMIN
 10
-950.78428557699772
 20
-816.46727388313411
 30
-0.000000034918195
  9
$EXTMAX
 10
1189.6133540426531
 20
765.83863127259247
 30
0.000000081493575
  9
$LIMMIN
 10
-2970.0
 20
-2100.0
  9
$LIMMAX
 10
2970.0
 20
2100.0
  9
$ORTHOMODE
 70
     1
  9
$REGENMODE
 70
     1
  9
$FILLMODE
 70
     1
  9
$QTEXTMODE
 70
     0
  9
$MIRRTEXT
 70
     0
  9
$LTSCALE
 40
20.0
  9
$ATTMODE
 70
     1
  9
$TEXTSIZE
 40
64.0
  9
$TRACEWID
 40
0.05
  9
$TEXTSTYLE
  7
STANDARD
  9
$CLAYER
  8
NOTE
  9
$CELTYPE
  6
CONTINUOUS
  9
$CECOLOR
 62
     7
  9
$DIMSCALE
 40
1.0
  9
$DIMASZ
 40
12.0
  9
$DIMEXO
 40
20.0
  9
$DIMDLI
 40
200.0
  9
$DIMRND
 40
0.0
  9
$DIMDLE
 40
0.0
  9
$DIMEXE
 40
20.0
  9
$DIMTP
 40
0.0
  9
$DIMTM
 40
0.0
  9
$DIMTXT
 40
64.0
  9
$DIMCEN
 40
0.09
  9
$DIMTSZ
 40
0.0
  9
$DIMTOL
 70
     0
  9
$DIMLIM
 70
     0
  9
$DIMTIH
 70
     0
  9
$DIMTOH
 70
     0
  9
$DIMSE1
 70
     0
  9
$DIMSE2
 70
     0
  9
$DIMTAD
 70
     1
  9
$DIMZIN
 70
     8
  9
$DIMBLK
  1

  9
$DIMASO
 70
     1
  9
$DIMSHO
 70
     0
  9
$DIMPOST
  1

  9
$DIMAPOST
  1

  9
$DIMALT
 70
     0
  9
$DIMALTD
 70
     2
  9
$DIMALTF
 40
25.399999999999999
  9
$DIMLFAC
 40
1.0
  9
$DIMTOFL
 70
     1
  9
$DIMTVP
 40
0.0
  9
$DIMTIX
 70
     1
  9
$DIMSOXD
 70
     0
  9
$DIMSAH
 70
     0
  9
$DIMBLK1
  1

  9
$DIMBLK2
  1

  9
$DIMSTYLE
  2
STANDARD
  9
$DIMCLRD
 70
     7
  9
$DIMCLRE
 70
     7
  9
$DIMCLRT
 70
     7
  9
$DIMTFAC
 40
1.0
  9
$DIMGAP
 40
25.0
  9
$LUNITS
 70
     2
  9
$LUPREC
 70
     4
  9
$SKETCHINC
 40
0.1
  9
$FILLETRAD
 40
3.0
  9
$AUNITS
 70
     1
  9
$AUPREC
 70
     3
  9
$MENU
  1
ACAD
  9
$ELEVATION
 40
0.0
  9
$PELEVATION
 40
0.0
  9
$THICKNESS
 40
50.0
  9
$LIMCHECK
 70
     0
  9
$CHAMFERA
 40
0.0
  9
$CHAMFERB
 40
0.0
  9
$SKPOLY
 70
     0
  9
$TDCREATE
 40
2453019.62301037
  9
$TDUPDATE
 40
2458926.758786794
  9
$TDINDWG
 40
1.8129612384
  9
$TDUSRTIMER
 40
1.8129612384
  9
$USRTIMER
 70
     1
  9
$ANGBASE
 50
0.0
  9
$ANGDIR
 70
     0
  9
$PDMODE
 70
     3
  9
$PDSIZE
 40
-2.0
  9
$PLINEWID
 40
0.0
  9
$SPLFRAME
 70
     0
  9
$SPLINETYPE
 70
     6
  9
$SPLINESEGS
 70
     8
  9
$SURFTAB1
 70
     6
  9
$SURFTAB2
 70
     6
  9
$SURFTYPE
 70
     6
  9
$SURFU
 70
     6
  9
$SURFV
 70
     6
  9
$UCSNAME
  2

  9
$UCSORG
 10
0.0
 20
0.0
 30
0.0
  9
$UCSXDIR
 10
1.0
 20
0.0
 30
0.0
  9
$UCSYDIR
 10
0.0
 20
1.0
 30
0.0
  9
$PUCSNAME
  2

  9
$PUCSORG
 10
0.0
 20
0.0
 30
0.0
  9
$PUCSXDIR
 10
1.0
 20
0.0
 30
0.0
  9
$PUCSYDIR
 10
0.0
 20
1.0
 30
0.0
  9
$USERI1
 70
     0
  9
$USERI2
 70
     0
  9
$USERI3
 70
     0
  9
$USERI4
 70
     0
  9
$USERI5
 70
     0
  9
$USERR1
 40
20.0
  9
$USERR2
 40
0.0
  9
$USERR3
 40
0.0
  9
$USERR4
 40
0.0
  9
$USERR5
 40
0.0
  9
$WORLDVIEW
 70
     1
  9
$SHADEDGE
 70
     3
  9
$SHADEDIF
 70
    70
  9
$TILEMODE
 70
     1
  9
$MAXACTVP
 70
    48
  9
$PINSBASE
 10
0.0
 20
0.0
 30
0.0
  9
$PLIMCHECK
 70
     0
  9
$PEXTMIN
 10
-100000000000000000000.0
 20
-100000000000000000000.0
 30
-100000000000000000000.0
  9
$PEXTMAX
 10
100000000000000000000.0
 20
100000000000000000000.0
 30
100000000000000000000.0
  9
$PLIMMIN
 10
0.0
 20
0.0
  9
$PLIMMAX
 10
12.0
 20
9.0
  9
$UNITMODE
 70
     0
  9
$VISRETAIN
 70
     0
  9
$PLINEGEN
 70
     0
  9
$PSLTSCALE
 70
     0
  9
$TREEDEPTH
 70
  3020
  9
$ATTDIA
 70
     0
  9
$ATTREQ
 70
     1
  9
$BLIPMODE
 70
     1
  9
$COORDS
 70
     1
  9
$DRAGMODE
 70
     2
  9
$OSMODE
 70
     0
  9
$HANDLING
 70
     0
  9
$HANDSEED
  5
FAB8
  0
ENDSEC
  0
SECTION
  2
TABLES
  0
TABLE
  2
LTYPE
 70
     2
  0
LTYPE
  2
CONTINUOUS
 70
     0
  3
実線
 72
    65
 73
     0
 40
0.0
  0
LTYPE
  2
DASHDOT
 70
     0
  3
____ _ ____ _ ____ _ ____ _ ____ _ ____ _ ____
 72
    65
 73
     4
 40
5.5
 49
4.0
 49
-0.6
 49
0.3
 49
-0.6
  0
ENDTAB
  0
TABLE
  2
LAYER
 70
    12
  0
LAYER
  2
0
 70
     0
 62
     7
  6
CONTINUOUS
  0
LAYER
  2
BASIS
 70
     0
 62
     6
  6
DASHDOT
  0
LAYER
  2
OUTLINE
 70
     0
 62
     3
  6
CONTINUOUS
  0
LAYER
  2
DETAIL
 70
     0
 62
     5
  6
CONTINUOUS
  0
LAYER
  2
SIZE
 70
     0
 62
    30
  6
CONTINUOUS
  0
LAYER
  2
ARRANGE
 70
     0
 62
     1
  6
CONTINUOUS
  0
LAYER
  2
ETC
 70
     0
 62
    61
  6
CONTINUOUS
  0
LAYER
  2
FIX
 70
     0
 62
    11
  6
CONTINUOUS
  0
LAYER
  2
NOTE
 70
     0
 62
     4
  6
CONTINUOUS
  0
LAYER
  2
DEFPOINTS
 70
    64
 62
     7
  6
CONTINUOUS
  0
LAYER
  2
SERVICESPACE
 70
    64
 62
     2
  6
DASHDOT
  0
LAYER
  2
SYMBOLLINE
 70
    64
 62
    15
  6
CONTINUOUS
  0
ENDTAB
  0
TABLE
  2
STYLE
 70
     1
  0
STYLE
  2
STANDARD
 70
     0
 40
64.0
 41
0.9
 50
0.0
 71
     0
 42
64.0
  3
SIMPLEX.shx
  4
BIGFONT.shx
  0
ENDTAB
  0
TABLE
  2
APPID
 70
    16
  0
APPID
  2
ACAD
 70
     0
  0
APPID
  2
AUTOCAD_POSTSCRIPT_FIGURE
 70
     0
  0
APPID
  2
ACAD_EXEMPT_FROM_CAD_STANDARDS
 70
     0
  0
APPID
  2
ACAD_PSEXT
 70
     0
  0
APPID
  2
ACAUTHENVIRON
 70
     0
  0
APPID
  2
GENIUS_GENOENT_13
 70
     0
  0
APPID
  2
GENIUS_GENCFG_13
 70
     0
  0
APPID
  2
GENIUS_GENCFG0_13
 70
     0
  0
APPID
  2
GENIUS_GENCFG1_13
 70
     0
  0
APPID
  2
GENIUS_GENCFG2_13
 70
     0
  0
APPID
  2
GENIUS_GENCFG3_13
 70
     0
  0
APPID
  2
GENIUS_GENCFG4_13
 70
     0
  0
APPID
  2
GENIUS_GEVCFG0_13
 70
     0
  0
APPID
  2
CONTENTBLOCKICON
 70
     0
  0
APPID
  2
CONTENTBLOCKDESCRIPTION
 70
     0
  0
APPID
  2
ACAD_NAV_VCDISPLAY
 70
     0
  0
ENDTAB
  0
TABLE
  2
DIMSTYLE
 70
     1
  0
DIMSTYLE
  2
STANDARD
 70
     0
  3

  4

  5
_ORIGIN
  6

  7

 40
1.0
 41
12.0
 42
20.0
 43
200.0
 44
20.0
 45
0.0
 46
0.0
 47
0.0
 48
0.0
140
64.0
141
0.09
142
0.0
143
25.399999999999999
144
1.0
145
0.0
146
1.0
147
25.0
 71
     0
 72
     0
 73
     0
 74
     0
 75
     0
 76
     0
 77
     1
 78
     8
170
     0
171
     2
172
     1
173
     0
174
     1
175
     0
176
     7
177
     7
178
     7
  0
ENDTAB
  0
TABLE
  2
VIEW
 70
     1
  0
VIEW
  2
ALL
 70
     0
 40
4282.6198079999986
 10
0.0
 20
41.309904000000003
 41
5940.0
 11
0.0
 21
0.0
 31
1.0
 12
0.0
 22
0.0
 32
0.0
 42
50.0
 43
0.0
 44
0.0
 50
0.0
 71
     0
  0
ENDTAB
  0
TABLE
  2
UCS
 70
     0
  0
ENDTAB
  0
TABLE
  2
VPORT
 70
     1
  0
VPORT
  2
*ACTIVE
 70
     0
 10
0.0
 20
0.0
 11
1.0
 21
1.0
 12
119.41453423282741
 22
-25.31432130527082
 13
0.0
 23
0.0
 14
1.0
 24
1.0
 15
0.0
 25
0.0
 16
0.0
 26
0.0
 36
1.0
 17
0.0
 27
0.0
 37
0.0
 40
1593.635064381185
 41
1.798088410991637
 42
50.0
 43
0.0
 44
0.0
 50
0.0
 51
0.0
 71
     0
 72
  1000
 73
     1
 74
     3
 75
     0
 76
     0
 77
     0
 78
     0
  0
ENDTAB
  0
ENDSEC
  0
SECTION
  2
BLOCKS
  0
BLOCK
  8
0
  2
_ORIGIN
 70
     0
 10
0.0
 20
0.0
 30
0.0
  3
_ORIGIN
  1
_ORIGIN
  0
CIRCLE
  8
0
  6
CONTINUOUS
 62
     7
 10
0.0
 20
0.0
 30
0.0
 40
0.5
  0
LINE
  8
0
  6
CONTINUOUS
 62
     7
 10
0.0
 20
0.0
 30
0.0
 11
-1.0
 21
0.0
 31
0.0
  0
ENDBLK
  8
0
  0
ENDSEC
  0
SECTION
  2
ENTITIES
  0
TEXT
  8
ETC
  6
CONTINUOUS
 62
    61
 10
610.39472344810792
 20
701.55455731156826
 30
0.0
 40
64.0
  1
JFU-50SA2_4
 41
0.9
  0
TEXT
  8
ETC
  6
CONTINUOUS
 62
    61
 10
612.22858644810776
 20
592.65601631156824
 30
0.0
 40
64.0
  1
産業扇
 41
0.9
  0
TEXT
  8
ETC
  6
CONTINUOUS
 62
    61
 10
674.38396538493271
 20
470.70925121243454
 30
0.0
 40
50.0
  1
JFU-50SA2
 50
0.0
 41
0.9
 51
0.0
  7
STANDARD
 71
     0
 11
0.0
 21
0.0
 31
0.0
210
0.0
220
0.0
230
1.0
  0
TEXT
  8
ETC
  6
CONTINUOUS
 62
    61
 10
674.38396538493271
 20
388.20925121243454
 30
0.0
 40
50.0
  1
JFU-70SA2
 50
0.0
 41
0.9
 51
0.0
  7
STANDARD
 71
     0
 11
0.0
 21
0.0
 31
0.0
210
0.0
220
0.0
230
1.0
  0
TEXT
  8
ETC
  6
CONTINUOUS
 62
    61
 10
674.38396538493271
 20
305.70925121243454
 30
0.0
 40
50.0
  1
JFU-70TA2
 50
0.0
 41
0.9
 51
0.0
  7
STANDARD
 71
     0
 11
0.0
 21
0.0
 31
0.0
210
0.0
220
0.0
230
1.0
  0
LINE
  8
BASIS
  6
DASHDOT
 62
     6
 10
0.0
 20
-403.62341099999998
 30
0.0
 11
0.0
 21
41.788025999999952
 31
0.0
  0
LINE
  8
DETAIL
  6
CONTINUOUS
 62
     5
 10
400.0
 20
-345.5
 30
0.0
 11
400.0
 21
-14.5
 31
0.0
  0
LINE
  8
DETAIL
  6
CONTINUOUS
 62
     5
 10
430.0
 20
-305.0
 30
0.0
 11
430.0
 21
-55.0
 31
0.0
  0
LINE
  8
DETAIL
  6
CONTINUOUS
 62
     5
 10
430.0
 20
-55.0
 30
0.0
 11
400.0
 21
-55.0
 31
0.0
  0
LINE
  8
DETAIL
  6
CONTINUOUS
 62
     5
 10
430.0
 20
-305.0
 30
0.0
 11
400.0
 21
-305.0
 31
0.0
  0
LINE
  8
DETAIL
  6
CONTINUOUS
 62
     5
 10
-430.0
 20
-305.0
 30
0.0
 11
-430.0
 21
-55.0
 31
0.0
  0
LINE
  8
DETAIL
  6
CONTINUOUS
 62
     5
 10
-430.0
 20
-305.0
 30
0.0
 11
-379.0
 21
-305.0
 31
0.0
  0
LINE
  8
DETAIL
  6
CONTINUOUS
 62
     5
 10
400.0
 20
-14.5
 30
0.0
 11
-259.0
 21
-14.5
 31
0.0
  0
LINE
  8
DETAIL
  6
CONTINUOUS
 62
     5
 10
400.0
 20
-345.5
 30
0.0
 11
-259.0
 21
-345.5
 31
0.0
  0
LINE
  8
DETAIL
  6
CONTINUOUS
 62
     5
 10
375.0
 20
-345.5
 30
0.0
 11
375.0
 21
-14.5
 31
0.0
  0
LINE
  8
DETAIL
  6
CONTINUOUS
 62
     5
 10
-259.0
 20
-360.0
 30
0.0
 11
-259.0
 21
0.0
 31
0.0
  0
LINE
  8
DETAIL
  6
CONTINUOUS
 62
     5
 10
-264.0
 20
-360.0
 30
0.0
 11
-264.0
 21
0.0
 31
0.0
  0
LINE
  8
DETAIL
  6
CONTINUOUS
 62
     5
 10
-264.0
 20
0.0
 30
0.0
 11
-259.0
 21
0.0
 31
0.0
  0
LINE
  8
DETAIL
  6
CONTINUOUS
 62
     5
 10
-264.0
 20
-360.0
 30
0.0
 11
-259.0
 21
-360.0
 31
0.0
  0
LINE
  8
DETAIL
  6
CONTINUOUS
 62
     5
 10
-264.0
 20
-14.5
 30
0.0
 11
-299.0
 21
-14.5
 31
0.0
  0
LINE
  8
DETAIL
  6
CONTINUOUS
 62
     5
 10
-264.0
 20
-345.5
 30
0.0
 11
-299.0
 21
-345.5
 31
0.0
  0
LINE
  8
DETAIL
  6
CONTINUOUS
 62
     5
 10
-299.0
 20
-345.5
 30
0.0
 11
-299.0
 21
-14.5
 31
0.0
  0
LINE
  8
DETAIL
  6
CONTINUOUS
 62
     5
 10
-234.0
 20
-345.5
 30
0.0
 11
-234.0
 21
-14.5
 31
0.0
  0
CIRCLE
  8
DETAIL
  6
CONTINUOUS
 62
     5
 10
-359.0
 20
-110.0
 30
0.0
 40
6.0
  0
LINE
  8
DETAIL
  6
CONTINUOUS
 62
     5
 10
-379.0
 20
-305.0
 30
0.0
 11
-379.0
 21
-55.0
 31
0.0
  0
LINE
  8
DETAIL
  6
CONTINUOUS
 62
     5
 10
-379.0
 20
-305.0
 30
0.0
 11
-299.0
 21
-345.5
 31
0.0
  0
LINE
  8
DETAIL
  6
CONTINUOUS
 62
     5
 10
-379.0
 20
-55.0
 30
0.0
 11
-299.0
 21
-14.5
 31
0.0
  0
LINE
  8
DETAIL
  6
CONTINUOUS
 62
     5
 10
-430.0
 20
-55.0
 30
0.0
 11
-379.0
 21
-55.0
 31
0.0
  0
LINE
  8
NOTE
  6
CONTINUOUS
 62
     4
 10
-359.0
 20
-110.0
 30
0.0
 11
-562.78094999999996
 21
255.12572
 31
0.0
  0
LINE
  8
NOTE
  6
CONTINUOUS
 62
     4
 10
-686.07885899999985
 20
255.12572
 30
0.0
 11
-562.78094999999996
 21
255.12572
 31
0.0
  0
TEXT
  8
NOTE
  6
CONTINUOUS
 62
     4
 10
-668.80183299999999
 20
281.53705500000001
 30
0.0
 40
64.0
  1
EL
 41
0.9
  0
LINE
  8
DETAIL
  6
CONTINUOUS
 62
     5
 10
-323.5
 20
-180.0
 30
0.0
 11
-323.5
 21
-173.0
 31
0.0
  0
ARC
  8
DETAIL
  6
CONTINUOUS
 62
     5
 10
-364.5
 20
-183.5
 30
0.0
 40
3.5
 50
90.0
 51
180.0
  0
ARC
  8
DETAIL
  6
CONTINUOUS
 62
     5
 10
-364.0
 20
-184.0
 30
0.0
 40
3.5
 50
90.0
 51
180.0
  0
LINE
  8
DETAIL
  6
CONTINUOUS
 62
     5
 10
-323.5
 20
-192.0
 30
0.0
 11
-323.5
 21
-180.5
 31
0.0
  0
LINE
  8
DETAIL
  6
CONTINUOUS
 62
     5
 10
-323.0
 20
-192.0
 30
0.0
 11
-323.5
 21
-192.0
 31
0.0
  0
LINE
  8
DETAIL
  6
CONTINUOUS
 62
     5
 10
-323.0
 20
-173.0
 30
0.0
 11
-323.5
 21
-173.0
 31
0.0
  0
LINE
  8
DETAIL
  6
CONTINUOUS
 62
     5
 10
-367.5
 20
-210.0
 30
0.0
 11
-367.5
 21
-184.0
 31
0.0
  0
LINE
  8
DETAIL
  6
CONTINUOUS
 62
     5
 10
-323.5
 20
-180.5
 30
0.0
 11
-364.0
 21
-180.5
 31
0.0
  0
LINE
  8
DETAIL
  6
CONTINUOUS
 62
     5
 10
-367.5
 20
-210.0
 30
0.0
 11
-368.0
 21
-210.0
 31
0.0
  0
LINE
  8
DETAIL
  6
CONTINUOUS
 62
     5
 10
-323.5
 20
-180.0
 30
0.0
 11
-364.5
 21
-180.0
 31
0.0
  0
LINE
  8
DETAIL
  6
CONTINUOUS
 62
     5
 10
-368.0
 20
-210.0
 30
0.0
 11
-368.0
 21
-183.5
 31
0.0
  0
LINE
  8
DETAIL
  6
CONTINUOUS
 62
     5
 10
-323.0
 20
-192.0
 30
0.0
 11
-323.0
 21
-173.0
 31
0.0
  0
CIRCLE
  8
FIX
  6
CONTINUOUS
 62
    11
 10
-339.5
 20
-180.0
 30
0.0
 40
5.5
  0
LINE
  8
DETAIL
  6
CONTINUOUS
 62
     5
 10
399.5
 20
-240.66390000000001
 30
0.0
 11
400.0
 21
-240.66390000000001
 31
0.0
  0
LINE
  8
DETAIL
  6
CONTINUOUS
 62
     5
 10
366.5
 20
-180.0
 30
0.0
 11
366.5
 21
-173.5
 31
0.0
  0
LINE
  8
DETAIL
  6
CONTINUOUS
 62
     5
 10
366.0
 20
-173.5
 30
0.0
 11
366.5
 21
-173.5
 31
0.0
  0
LINE
  8
DETAIL
  6
CONTINUOUS
 62
     5
 10
366.0
 20
-188.0
 30
0.0
 11
366.5
 21
-188.0
 31
0.0
  0
CIRCLE
  8
FIX
  6
CONTINUOUS
 62
    11
 10
382.5
 20
-180.0
 30
0.0
 40
5.5
  0
LINE
  8
DETAIL
  6
CONTINUOUS
 62
     5
 10
366.0
 20
-188.0
 30
0.0
 11
366.0
 21
-173.5
 31
0.0
  0
LINE
  8
DETAIL
  6
CONTINUOUS
 62
     5
 10
400.0
 20
-240.66390000000001
 30
0.0
 11
400.0
 21
-183.5
 31
0.0
  0
LINE
  8
DETAIL
  6
CONTINUOUS
 62
     5
 10
366.5
 20
-180.0
 30
0.0
 11
396.5
 21
-180.0
 31
0.0
  0
LINE
  8
DETAIL
  6
CONTINUOUS
 62
     5
 10
366.5
 20
-180.5
 30
0.0
 11
396.0
 21
-180.5
 31
0.0
  0
LINE
  8
DETAIL
  6
CONTINUOUS
 62
     5
 10
399.5
 20
-240.66390000000001
 30
0.0
 11
399.5
 21
-184.0
 31
0.0
  0
LINE
  8
DETAIL
  6
CONTINUOUS
 62
     5
 10
366.5
 20
-188.0
 30
0.0
 11
366.5
 21
-180.5
 31
0.0
  0
ARC
  8
DETAIL
  6
CONTINUOUS
 62
     5
 10
396.0
 20
-184.0
 30
0.0
 40
3.5
 50
0.0
 51
90.0
  0
ARC
  8
DETAIL
  6
CONTINUOUS
 62
     5
 10
396.5
 20
-183.5
 30
0.0
 40
3.5
 50
0.0
 51
90.0
  0
LINE
  8
NOTE
  6
CONTINUOUS
 62
     4
 10
382.5
 20
-180.0
 30
0.0
 11
578.19223199999988
 21
124.5656690000001
 31
0.0
  0
TEXT
  8
NOTE
  6
CONTINUOUS
 62
     4
 10
-668.97819500000003
 20
-211.991536
 30
0.0
 40
64.0
  1
吹出口
 41
0.9
  0
TEXT
  8
NOTE
  6
CONTINUOUS
 62
     4
 10
484.78904000000011
 20
-215.529144
 30
0.0
 40
64.0
  1
吸込口
 41
0.9
  0
LINE
  8
BASIS
  6
DASHDOT
 62
     6
 10
455.08861400000001
 20
-180.0
 30
0.0
 11
-462.64536899999979
 21
-180.0
 31
0.0
  0
LINE
  8
SIZE
  6
CONTINUOUS
 62
    30
 10
362.0
 20
-637.33091899999999
 30
0.0
 11
232.44135600000001
 21
-637.33091899999999
 31
0.0
  0
LINE
  8
SIZE
  6
CONTINUOUS
 62
    30
 10
380.5
 20
-512.70439199999987
 30
0.0
 11
162.46990600000001
 21
-512.70439199999987
 31
0.0
  0
LINE
  8
SIZE
  6
CONTINUOUS
 62
    30
 10
429.71416799999997
 20
-710.95283700000027
 30
0.0
 11
576.00859500000001
 21
-710.95283700000027
 31
0.0
  0
LINE
  8
SIZE
  6
CONTINUOUS
 62
    30
 10
-434.0
 20
-710.95283700000027
 30
0.0
 11
-550.76439800000003
 21
-710.95283700000027
 31
0.0
  0
POINT
  8
ARRANGE
  6
CONTINUOUS
 62
     1
 10
0.0
 20
0.0
 30
0.0
  0
CIRCLE
  8
ARRANGE
  6
CONTINUOUS
 62
     1
 10
0.0
 20
0.0
 30
0.0
 40
40.0
  0
LINE
  8
SIZE
  6
CONTINUOUS
 62
    30
 10
400.0
 20
-163.5
 30
0.0
 11
400.0
 21
411.02139599999992
 31
0.0
  0
LINE
  8
SIZE
  6
CONTINUOUS
 62
    30
 10
-368.0
 20
-163.5
 30
0.0
 11
-368.0
 21
411.02139599999992
 31
0.0
  0
LINE
  8
SIZE
  6
CONTINUOUS
 62
    30
 10
398.0
 20
381.0213960000001
 30
0.0
 11
16.0
 21
381.0213960000001
 31
0.0
  0
LINE
  8
SIZE
  6
CONTINUOUS
 62
    30
 10
-366.0
 20
381.0213960000001
 30
0.0
 11
16.0
 21
381.0213960000001
 31
0.0
  0
TEXT
  8
SIZE
  6
CONTINUOUS
 62
    30
 10
-58.057143000000003
 20
413.0213960000001
 30
0.0
 40
64.0
  1
768
 41
0.9
  0
LINE
  8
SIZE
  6
CONTINUOUS
 62
    30
 10
382.5
 20
-140.0
 30
0.0
 11
382.5
 21
290.59254600000008
 31
0.0
  0
LINE
  8
SIZE
  6
CONTINUOUS
 62
    30
 10
-339.5
 20
-140.0
 30
0.0
 11
-339.5
 21
290.59254600000008
 31
0.0
  0
LINE
  8
SIZE
  6
CONTINUOUS
 62
    30
 10
380.5
 20
260.59254600000008
 30
0.0
 11
-337.5
 21
260.59254600000008
 31
0.0
  0
TEXT
  8
SIZE
  6
CONTINUOUS
 62
    30
 10
-52.557143000000003
 20
292.59254600000008
 30
0.0
 40
64.0
  1
722
 41
0.9
  0
LINE
  8
SIZE
  6
CONTINUOUS
 62
    30
 10
366.0
 20
-153.5
 30
0.0
 11
366.0
 21
164.23022399999999
 31
0.0
  0
LINE
  8
SIZE
  6
CONTINUOUS
 62
    30
 10
-323.0
 20
-153.0
 30
0.0
 11
-323.0
 21
164.23022399999999
 31
0.0
  0
LINE
  8
SIZE
  6
CONTINUOUS
 62
    30
 10
364.0
 20
134.23022399999999
 30
0.0
 11
-321.0
 21
134.23022399999999
 31
0.0
  0
TEXT
  8
SIZE
  6
CONTINUOUS
 62
    30
 10
-51.185713999999962
 20
166.23022399999999
 30
0.0
 40
64.0
  1
689
 41
0.9
  0
LINE
  8
SIZE
  6
CONTINUOUS
 62
    30
 10
-379.0
 20
-325.0
 30
0.0
 11
-379.0
 21
-740.95283700000005
 31
0.0
  0
LINE
  8
SIZE
  6
CONTINUOUS
 62
    30
 10
-430.0
 20
-325.0
 30
0.0
 11
-430.0
 21
-740.95283700000005
 31
0.0
  0
LINE
  8
SIZE
  6
CONTINUOUS
 62
    30
 10
-432.0
 20
-710.95283700000027
 30
0.0
 11
-434.0
 21
-710.95283700000027
 31
0.0
  0
LINE
  8
SIZE
  6
CONTINUOUS
 62
    30
 10
-377.0
 20
-710.95283700000027
 30
0.0
 11
-375.0
 21
-710.95283700000027
 31
0.0
  0
LINE
  8
SIZE
  6
CONTINUOUS
 62
    30
 10
-430.0
 20
-710.95283700000027
 30
0.0
 11
-379.0
 21
-710.95283700000027
 31
0.0
  0
TEXT
  8
SIZE
  6
CONTINUOUS
 62
    30
 10
-528.91181900000004
 20
-678.95283700000027
 30
0.0
 40
64.0
  1
51
 41
0.9
  0
LINE
  8
SIZE
  6
CONTINUOUS
 62
    30
 10
430.0
 20
-325.0
 30
0.0
 11
430.0
 21
-816.43819499999995
 31
0.0
  0
LINE
  8
SIZE
  6
CONTINUOUS
 62
    30
 10
-430.0
 20
-325.0
 30
0.0
 11
-430.0
 21
-816.43819499999995
 31
0.0
  0
LINE
  8
SIZE
  6
CONTINUOUS
 62
    30
 10
428.0
 20
-786.43819499999972
 30
0.0
 11
0.0
 21
-786.43819499999972
 31
0.0
  0
LINE
  8
SIZE
  6
CONTINUOUS
 62
    30
 10
-428.0
 20
-786.43819499999972
 30
0.0
 11
0.0
 21
-786.43819499999972
 31
0.0
  0
TEXT
  8
SIZE
  6
CONTINUOUS
 62
    30
 10
-74.057142999999996
 20
-754.43819499999972
 30
0.0
 40
64.0
  1
860
 41
0.9
  0
LINE
  8
SIZE
  6
CONTINUOUS
 62
    30
 10
430.0
 20
-300.5
 30
0.0
 11
430.0
 21
-740.95283700000005
 31
0.0
  0
LINE
  8
SIZE
  6
CONTINUOUS
 62
    30
 10
400.0
 20
-350.5
 30
0.0
 11
400.0
 21
-740.95283700000005
 31
0.0
  0
LINE
  8
SIZE
  6
CONTINUOUS
 62
    30
 10
398.0
 20
-710.95283700000027
 30
0.0
 11
396.0
 21
-710.95283700000027
 31
0.0
  0
LINE
  8
SIZE
  6
CONTINUOUS
 62
    30
 10
432.0
 20
-710.95283700000027
 30
0.0
 11
434.0
 21
-710.95283700000027
 31
0.0
  0
LINE
  8
SIZE
  6
CONTINUOUS
 62
    30
 10
400.0
 20
-710.95283700000027
 30
0.0
 11
430.0
 21
-710.95283700000027
 31
0.0
  0
TEXT
  8
SIZE
  6
CONTINUOUS
 62
    30
 10
453.277873
 20
-678.95283700000027
 30
0.0
 40
64.0
  1
30
 41
0.9
  0
LINE
  8
SIZE
  6
CONTINUOUS
 62
    30
 10
400.0
 20
-230.5
 30
0.0
 11
400.0
 21
-542.70439199999987
 31
0.0
  0
LINE
  8
SIZE
  6
CONTINUOUS
 62
    30
 10
382.5
 20
-220.5
 30
0.0
 11
382.5
 21
-542.70439199999987
 31
0.0
  0
LINE
  8
SIZE
  6
CONTINUOUS
 62
    30
 10
380.5
 20
-512.70439199999987
 30
0.0
 11
378.5
 21
-512.70439199999987
 31
0.0
  0
LINE
  8
SIZE
  6
CONTINUOUS
 62
    30
 10
402.0
 20
-512.70439199999987
 30
0.0
 11
404.0
 21
-512.70439199999987
 31
0.0
  0
LINE
  8
SIZE
  6
CONTINUOUS
 62
    30
 10
382.5
 20
-512.70439199999987
 30
0.0
 11
400.0
 21
-512.70439199999987
 31
0.0
  0
TEXT
  8
SIZE
  6
CONTINUOUS
 62
    30
 10
178.49279799999999
 20
-480.7043920000001
 30
0.0
 40
64.0
  1
17.5
 41
0.9
  0
LINE
  8
SIZE
  6
CONTINUOUS
 62
    30
 10
366.0
 20
-208.5
 30
0.0
 11
366.0
 21
-667.33091899999999
 31
0.0
  0
LINE
  8
SIZE
  6
CONTINUOUS
 62
    30
 10
400.0
 20
-230.5
 30
0.0
 11
400.0
 21
-667.33091899999999
 31
0.0
  0
LINE
  8
SIZE
  6
CONTINUOUS
 62
    30
 10
402.0
 20
-637.33091899999999
 30
0.0
 11
404.0
 21
-637.33091899999999
 31
0.0
  0
LINE
  8
SIZE
  6
CONTINUOUS
 62
    30
 10
364.0
 20
-637.33091899999999
 30
0.0
 11
362.0
 21
-637.33091899999999
 31
0.0
  0
LINE
  8
SIZE
  6
CONTINUOUS
 62
    30
 10
400.0
 20
-637.33091899999999
 30
0.0
 11
366.0
 21
-637.33091899999999
 31
0.0
  0
TEXT
  8
SIZE
  6
CONTINUOUS
 62
    30
 10
248.50835000000009
 20
-605.33091899999999
 30
0.0
 40
64.0
  1
34
 41
0.9
  0
LINE
  8
SIZE
  6
CONTINUOUS
 62
    30
 10
420.0
 20
-14.5
 30
0.0
 11
985.12145700000019
 21
-14.5
 31
0.0
  0
LINE
  8
SIZE
  6
CONTINUOUS
 62
    30
 10
420.0
 20
-345.5
 30
0.0
 11
985.12145700000019
 21
-345.5
 31
0.0
  0
LINE
  8
SIZE
  6
CONTINUOUS
 62
    30
 10
955.12145700000019
 20
-16.5
 30
0.0
 11
955.12145700000019
 21
-180.0
 31
0.0
  0
LINE
  8
SIZE
  6
CONTINUOUS
 62
    30
 10
955.12145700000019
 20
-343.5
 30
0.0
 11
955.12145700000019
 21
-180.0
 31
0.0
  0
TEXT
  8
SIZE
  6
CONTINUOUS
 62
    30
 10
923.12145700000019
 20
-270.51428600000008
 30
0.0
 40
64.0
  1
φ331
 50
90.0
 41
0.9
  0
LINE
  8
SIZE
  6
CONTINUOUS
 62
    30
 10
450.0
 20
-55.0
 30
0.0
 11
862.01386899999989
 21
-55.0
 31
0.0
  0
LINE
  8
SIZE
  6
CONTINUOUS
 62
    30
 10
450.0
 20
-305.0
 30
0.0
 11
862.01386899999989
 21
-305.0
 31
0.0
  0
LINE
  8
SIZE
  6
CONTINUOUS
 62
    30
 10
832.01386899999989
 20
-57.0
 30
0.0
 11
832.01386899999989
 21
-180.0
 31
0.0
  0
LINE
  8
SIZE
  6
CONTINUOUS
 62
    30
 10
832.01386899999989
 20
-303.0
 30
0.0
 11
832.01386899999989
 21
-180.0
 31
0.0
  0
TEXT
  8
SIZE
  6
CONTINUOUS
 62
    30
 10
800.01386899999989
 20
-282.85714300000001
 30
0.0
 40
64.0
  1
φ250
 50
90.0
 41
0.9
  0
LINE
  8
SIZE
  6
CONTINUOUS
 62
    30
 10
-284.0
 20
0.0
 30
0.0
 11
-884.72941499999979
 21
0.0
 31
0.0
  0
LINE
  8
SIZE
  6
CONTINUOUS
 62
    30
 10
-284.0
 20
-360.0
 30
0.0
 11
-884.72941499999979
 21
-360.0
 31
0.0
  0
LINE
  8
SIZE
  6
CONTINUOUS
 62
    30
 10
-854.72941500000002
 20
-2.0
 30
0.0
 11
-854.72941500000002
 21
-180.0
 31
0.0
  0
LINE
  8
SIZE
  6
CONTINUOUS
 62
    30
 10
-854.72941500000002
 20
-358.0
 30
0.0
 11
-854.72941500000002
 21
-180.0
 31
0.0
  0
TEXT
  8
SIZE
  6
CONTINUOUS
 62
    30
 10
-886.72941500000024
 20
-282.85714300000001
 30
0.0
 40
64.0
  1
φ360
 50
90.0
 41
0.9
  0
LINE
  8
SIZE
  6
CONTINUOUS
 62
    30
 10
-450.0
 20
-55.0
 30
0.0
 11
-767.034762
 21
-55.0
 31
0.0
  0
LINE
  8
SIZE
  6
CONTINUOUS
 62
    30
 10
-450.0
 20
-305.0
 30
0.0
 11
-767.034762
 21
-305.0
 31
0.0
  0
LINE
  8
SIZE
  6
CONTINUOUS
 62
    30
 10
-737.034762
 20
-57.0
 30
0.0
 11
-737.034762
 21
-180.0
 31
0.0
  0
LINE
  8
SIZE
  6
CONTINUOUS
 62
    30
 10
-737.034762
 20
-303.0
 30
0.0
 11
-737.034762
 21
-180.0
 31
0.0
  0
TEXT
  8
SIZE
  6
CONTINUOUS
 62
    30
 10
-769.034762
 20
-282.85714300000001
 30
0.0
 40
64.0
  1
φ250
 50
90.0
 41
0.9
  0
CIRCLE
  8
SIZE
  6
CONTINUOUS
 62
    30
 10
-737.034762
 20
-305.0
 30
0.0
 40
6.0
  0
CIRCLE
  8
SIZE
  6
CONTINUOUS
 62
    30
 10
-737.034762
 20
-55.0
 30
0.0
 40
6.0
  0
CIRCLE
  8
SIZE
  6
CONTINUOUS
 62
    30
 10
-854.72941500000002
 20
-360.0
 30
0.0
 40
6.0
  0
CIRCLE
  8
SIZE
  6
CONTINUOUS
 62
    30
 10
-854.72941500000002
 20
0.0
 30
0.0
 40
6.0
  0
CIRCLE
  8
SIZE
  6
CONTINUOUS
 62
    30
 10
832.01386899999989
 20
-305.0
 30
0.0
 40
6.0
  0
CIRCLE
  8
SIZE
  6
CONTINUOUS
 62
    30
 10
832.01386899999989
 20
-55.0
 30
0.0
 40
6.0
  0
CIRCLE
  8
SIZE
  6
CONTINUOUS
 62
    30
 10
955.12145700000019
 20
-345.5
 30
0.0
 40
6.0
  0
CIRCLE
  8
SIZE
  6
CONTINUOUS
 62
    30
 10
955.12145700000019
 20
-14.5
 30
0.0
 40
6.0
  0
CIRCLE
  8
SIZE
  6
CONTINUOUS
 62
    30
 10
366.0
 20
-637.33091899999999
 30
0.0
 40
6.0
  0
CIRCLE
  8
SIZE
  6
CONTINUOUS
 62
    30
 10
400.0
 20
-637.33091899999999
 30
0.0
 40
6.0
  0
CIRCLE
  8
SIZE
  6
CONTINUOUS
 62
    30
 10
400.0
 20
-512.70439199999987
 30
0.0
 40
6.0
  0
CIRCLE
  8
SIZE
  6
CONTINUOUS
 62
    30
 10
382.5
 20
-512.70439199999987
 30
0.0
 40
6.0
  0
CIRCLE
  8
SIZE
  6
CONTINUOUS
 62
    30
 10
430.0
 20
-710.95283700000027
 30
0.0
 40
6.0
  0
CIRCLE
  8
SIZE
  6
CONTINUOUS
 62
    30
 10
400.0
 20
-710.95283700000027
 30
0.0
 40
6.0
  0
CIRCLE
  8
SIZE
  6
CONTINUOUS
 62
    30
 10
-430.0
 20
-786.43819499999972
 30
0.0
 40
6.0
  0
CIRCLE
  8
SIZE
  6
CONTINUOUS
 62
    30
 10
430.0
 20
-786.43819499999972
 30
0.0
 40
6.0
  0
CIRCLE
  8
SIZE
  6
CONTINUOUS
 62
    30
 10
-379.0
 20
-710.95283700000027
 30
0.0
 40
6.0
  0
CIRCLE
  8
SIZE
  6
CONTINUOUS
 62
    30
 10
-430.0
 20
-710.95283700000027
 30
0.0
 40
6.0
  0
CIRCLE
  8
SIZE
  6
CONTINUOUS
 62
    30
 10
-323.0
 20
134.23022399999999
 30
0.0
 40
6.0
  0
CIRCLE
  8
SIZE
  6
CONTINUOUS
 62
    30
 10
366.0
 20
134.23022399999999
 30
0.0
 40
6.0
  0
CIRCLE
  8
SIZE
  6
CONTINUOUS
 62
    30
 10
-339.5
 20
260.59254600000008
 30
0.0
 40
6.0
  0
CIRCLE
  8
SIZE
  6
CONTINUOUS
 62
    30
 10
382.5
 20
260.59254600000008
 30
0.0
 40
6.0
  0
CIRCLE
  8
SIZE
  6
CONTINUOUS
 62
    30
 10
-368.0
 20
381.0213960000001
 30
0.0
 40
6.0
  0
CIRCLE
  8
SIZE
  6
CONTINUOUS
 62
    30
 10
400.0
 20
381.0213960000001
 30
0.0
 40
6.0
  0
LINE
  8
NOTE
  6
CONTINUOUS
 62
     4
 10
412.32835
 20
-153.34911699999989
 30
0.0
 11
382.5
 21
-180.0
 31
0.0
  0
LINE
  8
NOTE
  6
CONTINUOUS
 62
     4
 10
382.5
 20
-180.0
 30
0.0
 11
395.00666700000011
 21
-142.005484
 31
0.0
  0
LINE
  8
NOTE
  6
CONTINUOUS
 62
     4
 10
362.5
 20
-180.0
 30
0.0
 11
402.5
 21
-180.0
 31
0.0
  0
LINE
  8
NOTE
  6
CONTINUOUS
 62
     4
 10
382.5
 20
-200.0
 30
0.0
 11
382.5
 21
-160.0
 31
0.0
  0
LINE
  8
NOTE
  6
CONTINUOUS
 62
     4
 10
-319.5
 20
-180.0
 30
0.0
 11
-359.5
 21
-180.0
 31
0.0
  0
LINE
  8
NOTE
  6
CONTINUOUS
 62
     4
 10
-339.5
 20
-200.0
 30
0.0
 11
-339.5
 21
-160.0
 31
0.0
  0
LINE
  8
NOTE
  6
CONTINUOUS
 62
     4
 10
-368.40307200000012
 20
-71.120928000000049
 30
0.0
 11
-359.0
 21
-110.0
 31
0.0
  0
LINE
  8
NOTE
  6
CONTINUOUS
 62
     4
 10
-359.0
 20
-110.0
 30
0.0
 11
-386.58283499999987
 21
-81.031271999999944
 31
0.0
  0
LINE
  8
NOTE
  6
CONTINUOUS
 62
     4
 10
-339.0
 20
-110.0
 30
0.0
 11
-379.0
 21
-110.0
 31
0.0
  0
LINE
  8
NOTE
  6
CONTINUOUS
 62
     4
 10
-359.0
 20
-130.0
 30
0.0
 11
-359.0
 21
-90.0
 31
0.0
  0
LINE
  8
OUTLINE
  6
CONTINUOUS
 62
     3
 10
400.0
 20
-345.5
 30
0.0
 11
400.0
 21
-305.0
 31
0.0
  0
LINE
  8
OUTLINE
  6
CONTINUOUS
 62
     3
 10
400.0
 20
-55.0
 30
0.0
 11
400.0
 21
-14.5
 31
0.0
  0
LINE
  8
OUTLINE
  6
CONTINUOUS
 62
     3
 10
430.0
 20
-305.0
 30
0.0
 11
430.0
 21
-55.0
 31
0.0
  0
LINE
  8
OUTLINE
  6
CONTINUOUS
 62
     3
 10
430.0
 20
-55.0
 30
0.0
 11
400.0
 21
-55.0
 31
0.0
  0
LINE
  8
OUTLINE
  6
CONTINUOUS
 62
     3
 10
430.0
 20
-305.0
 30
0.0
 11
400.0
 21
-305.0
 31
0.0
  0
LINE
  8
OUTLINE
  6
CONTINUOUS
 62
     3
 10
-430.0
 20
-305.0
 30
0.0
 11
-430.0
 21
-55.0
 31
0.0
  0
LINE
  8
OUTLINE
  6
CONTINUOUS
 62
     3
 10
-430.0
 20
-305.0
 30
0.0
 11
-379.0
 21
-305.0
 31
0.0
  0
LINE
  8
OUTLINE
  6
CONTINUOUS
 62
     3
 10
400.0
 20
-14.5
 30
0.0
 11
-259.0
 21
-14.5
 31
0.0
  0
LINE
  8
OUTLINE
  6
CONTINUOUS
 62
     3
 10
400.0
 20
-345.5
 30
0.0
 11
-259.0
 21
-345.5
 31
0.0
  0
LINE
  8
OUTLINE
  6
CONTINUOUS
 62
     3
 10
-259.0
 20
-360.0
 30
0.0
 11
-259.0
 21
-345.5
 31
0.0
  0
LINE
  8
OUTLINE
  6
CONTINUOUS
 62
     3
 10
-259.0
 20
-14.49999999999989
 30
0.0
 11
-259.0
 21
0.0
 31
0.0
  0
LINE
  8
OUTLINE
  6
CONTINUOUS
 62
     3
 10
-264.0
 20
-360.0
 30
0.0
 11
-264.0
 21
-345.49999999999989
 31
0.0
  0
LINE
  8
OUTLINE
  6
CONTINUOUS
 62
     3
 10
-264.0
 20
-14.5
 30
0.0
 11
-264.0
 21
0.0
 31
0.0
  0
LINE
  8
OUTLINE
  6
CONTINUOUS
 62
     3
 10
-264.0
 20
0.0
 30
0.0
 11
-259.0
 21
0.0
 31
0.0
  0
LINE
  8
OUTLINE
  6
CONTINUOUS
 62
     3
 10
-264.0
 20
-360.0
 30
0.0
 11
-259.0
 21
-360.0
 31
0.0
  0
LINE
  8
OUTLINE
  6
CONTINUOUS
 62
     3
 10
-264.0
 20
-14.5
 30
0.0
 11
-299.0
 21
-14.5
 31
0.0
  0
LINE
  8
OUTLINE
  6
CONTINUOUS
 62
     3
 10
-264.0
 20
-345.5
 30
0.0
 11
-299.0
 21
-345.5
 31
0.0
  0
LINE
  8
OUTLINE
  6
CONTINUOUS
 62
     3
 10
-379.0
 20
-305.0
 30
0.0
 11
-299.0
 21
-345.5
 31
0.0
  0
LINE
  8
OUTLINE
  6
CONTINUOUS
 62
     3
 10
-379.0
 20
-55.0
 30
0.0
 11
-299.0
 21
-14.5
 31
0.0
  0
LINE
  8
OUTLINE
  6
CONTINUOUS
 62
     3
 10
-430.0
 20
-55.0
 30
0.0
 11
-379.0
 21
-55.0
 31
0.0
  0
LINE
  8
OUTLINE
  6
CONTINUOUS
 62
     3
 10
-379.0
 20
-55.0
 30
0.0
 11
-299.0
 21
-14.5
 31
0.0
  0
LINE
  8
OUTLINE
  6
CONTINUOUS
 62
     3
 10
-379.0
 20
-305.0
 30
0.0
 11
-299.0
 21
-345.5
 31
0.0
  0
LINE
  8
OUTLINE
  6
CONTINUOUS
 62
     3
 10
-264.0
 20
-345.5
 30
0.0
 11
-299.0
 21
-345.5
 31
0.0
  0
LINE
  8
OUTLINE
  6
CONTINUOUS
 62
     3
 10
-264.0
 20
-14.5
 30
0.0
 11
-299.0
 21
-14.5
 31
0.0
  0
LINE
  8
OUTLINE
  6
CONTINUOUS
 62
     3
 10
-264.0
 20
-360.0
 30
0.0
 11
-259.0
 21
-360.0
 31
0.0
  0
LINE
  8
OUTLINE
  6
CONTINUOUS
 62
     3
 10
-264.0
 20
0.0
 30
0.0
 11
-259.0
 21
0.0
 31
0.0
  0
LINE
  8
OUTLINE
  6
CONTINUOUS
 62
     3
 10
-264.0
 20
-360.0
 30
0.0
 11
-264.0
 21
-345.49999999999989
 31
0.0
  0
LINE
  8
OUTLINE
  6
CONTINUOUS
 62
     3
 10
-264.0
 20
-14.5
 30
0.0
 11
-264.0
 21
0.0
 31
0.0
  0
LINE
  8
OUTLINE
  6
CONTINUOUS
 62
     3
 10
-259.0
 20
-360.0
 30
0.0
 11
-259.0
 21
-345.5
 31
0.0
  0
LINE
  8
OUTLINE
  6
CONTINUOUS
 62
     3
 10
-259.0
 20
-14.49999999999989
 30
0.0
 11
-259.0
 21
0.0
 31
0.0
  0
LINE
  8
OUTLINE
  6
CONTINUOUS
 62
     3
 10
400.0
 20
-345.5
 30
0.0
 11
-259.0
 21
-345.5
 31
0.0
  0
LINE
  8
OUTLINE
  6
CONTINUOUS
 62
     3
 10
400.0
 20
-14.5
 30
0.0
 11
-259.0
 21
-14.5
 31
0.0
  0
LINE
  8
OUTLINE
  6
CONTINUOUS
 62
     3
 10
400.0
 20
-345.5
 30
0.0
 11
400.0
 21
-305.0
 31
0.0
  0
LINE
  8
OUTLINE
  6
CONTINUOUS
 62
     3
 10
400.0
 20
-55.0
 30
0.0
 11
400.0
 21
-14.5
 31
0.0
  0
LINE
  8
BASIS
  6
DASHDOT
 62
     6
 10
421.50362007679541
 20
0.0
 30
0.0
 11
-268.08443694576732
 21
0.0
 31
0.0
  0
TEXT
  8
NOTE
  6
CONTINUOUS
 62
     4
 10
591.74936816580612
 20
151.57305589437121
 30
0.0
 40
64.0
  1
AH 4-φ11×22
 41
0.9
  0
LINE
  8
NOTE
  6
CONTINUOUS
 62
     4
 10
1189.373914411254
 20
124.56566931261359
 30
0.0
 11
578.19222841125418
 21
124.56566931261359
 31
0.0
  0
ENDSEC
  0
EOF
