  0
SECTION
  2
HEADER
  9
$ACADVER
  1
AC1015
  9
$ACADMAINTVER
 70
    20
  9
$DWGCODEPAGE
  3
ANSI_932
  9
$INSBASE
 10
0.0
 20
0.0
 30
0.0
  9
$EXTMIN
 10
-778.2056591647723
 20
-229.9999999999994
 30
0.0
  9
$EXTMAX
 10
910.1689428277099
 20
641.9158097561576
 30
50.0
  9
$LIMMIN
 10
-2970.0
 20
-2100.0
  9
$LIMMAX
 10
2970.0
 20
2100.0
  9
$ORTHOMODE
 70
     1
  9
$REGENMODE
 70
     0
  9
$FILLMODE
 70
     1
  9
$QTEXTMODE
 70
     0
  9
$MIRRTEXT
 70
     0
  9
$LTSCALE
 40
20.0
  9
$ATTMODE
 70
     1
  9
$TEXTSIZE
 40
64.0
  9
$TRACEWID
 40
0.05
  9
$TEXTSTYLE
  7
STANDARD
  9
$CLAYER
  8
0
  9
$CELTYPE
  6
ByLayer
  9
$CECOLOR
 62
   256
  9
$CELTSCALE
 40
1.0
  9
$DISPSILH
 70
     0
  9
$DIMSCALE
 40
1.0
  9
$DIMASZ
 40
0.12
  9
$DIMEXO
 40
0.05
  9
$DIMDLI
 40
0.5
  9
$DIMRND
 40
0.0
  9
$DIMDLE
 40
0.0
  9
$DIMEXE
 40
0.1
  9
$DIMTP
 40
0.1
  9
$DIMTM
 40
0.1
  9
$DIMTXT
 40
0.12
  9
$DIMCEN
 40
0.0
  9
$DIMTSZ
 40
0.0
  9
$DIMTOL
 70
     0
  9
$DIMLIM
 70
     0
  9
$DIMTIH
 70
     1
  9
$DIMTOH
 70
     1
  9
$DIMSE1
 70
     0
  9
$DIMSE2
 70
     0
  9
$DIMTAD
 70
     0
  9
$DIMZIN
 70
     7
  9
$DIMBLK
  1

  9
$DIMASO
 70
     1
  9
$DIMSHO
 70
     0
  9
$DIMPOST
  1

  9
$DIMAPOST
  1
mm
  9
$DIMALT
 70
     0
  9
$DIMALTD
 70
     2
  9
$DIMALTF
 40
25.4
  9
$DIMLFAC
 40
1.0
  9
$DIMTOFL
 70
     0
  9
$DIMTVP
 40
0.0
  9
$DIMTIX
 70
     0
  9
$DIMSOXD
 70
     0
  9
$DIMSAH
 70
     0
  9
$DIMBLK1
  1

  9
$DIMBLK2
  1

  9
$DIMSTYLE
  2
AM_ANSI
  9
$DIMCLRD
 70
   256
  9
$DIMCLRE
 70
   256
  9
$DIMCLRT
 70
     2
  9
$DIMTFAC
 40
0.71
  9
$DIMGAP
 40
0.06
  9
$DIMJUST
 70
     0
  9
$DIMSD1
 70
     0
  9
$DIMSD2
 70
     0
  9
$DIMTOLJ
 70
     1
  9
$DIMTZIN
 70
     7
  9
$DIMALTZ
 70
     0
  9
$DIMALTTZ
 70
     0
  9
$DIMUPT
 70
     0
  9
$DIMDEC
 70
     4
  9
$DIMTDEC
 70
     4
  9
$DIMALTU
 70
     2
  9
$DIMALTTD
 70
     4
  9
$DIMTXSTY
  7
STANDARD
  9
$DIMAUNIT
 70
     0
  9
$DIMADEC
 70
     0
  9
$DIMALTRND
 40
0.0
  9
$DIMAZIN
 70
     2
  9
$DIMDSEP
 70
    46
  9
$DIMATFIT
 70
     3
  9
$DIMFRAC
 70
     0
  9
$DIMLDRBLK
  1

  9
$DIMLUNIT
 70
     2
  9
$DIMLWD
 70
    -1
  9
$DIMLWE
 70
    -1
  9
$DIMTMOVE
 70
     0
  9
$LUNITS
 70
     2
  9
$LUPREC
 70
     4
  9
$SKETCHINC
 40
0.1
  9
$FILLETRAD
 40
4.0
  9
$AUNITS
 70
     1
  9
$AUPREC
 70
     3
  9
$MENU
  1
ACAD
  9
$ELEVATION
 40
0.0
  9
$PELEVATION
 40
0.0
  9
$THICKNESS
 40
50.0
  9
$LIMCHECK
 70
     0
  9
$CHAMFERA
 40
0.0
  9
$CHAMFERB
 40
0.0
  9
$CHAMFERC
 40
0.0
  9
$CHAMFERD
 40
0.0
  9
$SKPOLY
 70
     0
  9
$TDCREATE
 40
2452321.396199653
  9
$TDUCREATE
 40
2452321.021199653
  9
$TDUPDATE
 40
2456213.497928137
  9
$TDUUPDATE
 40
2456213.122928136
  9
$TDINDWG
 40
1.0435212963
  9
$TDUSRTIMER
 40
1.0435149884
  9
$USRTIMER
 70
     1
  9
$ANGBASE
 50
0.0
  9
$ANGDIR
 70
     0
  9
$PDMODE
 70
     3
  9
$PDSIZE
 40
-2.0
  9
$PLINEWID
 40
0.0
  9
$SPLFRAME
 70
     0
  9
$SPLINETYPE
 70
     6
  9
$SPLINESEGS
 70
     8
  9
$HANDSEED
  5
5096
  9
$SURFTAB1
 70
     6
  9
$SURFTAB2
 70
     6
  9
$SURFTYPE
 70
     6
  9
$SURFU
 70
     6
  9
$SURFV
 70
     6
  9
$UCSBASE
  2

  9
$UCSNAME
  2

  9
$UCSORG
 10
0.0
 20
0.0
 30
0.0
  9
$UCSXDIR
 10
1.0
 20
0.0
 30
0.0
  9
$UCSYDIR
 10
0.0
 20
1.0
 30
0.0
  9
$UCSORTHOREF
  2

  9
$UCSORTHOVIEW
 70
     0
  9
$UCSORGTOP
 10
0.0
 20
0.0
 30
0.0
  9
$UCSORGBOTTOM
 10
0.0
 20
0.0
 30
0.0
  9
$UCSORGLEFT
 10
0.0
 20
0.0
 30
0.0
  9
$UCSORGRIGHT
 10
0.0
 20
0.0
 30
0.0
  9
$UCSORGFRONT
 10
0.0
 20
0.0
 30
0.0
  9
$UCSORGBACK
 10
0.0
 20
0.0
 30
0.0
  9
$PUCSBASE
  2

  9
$PUCSNAME
  2

  9
$PUCSORG
 10
0.0
 20
0.0
 30
0.0
  9
$PUCSXDIR
 10
1.0
 20
0.0
 30
0.0
  9
$PUCSYDIR
 10
0.0
 20
1.0
 30
0.0
  9
$PUCSORTHOREF
  2

  9
$PUCSORTHOVIEW
 70
     0
  9
$PUCSORGTOP
 10
0.0
 20
0.0
 30
0.0
  9
$PUCSORGBOTTOM
 10
0.0
 20
0.0
 30
0.0
  9
$PUCSORGLEFT
 10
0.0
 20
0.0
 30
0.0
  9
$PUCSORGRIGHT
 10
0.0
 20
0.0
 30
0.0
  9
$PUCSORGFRONT
 10
0.0
 20
0.0
 30
0.0
  9
$PUCSORGBACK
 10
0.0
 20
0.0
 30
0.0
  9
$USERI1
 70
     0
  9
$USERI2
 70
     0
  9
$USERI3
 70
     0
  9
$USERI4
 70
     0
  9
$USERI5
 70
     0
  9
$USERR1
 40
20.0
  9
$USERR2
 40
0.0
  9
$USERR3
 40
0.0
  9
$USERR4
 40
0.0
  9
$USERR5
 40
0.0
  9
$WORLDVIEW
 70
     1
  9
$SHADEDGE
 70
     3
  9
$SHADEDIF
 70
    70
  9
$TILEMODE
 70
     1
  9
$MAXACTVP
 70
    64
  9
$PINSBASE
 10
0.0
 20
0.0
 30
0.0
  9
$PLIMCHECK
 70
     0
  9
$PEXTMIN
 10
1.000000000000000E+20
 20
1.000000000000000E+20
 30
1.000000000000000E+20
  9
$PEXTMAX
 10
-1.000000000000000E+20
 20
-1.000000000000000E+20
 30
-1.000000000000000E+20
  9
$PLIMMIN
 10
0.0
 20
0.0
  9
$PLIMMAX
 10
12.0
 20
9.0
  9
$UNITMODE
 70
     0
  9
$VISRETAIN
 70
     1
  9
$PLINEGEN
 70
     0
  9
$PSLTSCALE
 70
     1
  9
$TREEDEPTH
 70
  3020
  9
$CMLSTYLE
  2
Standard
  9
$CMLJUST
 70
     0
  9
$CMLSCALE
 40
1.0
  9
$PROXYGRAPHICS
 70
     1
  9
$MEASUREMENT
 70
     0
  9
$CELWEIGHT
370
    -1
  9
$ENDCAPS
280
     0
  9
$JOINSTYLE
280
     0
  9
$LWDISPLAY
290
     0
  9
$INSUNITS
 70
     0
  9
$HYPERLINKBASE
  1

  9
$STYLESHEET
  1

  9
$XEDIT
290
     1
  9
$CEPSNTYPE
380
     0
  9
$PSTYLEMODE
290
     1
  9
$FINGERPRINTGUID
  2
{AC1CC0EB-2E32-47EF-A215-8AE40D00CC99}
  9
$VERSIONGUID
  2
{536140D0-39D9-4FFD-94E7-DCCFA91E71BE}
  9
$EXTNAMES
290
     1
  9
$PSVPSCALE
 40
0.0
  9
$OLESTARTUP
290
     0
  0
ENDSEC
  0
SECTION
  2
CLASSES
  0
CLASS
  1
ACDBDICTIONARYWDFLT
  2
AcDbDictionaryWithDefault
  3
ObjectDBX Classes
 90
        0
280
     0
281
     0
  0
CLASS
  1
MATERIAL
  2
AcDbMaterial
  3
ObjectDBX Classes
 90
     1153
280
     0
281
     0
  0
CLASS
  1
VISUALSTYLE
  2
AcDbVisualStyle
  3
ObjectDBX Classes
 90
     4095
280
     0
281
     0
  0
CLASS
  1
SCALE
  2
AcDbScale
  3
ObjectDBX Classes
 90
     1153
280
     0
281
     0
  0
CLASS
  1
TABLESTYLE
  2
AcDbTableStyle
  3
ObjectDBX Classes
 90
     4095
280
     0
281
     0
  0
CLASS
  1
MLEADERSTYLE
  2
AcDbMLeaderStyle
  3
ACDB_MLEADERSTYLE_CLASS
 90
     4095
280
     0
281
     0
  0
CLASS
  1
AMGSETTINGSOBJ
  2
AmgSettingsObj
  3
"AcadM|Product Description: AutoCAD Mechanical|Company: Autodesk, Inc."
 90
     1024
280
     0
281
     0
  0
CLASS
  1
ACME_DOCUMENT
  2
AcMeDbDoc
  3
AcMeServices
 90
     1024
280
     0
281
     0
  0
CLASS
  1
ACMESCOPE
  2
AcMeScope
  3
AcMeServices
 90
     1024
280
     0
281
     0
  0
CLASS
  1
ACMECOMMANDHISTORY
  2
AcMeCommandHistory
  3
AcMeServices
 90
     1024
280
     0
281
     0
  0
CLASS
  1
ACIMSYSVARMAN
  2
AcImSysVarManager
  3
AcMeServices
 90
     1024
280
     0
281
     0
  0
CLASS
  1
ACIMREALSYSVAR
  2
AcImRealSysVar
  3
AcMeServices
 90
     1024
280
     0
281
     0
  0
CLASS
  1
ACIMINTSYSVAR
  2
AcImIntSysVar
  3
AcMeServices
 90
     1024
280
     0
281
     0
  0
CLASS
  1
ACMEDRAWINGMAN
  2
AcMeDrawingMan
  3
AcMeServices
 90
     1024
280
     0
281
     0
  0
CLASS
  1
ACMEVIEW
  2
AcMeView
  3
AcMeServices
 90
     1024
280
     0
281
     0
  0
CLASS
  1
ACDBENTITYCACHE
  2
AcMeEntityCache
  3
AcMeServices
 90
     1024
280
     0
281
     0
  0
CLASS
  1
GSMANAGER
  2
AcMeGSManager
  3
AcMeServices
 90
     1024
280
     0
281
     0
  0
CLASS
  1
AMDTINTERNALREACTOR
  2
AmdtInternalReactor
  3
AcMeServices
 90
     1024
280
     0
281
     0
  0
CLASS
  1
ACMESTATEMGR
  2
AcMeStateMgr
  3
AcMeServices
 90
     1024
280
     0
281
     0
  0
CLASS
  1
ACGREFMASTER
  2
AcGrefMaster
  3
AcAttribServices
 90
     1024
280
     0
281
     0
  0
CLASS
  1
AM_DRAWING_MGR
  2
AcDmDwgMgr
  3
AcMechDwgViewMgmt
 90
     1024
280
     0
281
     0
  0
CLASS
  1
AM_DWG_DOCUMENT
  2
AcDmDwgDocument
  3
AcMechDwgViewMgmt
 90
     1024
280
     0
281
     0
  0
CLASS
  1
AM_DWG_SHEET
  2
AcDmSheet
  3
AcMechDwgViewMgmt
 90
     1024
280
     0
281
     0
  0
CLASS
  1
AM_VIEWDIMPARMAP
  2
AcDmViewDimParMap
  3
AcMechDwgViewMgmt
 90
     1024
280
     0
281
     0
  0
CLASS
  1
AM_DWGMGR_NAME
  2
AcDmDwgMgrName
  3
AcMechDwgViewMgmt
 90
     1024
280
     0
281
     0
  0
CLASS
  1
ACME_DATABASE
  2
AcMeDbDatabase
  3
AcMeServices
 90
     1024
280
     0
281
     0
  0
CLASS
  1
ACRFINSADJUSTERMGR
  2
AcRfInsAdjusterMgr
  3
AcMeServices
 90
     1024
280
     0
281
     0
  0
CLASS
  1
ACGREFACADMASTER
  2
AcGrefacadMaster
  3
AcGrefServices
 90
     1024
280
     0
281
     0
  0
CLASS
  1
AMDTMENUSTATEMGR
  2
AmdtMenuStateMgr
  3
McadcomServices
 90
     1024
280
     0
281
     0
  0
CLASS
  1
AMDTMCOMMENUSTATE
  2
AmdtMcomMenuState
  3
McadcomServices
 90
     1024
280
     0
281
     0
  0
CLASS
  1
AMIMASTER
  2
AmiMaster
  3
AmiServices
 90
     1024
280
     0
281
     0
  0
CLASS
  1
ASAPP
  2
AcAsAppObject
  3
AutoSurfServices
 90
     1024
280
     0
281
     0
  0
CLASS
  1
IM_STATIC_MAN
  2
AcImStaticVarManager
  3
AcMeServices
 90
     1024
280
     0
281
     0
  0
CLASS
  1
ACIMSTRSYSVAR
  2
AcImStrSysVar
  3
AcMeServices
 90
     1024
280
     0
281
     0
  0
CLASS
  1
ACIMDBLSTATICVAR
  2
AcImDblStaticVar
  3
AcMeServices
 90
     1024
280
     0
281
     0
  0
CLASS
  1
ACIMSTRSTATICVAR
  2
AcImStrStaticVar
  3
AcMeServices
 90
     1024
280
     0
281
     0
  0
CLASS
  1
ACIMINTSTATICVAR
  2
AcImIntStaticVar
  3
AcMeServices
 90
     1024
280
     0
281
     0
  0
CLASS
  1
ACASGREFMASTER
  2
AcAsGrefMaster
  3
AutoSurfResolverServices
 90
     1024
280
     0
281
     0
  0
CLASS
  1
ACADGREFMODULE
  2
AcAdGrefModule
  3
AdGrefServices
 90
     1024
280
     0
281
     0
  0
CLASS
  1
AMDTMAPISURFMOUDULE
  2
AmdtMApiSurfModule
  3
MApiSurfServices
 90
     1024
280
     0
281
     0
  0
CLASS
  1
MAPIAMMOUDLE
  2
MApiAmModule
  3
MApiAmServices
 90
     1024
280
     0
281
     0
  0
CLASS
  1
AMDTADMENUSTATE
  2
AmdtAdMenuState
  3
DesignerServices
 90
     1024
280
     0
281
     0
  0
CLASS
  1
ADAPPL
  2
AcAdAppl
  3
DesignerServices
 90
     1024
280
     0
281
     0
  0
CLASS
  1
DEPMGR
  2
AcAdDepMgr
  3
DesignerServices
 90
     1024
280
     0
281
     0
  0
CLASS
  1
PARAMMGR
  2
AcAdParamMgr
  3
DesignerServices
 90
     1024
280
     0
281
     0
  0
CLASS
  1
PARAMSCOPE
  2
AcAdParamScope
  3
DesignerServices
 90
     1024
280
     0
281
     0
  0
CLASS
  1
NAMEDAPPL
  2
AcAdNamedAppl
  3
DesignerServices
 90
     1024
280
     0
281
     0
  0
CLASS
  1
AMDTDMMENUSTATE
  2
AmdtDmMenuState
  3
AcMechDwgViewMgmt
 90
     1024
280
     0
281
     0
  0
CLASS
  1
MAPIADMODULE
  2
MApiAdModule
  3
MApiAdServices
 90
     1024
280
     0
281
     0
  0
CLASS
  1
AMDTAMMENUSTATE
  2
AmdtAmMenuState
  3
DesignerAssemblies
 90
     1024
280
     0
281
     0
  0
CLASS
  1
ACAMPROJECT
  2
AcAmProject
  3
DesignerAssemblies
 90
     1024
280
     0
281
     0
  0
CLASS
  1
ACAMGRCOMPDEF
  2
AcAmGrCompDef
  3
DesignerAssemblies
 90
     1024
280
     0
281
     0
  0
CLASS
  1
ACCMCONTEXT
  2
AcCmContext
  3
DesignerAssemblies
 90
     1024
280
     0
281
     0
  0
CLASS
  1
ACAMCOMPDEF
  2
AcAmCompDef
  3
DesignerAssemblies
 90
     1024
280
     0
281
     0
  0
CLASS
  1
ACAMCOMPDEFMGR
  2
AcAmCompDefMgr
  3
DesignerAssemblies
 90
     1024
280
     0
281
     0
  0
CLASS
  1
AMCONTEXTMGR
  2
AcAmContextMgr
  3
DesignerAssemblies
 90
     1024
280
     0
281
     0
  0
CLASS
  1
ACAMCONTEXTMODELER
  2
AcAmContextModeler
  3
DesignerAssemblies
 90
     1024
280
     0
281
     0
  0
CLASS
  1
ACMDATADICTIONARY
  2
AcmDataDictionary
  3
"AcmSymBB|Product Description: AutoCAD Mechanical|Company: Autodesk, Inc."
 90
     1024
280
     0
281
     0
  0
CLASS
  1
ACMDATAENTRYBLOCK
  2
AcmDataEntryBlock
  3
AcmSymBB|Product Description: AutoCAD Mechanical|Company: Autodesk, Inc.
 90
     1024
280
     0
281
     0
  0
CLASS
  1
ACRFATTGENMGR
  2
AcRfAttGeneralMgr
  3
AcAttribServices
 90
     1024
280
     0
281
     0
  0
CLASS
  1
ACRFOBJATTMGR
  2
AcRfObjAttGroupMgr
  3
AcAttribServices
 90
     1024
280
     0
281
     0
  0
CLASS
  1
ACRFMCADAPIATTHOLDER
  2
AcRfMCADAPIAttHolder
  3
AcAttribServices
 90
     1024
280
     0
281
     0
  0
CLASS
  1
AMDTSYSATTR
  2
AmdtSystemAttribute
  3
AcAttribServices
 90
     1024
280
     0
281
     0
  0
CLASS
  1
CATALOGSTATE
  2
AcAmCatalogState
  3
DesignerAssemblies
 90
     1024
280
     0
281
     0
  0
CLASS
  1
ACAMGRCOMPDEFSET
  2
AcAmGrCompDefSet
  3
DesignerAssemblies
 90
     1024
280
     0
281
     0
  0
CLASS
  1
AMDTBROWSERDBTAB
  2
AmdtBrowserDbTab
  3
McadcomServices
 90
     1024
280
     0
281
     0
  0
CLASS
  1
CBROWSERAPPOBJECT
  2
CBrowserAppObject
  3
McadcomServices
 90
     1024
280
     0
281
     0
  0
CLASS
  1
DM_PLACEHOLDER
  2
AcDmSelsetPlaceholder
  3
AcMechDwgViewMgmt
 90
     1024
280
     0
281
     0
  0
CLASS
  1
ACMSTANDARDANSI
  2
AcmStandardANSI
  3
"Amdt_StdImp|Product Description: AutoCAD Mechanical|Company: Autodesk, Inc."
 90
     1024
280
     0
281
     0
  0
CLASS
  1
ACMSURFSTANDARDANSI
  2
AcmSurfTextStdANSI
  3
"Amdt_StdImp|Product Description: AutoCAD Mechanical|Company: Autodesk, Inc."
 90
     1024
280
     0
281
     0
  0
CLASS
  1
ACMFCFSTANDARDANSI
  2
AcmFCFStdANSI
  3
"Amdt_StdImp|Product Description: AutoCAD Mechanical|Company: Autodesk, Inc."
 90
     1024
280
     0
281
     0
  0
CLASS
  1
ACMWELDSTANDARDANSI
  2
AcmWeldingStdANSI
  3
"Amdt_StdImp|Product Description: AutoCAD Mechanical|Company: Autodesk, Inc."
 90
     1024
280
     0
281
     0
  0
CLASS
  1
ACMIDSTANDARDANSI
  2
AcmIdStdANSI
  3
"Amdt_StdImp|Product Description: AutoCAD Mechanical|Company: Autodesk, Inc."
 90
     1024
280
     0
281
     0
  0
CLASS
  1
ACMDATUMSTANDARDANSI
  2
AcmDatumStdANSI
  3
"Amdt_StdImp|Product Description: AutoCAD Mechanical|Company: Autodesk, Inc."
 90
     1024
280
     0
281
     0
  0
CLASS
  1
ACMBOMSTANDARDANSI
  2
AcmBOMStdANSI
  3
"Amdt_StdImp|Product Description: AutoCAD Mechanical|Company: Autodesk, Inc."
 90
     1024
280
     0
281
     0
  0
CLASS
  1
ACMDETAILSTANDARDANSI
  2
AmdtDetailSymStdANSI
  3
"Amdt_StdImp|Product Description: AutoCAD Mechanical|Company: Autodesk, Inc."
 90
     1024
280
     0
281
     0
  0
CLASS
  1
ACMSECTIONSTANDARDANSI
  2
AmdtSectionSymStdANSI
  3
"Amdt_StdImp|Product Description: AutoCAD Mechanical|Company: Autodesk, Inc."
 90
     1024
280
     0
281
     0
  0
CLASS
  1
ACMCENTERLINESTANDARDANSI
  2
AmdtCenterLineStdANSI
  3
"Amdt_StdImp|Product Description: AutoCAD Mechanical|Company: Autodesk, Inc."
 90
     1024
280
     0
281
     0
  0
CLASS
  1
ACMTHREADLINESTANDARDANSI
  2
AmdtThreadLineStdANSI
  3
"Amdt_StdImp|Product Description: AutoCAD Mechanical|Company: Autodesk, Inc."
 90
     1024
280
     0
281
     0
  0
CLASS
  1
ACMNOTESTANDARDANSI
  2
AmdtNoteStdANSI
  3
"Amdt_StdImp|Product Description: AutoCAD Mechanical|Company: Autodesk, Inc."
 90
     1024
280
     0
281
     0
  0
CLASS
  1
ACMTAPERSTANDARDANSI
  2
AcmTaperStdANSI
  3
"Amdt_StdImp|Product Description: AutoCAD Mechanical|Company: Autodesk, Inc."
 90
     1024
280
     0
281
     0
  0
CLASS
  1
ACMANOOTATIONVIEWSTANDARDANSI
  2
AmdtAnViewStdANSI
  3
"Amdt_StdImp|Product Description: AutoCAD Mechanical|Company: Autodesk, Inc."
 90
     1024
280
     0
281
     0
  0
CLASS
  1
ACAMGLAYSTD
  2
AcAmgLayStd
  3
"AmgLay|Product Description: AutoCAD Mechanical|Company: Autodesk, Inc."
 90
     1024
280
     0
281
     0
  0
CLASS
  1
ACAMGDIMSTD
  2
AcAmgDimStd
  3
"AmgDim|Product Description: AutoCAD Mechanical|Company: Autodesk, Inc."
 90
     1024
280
     0
281
     0
  0
CLASS
  1
ACAMGHOLECHARTSTDANSI
  2
AcAmgHoleChartStdANSI
  3
AmgDim|Product Description: AutoCAD Mechanical|Company: Autodesk, Inc.
 90
     1024
280
     0
281
     0
  0
CLASS
  1
AMGOBJPROPCFG
  2
AmgObjPropCfg
  3
"AmgLay|Product Description: AutoCAD Mechanical|Company: Autodesk, Inc."
 90
     1025
280
     0
281
     0
  0
CLASS
  1
ACAMGTITLESTD
  2
AcAmgTitleStd
  3
"AmgTitle|Product Description: AutoCAD Mechanical|Company: Autodesk, Inc."
 90
     4095
280
     0
281
     0
  0
CLASS
  1
AMDTNOTETEMPLATEDB
  2
AmdtNoteTemplateDB
  3
AcmSymBB|Product Description: AutoCAD Mechanical|Company: Autodesk, Inc.
 90
     1024
280
     0
281
     0
  0
CLASS
  1
LAYER_INDEX
  2
AcDbLayerIndex
  3
ObjectDBX Classes
 90
        0
280
     0
281
     0
  0
CLASS
  1
IDBUFFER
  2
AcDbIdBuffer
  3
ObjectDBX Classes
 90
        0
280
     0
281
     0
  0
CLASS
  1
DICTIONARYVAR
  2
AcDbDictionaryVar
  3
ObjectDBX Classes
 90
        0
280
     0
281
     0
  0
CLASS
  1
CELLSTYLEMAP
  2
AcDbCellStyleMap
  3
ObjectDBX Classes
 90
     1152
280
     0
281
     0
  0
CLASS
  1
ACDBPLACEHOLDER
  2
AcDbPlaceHolder
  3
ObjectDBX Classes
 90
        0
280
     0
281
     0
  0
CLASS
  1
LAYOUT
  2
AcDbLayout
  3
ObjectDBX Classes
 90
        0
280
     0
281
     0
  0
ENDSEC
  0
SECTION
  2
TABLES
  0
TABLE
  2
VPORT
  5
4E3C
330
0
100
AcDbSymbolTable
 70
     1
  0
VPORT
  5
4EAC
330
4E3C
100
AcDbSymbolTableRecord
100
AcDbViewportTableRecord
  2
*ACTIVE
 70
     0
 10
0.0
 20
0.0
 11
1.0
 21
1.0
 12
0.0
 22
0.0
 13
0.0
 23
0.0
 14
1.0
 24
1.0
 15
0.0
 25
0.0
 16
0.0
 26
0.0
 36
1.0
 17
65.9385820221361
 27
206.0394387296856
 37
0.0
 40
990.0611944363509
 41
1.712555066079295
 42
50.0
 43
0.0
 44
0.0
 50
0.0
 51
0.0
 71
     0
 72
   100
 73
     1
 74
     0
 75
     0
 76
     0
 77
     0
 78
     0
281
     0
 65
     0
110
0.0
120
0.0
130
0.0
111
1.0
121
0.0
131
0.0
112
0.0
122
1.0
132
0.0
 79
     0
146
0.0
  0
ENDTAB
  0
TABLE
  2
LTYPE
  5
4E39
330
0
100
AcDbSymbolTable
 70
    19
  0
LTYPE
  5
4E96
330
4E39
100
AcDbSymbolTableRecord
100
AcDbLinetypeTableRecord
  2
ByBlock
 70
     0
  3

 72
    65
 73
     0
 40
0.0
  0
LTYPE
  5
4E97
330
4E39
100
AcDbSymbolTableRecord
100
AcDbLinetypeTableRecord
  2
ByLayer
 70
     0
  3

 72
    65
 73
     0
 40
0.0
  0
LTYPE
  5
4E98
330
4E39
100
AcDbSymbolTableRecord
100
AcDbLinetypeTableRecord
  2
CONTINUOUS
 70
     0
  3
実線
 72
    65
 73
     0
 40
0.0
  0
LTYPE
  5
4EAD
330
4E39
100
AcDbSymbolTableRecord
100
AcDbLinetypeTableRecord
  2
DASHDOT
 70
     0
  3
____ _ ____ _ ____ _ ____ _ ____ _ ____ _ ____
 72
    65
 73
     4
 40
5.5
 49
4.0
 74
     0
 49
-0.6
 74
     0
 49
0.3
 74
     0
 49
-0.6
 74
     0
  0
LTYPE
  5
4EAE
330
4E39
100
AcDbSymbolTableRecord
100
AcDbLinetypeTableRecord
  2
HIDDEN
 70
     0
  3
Hidden __ __ __ __ __ __ __ __ __ __ __ __ __ _
 72
    65
 73
     2
 40
0.375
 49
0.25
 74
     0
 49
-0.125
 74
     0
  0
LTYPE
  5
4EAF
330
4E39
100
AcDbSymbolTableRecord
100
AcDbLinetypeTableRecord
  2
PHANTOM2
 70
     0
  3
Phantom (.5x) ___ _ _ ___ _ _ ___ _ _ ___ _ _
 72
    65
 73
     6
 40
1.25
 49
0.625
 74
     0
 49
-0.125
 74
     0
 49
0.125
 74
     0
 49
-0.125
 74
     0
 49
0.125
 74
     0
 49
-0.125
 74
     0
  0
LTYPE
  5
4EB0
330
4E39
100
AcDbSymbolTableRecord
100
AcDbLinetypeTableRecord
  2
CENTER
 70
     0
  3
Center ____ _ ____ _ ____ _ ____ _ ____ _ ____
 72
    65
 73
     4
 40
2.0
 49
1.25
 74
     0
 49
-0.25
 74
     0
 49
0.25
 74
     0
 49
-0.25
 74
     0
  0
LTYPE
  5
4EB1
330
4E39
100
AcDbSymbolTableRecord
100
AcDbLinetypeTableRecord
  2
ASULTYPE
 70
     0
  3
実線
 72
    65
 73
     2
 40
3.0
 49
2.5
 74
     0
 49
0.5
 74
     0
  0
LTYPE
  5
4EB2
330
4E39
100
AcDbSymbolTableRecord
100
AcDbLinetypeTableRecord
  2
ASVLTYPE
 70
     0
  3
__ __ __ __ __ __ __ __ __ __ __ __ __ __ __ __ __ __ __ __ __
 72
    65
 73
     2
 40
0.75
 49
0.5
 74
     0
 49
-0.25
 74
     0
  0
LTYPE
  5
4EB3
330
4E39
100
AcDbSymbolTableRecord
100
AcDbLinetypeTableRecord
  2
AM_ISO02W050
 70
     0
  3
__ __ __ __ __ __ __ __ __ __ __ __ __ __ __
 72
    65
 73
     2
 40
7.5
 49
6.0
 74
     0
 49
-1.5
 74
     0
  0
LTYPE
  5
4EB4
330
4E39
100
AcDbSymbolTableRecord
100
AcDbLinetypeTableRecord
  2
AM_ISO08W050
 70
     0
  3
____ . ____ . ____ . ____ . ____ . ____ . ____
 72
    65
 73
     4
 40
18.0
 49
12.0
 74
     0
 49
-1.5
 74
     0
 49
3.0
 74
     0
 49
-1.5
 74
     0
  0
LTYPE
  5
4EB5
330
4E39
100
AcDbSymbolTableRecord
100
AcDbLinetypeTableRecord
  2
AM_ISO09W050
 70
     0
  3
_____ . . _____ . . _____ . . ____ .. ____
 72
    65
 73
     6
 40
22.5
 49
12.0
 74
     0
 49
-1.5
 74
     0
 49
3.0
 74
     0
 49
-1.5
 74
     0
 49
3.0
 74
     0
 49
-1.5
 74
     0
  0
LTYPE
  5
4EB6
330
4E39
100
AcDbSymbolTableRecord
100
AcDbLinetypeTableRecord
  2
AMCONSTR
 70
     0
  3
_______________________
 72
    65
 73
     2
 40
9999.0
 49
9999.0
 74
     0
 49
0.0
 74
     0
  0
LTYPE
  5
4EB7
330
4E39
100
AcDbSymbolTableRecord
100
AcDbLinetypeTableRecord
  2
AM_ISO08W050X2
 70
     0
  3
__ . __ . __ . __ . __ . __
 72
    65
 73
     4
 40
9.0
 49
6.0
 74
     0
 49
-0.75
 74
     0
 49
1.5
 74
     0
 49
-0.75
 74
     0
  0
LTYPE
  5
4EB8
330
4E39
100
AcDbSymbolTableRecord
100
AcDbLinetypeTableRecord
  2
AM_ISO02W050X2
 70
     0
  3
 _ _ _ _ _ _ _ _ _ _ _ _
 72
    65
 73
     2
 40
3.75
 49
3.0
 74
     0
 49
-0.75
 74
     0
  0
LTYPE
  5
4EB9
330
4E39
100
AcDbSymbolTableRecord
100
AcDbLinetypeTableRecord
  2
AMZIGZAG
 70
     0
  3
/\/-/\/-/\/-/\/-/\/-/\/
 72
    65
 73
     2
 40
11.0001
 49
0.0001
 74
     0
 49
-11.0
 74
     0
  0
LTYPE
  5
4EBA
330
4E39
100
AcDbSymbolTableRecord
100
AcDbLinetypeTableRecord
  2
CENTER2
 70
     0
  3
Center (.5x) ___ _ ___ _ ___ _ ___ _ ___ _ ___
 72
    65
 73
     4
 40
1.125
 49
0.75
 74
     0
 49
-0.125
 74
     0
 49
0.125
 74
     0
 49
-0.125
 74
     0
  0
LTYPE
  5
4EBB
330
4E39
100
AcDbSymbolTableRecord
100
AcDbLinetypeTableRecord
  2
HIDDEN2
 70
     0
  3
Hidden (.5x) _ _ _ _ _ _ _ _ _ _ _ _ _ _ _ _ _
 72
    65
 73
     2
 40
0.1875
 49
0.125
 74
     0
 49
-0.0625
 74
     0
  0
LTYPE
  5
4EBC
330
4E39
100
AcDbSymbolTableRecord
100
AcDbLinetypeTableRecord
  2
AMZIGZAG2
 70
     0
  3
/\/-/\/-/\/-/\/-/\/-/\/
 72
    65
 73
     2
 40
0.4401
 49
0.0001
 74
     0
 49
-0.4400000000000003
 74
     0
  0
LTYPE
  5
4EBD
330
4E39
100
AcDbSymbolTableRecord
100
AcDbLinetypeTableRecord
  2
ACANSTGB
 70
     0
  3
__ . . __ . .
 72
    65
 73
     6
 40
0.35433070866
 49
0.15748031496
 74
     0
 49
-0.03937007874
 74
     0
 49
0.03937007874
 74
     0
 49
-0.03937007874
 74
     0
 49
0.03937007874
 74
     0
 49
-0.03937007874
 74
     0
  0
LTYPE
  5
4EBE
330
4E39
100
AcDbSymbolTableRecord
100
AcDbLinetypeTableRecord
  2
ACANSTGL
 70
     0
  3
_ _ _ _ _
 72
    65
 73
     2
 40
0.11811023622
 49
0.07874015748
 74
     0
 49
-0.03937007874
 74
     0
  0
ENDTAB
  0
TABLE
  2
LAYER
  5
4E36
330
0
100
AcDbSymbolTable
 70
    12
  0
LAYER
  5
4E90
102
{ACAD_XDICTIONARY
360
5055
102
}
330
4E36
100
AcDbSymbolTableRecord
100
AcDbLayerTableRecord
  2
0
 70
     0
 62
     7
  6
CONTINUOUS
370
    -3
390
4E43
  0
LAYER
  5
4EBF
102
{ACAD_XDICTIONARY
360
5057
102
}
330
4E36
100
AcDbSymbolTableRecord
100
AcDbLayerTableRecord
  2
OUTLINE
 70
     0
 62
     3
  6
CONTINUOUS
370
    -3
390
4E43
  0
LAYER
  5
4EC0
102
{ACAD_XDICTIONARY
360
5059
102
}
330
4E36
100
AcDbSymbolTableRecord
100
AcDbLayerTableRecord
  2
SIZE
 70
     0
 62
    30
  6
CONTINUOUS
370
    -3
390
4E43
  0
LAYER
  5
4EC1
102
{ACAD_XDICTIONARY
360
505B
102
}
330
4E36
100
AcDbSymbolTableRecord
100
AcDbLayerTableRecord
  2
BASIS
 70
     0
 62
     6
  6
DASHDOT
370
    -3
390
4E43
  0
LAYER
  5
4EC2
102
{ACAD_XDICTIONARY
360
505D
102
}
330
4E36
100
AcDbSymbolTableRecord
100
AcDbLayerTableRecord
  2
DETAIL
 70
     0
 62
     5
  6
CONTINUOUS
370
    -3
390
4E43
  0
LAYER
  5
4EC3
102
{ACAD_XDICTIONARY
360
505F
102
}
330
4E36
100
AcDbSymbolTableRecord
100
AcDbLayerTableRecord
  2
ARRANGE
 70
     0
 62
     1
  6
CONTINUOUS
370
    -3
390
4E43
  0
LAYER
  5
4EC4
330
4E36
100
AcDbSymbolTableRecord
100
AcDbLayerTableRecord
  2
DEFPOINTS
 70
     0
 62
     7
  6
CONTINUOUS
290
     0
370
    -3
390
4E43
  0
LAYER
  5
4EC5
102
{ACAD_XDICTIONARY
360
5061
102
}
330
4E36
100
AcDbSymbolTableRecord
100
AcDbLayerTableRecord
  2
ETC
 70
     0
 62
    61
  6
CONTINUOUS
370
    -3
390
4E43
  0
LAYER
  5
4EC6
102
{ACAD_XDICTIONARY
360
5063
102
}
330
4E36
100
AcDbSymbolTableRecord
100
AcDbLayerTableRecord
  2
FIX
 70
     0
 62
    11
  6
CONTINUOUS
370
    -3
390
4E43
  0
LAYER
  5
4EC7
102
{ACAD_XDICTIONARY
360
5065
102
}
330
4E36
100
AcDbSymbolTableRecord
100
AcDbLayerTableRecord
  2
NOTE
 70
     0
 62
     4
  6
CONTINUOUS
370
    -3
390
4E43
  0
LAYER
  5
4EC8
102
{ACAD_XDICTIONARY
360
5067
102
}
330
4E36
100
AcDbSymbolTableRecord
100
AcDbLayerTableRecord
  2
SERVICESPACE
 70
     0
 62
     2
  6
DASHDOT
370
    -3
390
4E43
  0
LAYER
  5
4EC9
102
{ACAD_XDICTIONARY
360
5069
102
}
330
4E36
100
AcDbSymbolTableRecord
100
AcDbLayerTableRecord
  2
SYMBOLLINE
 70
     0
 62
    15
  6
CONTINUOUS
370
    -3
390
4E43
  0
ENDTAB
  0
TABLE
  2
STYLE
  5
4E37
330
0
100
AcDbSymbolTable
 70
     5
  0
STYLE
  5
4E91
330
4E37
100
AcDbSymbolTableRecord
100
AcDbTextStyleTableRecord
  2
STANDARD
 70
     0
 40
64.0
 41
0.9
 50
0.0
 71
     0
 42
64.0
  3
SIMPLEX.shx
  4
BIGFONT.shx
  0
STYLE
  5
4E95
330
4E37
100
AcDbSymbolTableRecord
100
AcDbTextStyleTableRecord
  2
ANNOTATIVE
 70
     0
 40
0.0
 41
1.0
 50
0.0
 71
     0
 42
0.2
  3
txt
  4

1001
ACADANNOTATIVE
1000
AnnotativeData
1002
{
1070
     1
1070
     1
1002
}
  0
STYLE
  5
4ECA
330
4E37
100
AcDbSymbolTableRecord
100
AcDbTextStyleTableRecord
  2

 70
     1
 40
0.0
 41
1.0
 50
0.0
 71
     0
 42
64.0
  3
genltshp.shx
  4

  0
STYLE
  5
4ECB
330
4E37
100
AcDbSymbolTableRecord
100
AcDbTextStyleTableRecord
  2
ACANSTS
 70
     0
 40
1.0
 41
1.0
 50
0.0
 71
     0
 42
64.0
  3
romans.shx
  4
extfont.shx
  0
STYLE
  5
4ECC
330
4E37
100
AcDbSymbolTableRecord
100
AcDbTextStyleTableRecord
  2
ACANSGDT
 70
     0
 40
0.0
 41
1.0
 50
0.0
 71
     0
 42
64.0
  3
amgdt.shx
  4

  0
ENDTAB
  0
TABLE
  2
VIEW
  5
4E3A
330
0
100
AcDbSymbolTable
 70
     1
  0
VIEW
  5
4ECD
330
4E3A
100
AcDbSymbolTableRecord
100
AcDbViewTableRecord
  2
ALL
 70
     0
 40
4282.619807999997
 10
0.0
 20
41.30990399999999
 41
5940.0
 11
0.0
 21
0.0
 31
1.0
 12
0.0
 22
0.0
 32
0.0
 42
50.0
 43
0.0
 44
0.0
 50
0.0
 71
     0
281
     0
 72
     1
110
0.0
120
0.0
130
0.0
111
1.0
121
0.0
131
0.0
112
0.0
122
1.0
132
0.0
 79
     0
146
0.0
  0
ENDTAB
  0
TABLE
  2
UCS
  5
4E3B
330
0
100
AcDbSymbolTable
 70
     0
  0
ENDTAB
  0
TABLE
  2
APPID
  5
4E3D
330
0
100
AcDbSymbolTable
 70
    33
  0
APPID
  5
4E92
330
4E3D
100
AcDbSymbolTableRecord
100
AcDbRegAppTableRecord
  2
ACAD
 70
     0
  0
APPID
  5
4E99
330
4E3D
100
AcDbSymbolTableRecord
100
AcDbRegAppTableRecord
  2
ACADANNOTATIVE
 70
     0
  0
APPID
  5
4EA3
330
4E3D
100
AcDbSymbolTableRecord
100
AcDbRegAppTableRecord
  2
ACAD_MLEADERVER
 70
     0
  0
APPID
  5
4ECE
330
4E3D
100
AcDbSymbolTableRecord
100
AcDbRegAppTableRecord
  2
GENIUS_GENDIM_13
 70
     0
  0
APPID
  5
4ECF
330
4E3D
100
AcDbSymbolTableRecord
100
AcDbRegAppTableRecord
  2
GENIUS_GENDTOL_13
 70
     0
  0
APPID
  5
4ED0
330
4E3D
100
AcDbSymbolTableRecord
100
AcDbRegAppTableRecord
  2
GENIUS_GE3DTOL_13
 70
     0
  0
APPID
  5
4ED1
330
4E3D
100
AcDbSymbolTableRecord
100
AcDbRegAppTableRecord
  2
MCAD_NO_VIS
 70
     0
  0
APPID
  5
4ED2
330
4E3D
100
AcDbSymbolTableRecord
100
AcDbRegAppTableRecord
  2
ACAD_TEMP_GRAPHIC
 70
     0
  0
APPID
  5
4ED3
330
4E3D
100
AcDbSymbolTableRecord
100
AcDbRegAppTableRecord
  2
AD_DRAW
 70
     0
  0
APPID
  5
4ED4
330
4E3D
100
AcDbSymbolTableRecord
100
AcDbRegAppTableRecord
  2
ACATTRIBSERVICES
 70
     0
  0
APPID
  5
4ED5
330
4E3D
100
AcDbSymbolTableRecord
100
AcDbRegAppTableRecord
  2
ASURF_PCURVE_APPNAME
 70
     0
  0
APPID
  5
4ED6
330
4E3D
100
AcDbSymbolTableRecord
100
AcDbRegAppTableRecord
  2
AMG_3D2D_5_0
 70
     0
  0
APPID
  5
4ED7
330
4E3D
100
AcDbSymbolTableRecord
100
AcDbRegAppTableRecord
  2
DESIGNERASSEMBLIES
 70
     0
  0
APPID
  5
4ED8
330
4E3D
100
AcDbSymbolTableRecord
100
AcDbRegAppTableRecord
  2
ACADM_DIM_EDIT
 70
     0
  0
APPID
  5
4ED9
330
4E3D
100
AcDbSymbolTableRecord
100
AcDbRegAppTableRecord
  2
AMDT_DM_ADJ
 70
     0
  0
APPID
  5
4EDA
330
4E3D
100
AcDbSymbolTableRecord
100
AcDbRegAppTableRecord
  2
ACAD_DSTYLE_DIMARC_LENGTH_
 70
     0
  0
APPID
  5
4EDB
330
4E3D
100
AcDbSymbolTableRecord
100
AcDbRegAppTableRecord
  2
ACAD_DSTYLE_DIMJOGGED_JOGA
 70
     0
  0
APPID
  5
4EDC
330
4E3D
100
AcDbSymbolTableRecord
100
AcDbRegAppTableRecord
  2
ACAD_PSEXT
 70
     0
  0
APPID
  5
4EDD
330
4E3D
100
AcDbSymbolTableRecord
100
AcDbRegAppTableRecord
  2
ACAD_EXEMPT_FROM_CAD_STANDARDS
 70
     0
  0
APPID
  5
4EDE
330
4E3D
100
AcDbSymbolTableRecord
100
AcDbRegAppTableRecord
  2
ACAD_DSTYLE_DIMJAG
 70
     0
  0
APPID
  5
4EDF
330
4E3D
100
AcDbSymbolTableRecord
100
AcDbRegAppTableRecord
  2
ACAD_DSTYLE_DIMTALN
 70
     0
  0
APPID
  5
4EE0
330
4E3D
100
AcDbSymbolTableRecord
100
AcDbRegAppTableRecord
  2
AMG_3D2D_5_00
 70
     0
  0
APPID
  5
4EE1
330
4E3D
100
AcDbSymbolTableRecord
100
AcDbRegAppTableRecord
  2
AMG_3D2D_5_01
 70
     0
  0
APPID
  5
4EE2
330
4E3D
100
AcDbSymbolTableRecord
100
AcDbRegAppTableRecord
  2
AMG_3D2D_5_02
 70
     0
  0
APPID
  5
4EE3
330
4E3D
100
AcDbSymbolTableRecord
100
AcDbRegAppTableRecord
  2
AMG_3D2D_5_03
 70
     0
  0
APPID
  5
4EE4
330
4E3D
100
AcDbSymbolTableRecord
100
AcDbRegAppTableRecord
  2
AMG_3D2D_5_04
 70
     0
  0
APPID
  5
4EE5
330
4E3D
100
AcDbSymbolTableRecord
100
AcDbRegAppTableRecord
  2
AMG_3D2D_5_05
 70
     0
  0
APPID
  5
4EE6
330
4E3D
100
AcDbSymbolTableRecord
100
AcDbRegAppTableRecord
  2
AMG_3D2D_5_06
 70
     0
  0
APPID
  5
4FFC
330
4E3D
100
AcDbSymbolTableRecord
100
AcDbRegAppTableRecord
  2
AMG_3D2D_5.0
 70
     0
  0
APPID
  5
5092
330
4E3D
100
AcDbSymbolTableRecord
100
AcDbRegAppTableRecord
  2
ACAD_DSTYLE_DIMARC_LENGTH_SYMBOL
 70
     0
  0
APPID
  5
5093
330
4E3D
100
AcDbSymbolTableRecord
100
AcDbRegAppTableRecord
  2
ACAD_DSTYLE_DIM_LINETYPE
 70
     0
  0
APPID
  5
5094
330
4E3D
100
AcDbSymbolTableRecord
100
AcDbRegAppTableRecord
  2
ACAD_DSTYLE_DIM_EXT1_LINETYPE
 70
     0
  0
APPID
  5
5095
330
4E3D
100
AcDbSymbolTableRecord
100
AcDbRegAppTableRecord
  2
ACAD_DSTYLE_DIM_EXT2_LINETYPE
 70
     0
  0
ENDTAB
  0
TABLE
  2
DIMSTYLE
  5
4E3E
330
0
100
AcDbSymbolTable
 70
    10
100
AcDbDimStyleTable
 71
     1
340
4EE7
  0
DIMSTYLE
105
4E93
330
4E3E
100
AcDbSymbolTableRecord
100
AcDbDimStyleTableRecord
  2
STANDARD
 70
     0
 41
12.0
 42
20.0
 44
20.0
 77
     1
 78
     8
140
64.0
141
0.0
147
10.0
275
     1
279
     2
284
     7
285
     7
286
     7
340
4E91
  0
DIMSTYLE
105
4E94
330
4E3E
100
AcDbSymbolTableRecord
100
AcDbDimStyleTableRecord
  2
ANNOTATIVE
 70
     0
275
     1
279
     2
284
     7
285
     7
286
     7
340
4E91
1001
ACADANNOTATIVE
1000
AnnotativeData
1002
{
1070
     1
1070
     1
1002
}
  0
DIMSTYLE
105
4EE7
330
4E3E
100
AcDbSymbolTableRecord
100
AcDbDimStyleTableRecord
  2
AM_ANSI
 70
     0
  4
mm
 41
0.12
 42
0.05
 43
0.5
 44
0.1
 47
0.1
 48
0.1
 78
     7
 79
     2
140
0.12
141
0.0
146
0.71
147
0.06
176
   256
177
   256
178
     2
274
     4
284
     7
340
4E91
371
    -1
372
    -1
1001
ACAD_DSTYLE_DIMARC_LENGTH_SYMBOL
1070
   379
1070
     1
1001
ACAD_DSTYLE_DIM_LINETYPE
1070
   380
1005
4E96
1001
ACAD_DSTYLE_DIM_EXT1_LINETYPE
1070
   381
1005
4E96
1001
ACAD_DSTYLE_DIM_EXT2_LINETYPE
1070
   382
1005
4E96
  0
DIMSTYLE
105
4EE8
330
4E3E
100
AcDbSymbolTableRecord
100
AcDbDimStyleTableRecord
  2
AM_ANSI$3
 70
     0
  4
mm
 41
0.12
 42
0.05
 43
0.5
 44
0.1
 47
0.1
 48
0.1
 78
     7
 79
     2
140
0.12
141
0.0
146
0.71
147
0.06
176
   256
177
   256
178
     2
274
     4
284
     7
288
     1
289
     0
340
4E91
371
    -1
372
    -1
1001
ACAD_DSTYLE_DIMARC_LENGTH_SYMBOL
1070
   379
1070
     1
1001
ACAD_DSTYLE_DIM_LINETYPE
1070
   380
1005
4E96
1001
ACAD_DSTYLE_DIM_EXT1_LINETYPE
1070
   381
1005
4E96
1001
ACAD_DSTYLE_DIM_EXT2_LINETYPE
1070
   382
1005
4E96
  0
DIMSTYLE
105
4EE9
330
4E3E
100
AcDbSymbolTableRecord
100
AcDbDimStyleTableRecord
  2
AM_ANSI$4
 70
     0
  4
mm
 41
0.12
 42
0.05
 43
0.5
 44
0.1
 47
0.1
 48
0.1
 78
     7
 79
     2
140
0.12
141
0.0
146
0.71
147
0.06
176
   256
177
   256
178
     2
274
     4
284
     7
340
4E91
371
    -1
372
    -1
1001
ACAD_DSTYLE_DIMARC_LENGTH_SYMBOL
1070
   379
1070
     1
1001
ACAD_DSTYLE_DIM_LINETYPE
1070
   380
1005
4E96
1001
ACAD_DSTYLE_DIM_EXT1_LINETYPE
1070
   381
1005
4E96
1001
ACAD_DSTYLE_DIM_EXT2_LINETYPE
1070
   382
1005
4E96
  0
DIMSTYLE
105
4EEA
330
4E3E
100
AcDbSymbolTableRecord
100
AcDbDimStyleTableRecord
  2
AM_ANSI$7
 70
     0
  4
mm
 41
0.12
 42
0.05
 43
0.5
 44
0.1
 47
0.1
 48
0.1
 78
     7
 79
     2
140
0.12
141
0.0
146
0.71
147
0.06
176
   256
177
   256
178
     2
274
     4
284
     7
340
4E91
371
    -1
372
    -1
1001
ACAD_DSTYLE_DIMARC_LENGTH_SYMBOL
1070
   379
1070
     1
1001
ACAD_DSTYLE_DIM_LINETYPE
1070
   380
1005
4E96
1001
ACAD_DSTYLE_DIM_EXT1_LINETYPE
1070
   381
1005
4E96
1001
ACAD_DSTYLE_DIM_EXT2_LINETYPE
1070
   382
1005
4E96
  0
DIMSTYLE
105
4EEB
330
4E3E
100
AcDbSymbolTableRecord
100
AcDbDimStyleTableRecord
  2
AM_ANSI$SF
 70
     0
  4
mm
 41
0.12
 42
0.05
 43
0.5
 44
0.1
 47
0.1
 48
0.1
 75
     1
 76
     1
 78
     7
 79
     2
140
0.12
141
0.0
146
0.71
147
0.06
176
   256
177
   256
178
     2
274
     4
284
     7
340
4E91
371
    -1
372
    -1
1001
ACAD_DSTYLE_DIMARC_LENGTH_SYMBOL
1070
   379
1070
     1
1001
ACAD_DSTYLE_DIM_LINETYPE
1070
   380
1005
4E96
1001
ACAD_DSTYLE_DIM_EXT1_LINETYPE
1070
   381
1005
4E96
1001
ACAD_DSTYLE_DIM_EXT2_LINETYPE
1070
   382
1005
4E96
  0
DIMSTYLE
105
4EEC
330
4E3E
100
AcDbSymbolTableRecord
100
AcDbDimStyleTableRecord
  2
AM_ANSI$SH
 70
     0
  4
mm
 41
0.12
 42
0.05
 43
0.5
 44
0.1
 47
0.1
 48
0.1
 75
     1
 76
     1
 78
     7
 79
     2
140
0.12
141
0.0
146
0.71
147
0.06
173
     1
176
   256
177
   256
178
     2
274
     4
284
     7
340
4E91
343
4F0C
371
    -1
372
    -1
1001
ACAD_DSTYLE_DIMARC_LENGTH_SYMBOL
1070
   379
1070
     1
1001
ACAD_DSTYLE_DIM_LINETYPE
1070
   380
1005
4E96
1001
ACAD_DSTYLE_DIM_EXT1_LINETYPE
1070
   381
1005
4E96
1001
ACAD_DSTYLE_DIM_EXT2_LINETYPE
1070
   382
1005
4E96
  0
DIMSTYLE
105
4EED
330
4E3E
100
AcDbSymbolTableRecord
100
AcDbDimStyleTableRecord
  2
STANDARD1
 70
     0
 40
6.0
 41
2.5
 42
0.625
 43
6.0
 44
1.25
 47
1.0
 48
0.5
 77
     1
 78
     8
140
2.5
141
0.0
146
0.6
147
1.0
173
     1
275
     1
279
     2
284
     7
285
     7
286
     7
340
4E91
  0
DIMSTYLE
105
4EEE
330
4E3E
100
AcDbSymbolTableRecord
100
AcDbDimStyleTableRecord
  2
STANDARD$0
 70
     0
 41
12.0
 42
20.0
 44
20.0
 73
     0
 74
     0
 77
     1
 78
     8
140
64.0
141
0.0
147
10.0
275
     1
279
     2
284
     7
285
     7
286
     7
340
4E91
  0
ENDTAB
  0
TABLE
  2
BLOCK_RECORD
  5
4E35
330
0
100
AcDbSymbolTable
 70
    67
  0
BLOCK_RECORD
  5
4EA8
102
{ACAD_XDICTIONARY
360
506B
102
}
330
4E35
100
AcDbSymbolTableRecord
100
AcDbBlockTableRecord
  2
*Model_Space
340
4EAB
  0
BLOCK_RECORD
  5
4EA4
330
4E35
100
AcDbSymbolTableRecord
100
AcDbBlockTableRecord
  2
*Paper_Space
340
4EA7
  0
BLOCK_RECORD
  5
4EF6
330
4E35
100
AcDbSymbolTableRecord
100
AcDbBlockTableRecord
  2
$MODEL_SPACE
340
0
  0
BLOCK_RECORD
  5
4EF8
330
4E35
100
AcDbSymbolTableRecord
100
AcDbBlockTableRecord
  2
$PAPER_SPACE
340
0
  0
BLOCK_RECORD
  5
4EFA
330
4E35
100
AcDbSymbolTableRecord
100
AcDbBlockTableRecord
  2
_ORIGIN
340
0
  0
BLOCK_RECORD
  5
4EFC
330
4E35
100
AcDbSymbolTableRecord
100
AcDbBlockTableRecord
  2
_DOTBLANK
340
0
102
{BLKREFS
331
1299
331
129A
331
11AA
331
11AB
331
E80
331
E81
331
1123
331
1124
331
11C2
331
11C3
331
11EC
331
11ED
331
11F9
331
11FA
331
1287
331
1288
331
1417
331
1418
331
1423
331
1424
331
142F
331
1430
331
143B
331
143C
331
166E
331
166F
331
1677
331
1678
331
1680
331
1681
331
1689
331
168A
331
1696
331
1697
331
16A3
331
16A4
331
16AF
331
16B0
331
16BB
331
16BC
331
16C7
331
16C8
331
16D3
331
16D4
331
1D86
331
1D87
331
1D8F
331
1D90
331
1D98
331
1D99
331
1DA1
331
1DA2
331
1DAB
331
1DAC
331
1DB5
331
1DB6
102
}
  0
BLOCK_RECORD
  5
4EFE
330
4E35
100
AcDbSymbolTableRecord
100
AcDbBlockTableRecord
  2
_OPEN30
340
0
102
{BLKREFS
331
2088
331
46BB
102
}
  0
BLOCK_RECORD
  5
4F00
330
4E35
100
AcDbSymbolTableRecord
100
AcDbBlockTableRecord
  2
*D5
340
0
  0
BLOCK_RECORD
  5
4F02
330
4E35
100
AcDbSymbolTableRecord
100
AcDbBlockTableRecord
  2
*U6
340
0
102
{BLKREFS
331
129B
102
}
  0
BLOCK_RECORD
  5
4F04
330
4E35
100
AcDbSymbolTableRecord
100
AcDbBlockTableRecord
  2
*D7
340
0
  0
BLOCK_RECORD
  5
4F06
330
4E35
100
AcDbSymbolTableRecord
100
AcDbBlockTableRecord
  2
*U8
340
0
102
{BLKREFS
331
11AC
102
}
  0
BLOCK_RECORD
  5
4F08
330
4E35
100
AcDbSymbolTableRecord
100
AcDbBlockTableRecord
  2
*D9
340
0
  0
BLOCK_RECORD
  5
4F0A
330
4E35
100
AcDbSymbolTableRecord
100
AcDbBlockTableRecord
  2
*U10
340
0
102
{BLKREFS
331
E82
102
}
  0
BLOCK_RECORD
  5
4F0C
330
4E35
100
AcDbSymbolTableRecord
100
AcDbBlockTableRecord
  2
GENAXEH
340
0
  0
BLOCK_RECORD
  5
4F0E
330
4E35
100
AcDbSymbolTableRecord
100
AcDbBlockTableRecord
  2
*D12
340
0
  0
BLOCK_RECORD
  5
4F10
330
4E35
100
AcDbSymbolTableRecord
100
AcDbBlockTableRecord
  2
*U13
340
0
102
{BLKREFS
331
1125
102
}
  0
BLOCK_RECORD
  5
4F12
330
4E35
100
AcDbSymbolTableRecord
100
AcDbBlockTableRecord
  2
*D14
340
0
  0
BLOCK_RECORD
  5
4F14
330
4E35
100
AcDbSymbolTableRecord
100
AcDbBlockTableRecord
  2
*U15
340
0
102
{BLKREFS
331
11C4
102
}
  0
BLOCK_RECORD
  5
4F16
330
4E35
100
AcDbSymbolTableRecord
100
AcDbBlockTableRecord
  2
*D16
340
0
  0
BLOCK_RECORD
  5
4F18
330
4E35
100
AcDbSymbolTableRecord
100
AcDbBlockTableRecord
  2
*U17
340
0
102
{BLKREFS
331
11EE
102
}
  0
BLOCK_RECORD
  5
4F1A
330
4E35
100
AcDbSymbolTableRecord
100
AcDbBlockTableRecord
  2
*D18
340
0
  0
BLOCK_RECORD
  5
4F1C
330
4E35
100
AcDbSymbolTableRecord
100
AcDbBlockTableRecord
  2
*U19
340
0
102
{BLKREFS
331
11FB
102
}
  0
BLOCK_RECORD
  5
4F1E
330
4E35
100
AcDbSymbolTableRecord
100
AcDbBlockTableRecord
  2
*D20
340
0
  0
BLOCK_RECORD
  5
4F20
330
4E35
100
AcDbSymbolTableRecord
100
AcDbBlockTableRecord
  2
*U21
340
0
102
{BLKREFS
331
1289
102
}
  0
BLOCK_RECORD
  5
4F22
330
4E35
100
AcDbSymbolTableRecord
100
AcDbBlockTableRecord
  2
*D22
340
0
  0
BLOCK_RECORD
  5
4F24
330
4E35
100
AcDbSymbolTableRecord
100
AcDbBlockTableRecord
  2
*U23
340
0
102
{BLKREFS
331
1419
102
}
  0
BLOCK_RECORD
  5
4F26
330
4E35
100
AcDbSymbolTableRecord
100
AcDbBlockTableRecord
  2
*D24
340
0
  0
BLOCK_RECORD
  5
4F28
330
4E35
100
AcDbSymbolTableRecord
100
AcDbBlockTableRecord
  2
*U25
340
0
102
{BLKREFS
331
1425
102
}
  0
BLOCK_RECORD
  5
4F2A
330
4E35
100
AcDbSymbolTableRecord
100
AcDbBlockTableRecord
  2
*D26
340
0
  0
BLOCK_RECORD
  5
4F2C
330
4E35
100
AcDbSymbolTableRecord
100
AcDbBlockTableRecord
  2
*U27
340
0
102
{BLKREFS
331
1431
102
}
  0
BLOCK_RECORD
  5
4F2E
330
4E35
100
AcDbSymbolTableRecord
100
AcDbBlockTableRecord
  2
*D28
340
0
  0
BLOCK_RECORD
  5
4F30
330
4E35
100
AcDbSymbolTableRecord
100
AcDbBlockTableRecord
  2
*U29
340
0
102
{BLKREFS
331
143D
102
}
  0
BLOCK_RECORD
  5
4F32
330
4E35
100
AcDbSymbolTableRecord
100
AcDbBlockTableRecord
  2
*D30
340
0
  0
BLOCK_RECORD
  5
4F34
330
4E35
100
AcDbSymbolTableRecord
100
AcDbBlockTableRecord
  2
*U31
340
0
102
{BLKREFS
331
1670
102
}
  0
BLOCK_RECORD
  5
4F36
330
4E35
100
AcDbSymbolTableRecord
100
AcDbBlockTableRecord
  2
*D32
340
0
  0
BLOCK_RECORD
  5
4F38
330
4E35
100
AcDbSymbolTableRecord
100
AcDbBlockTableRecord
  2
*U33
340
0
102
{BLKREFS
331
1679
102
}
  0
BLOCK_RECORD
  5
4F3A
330
4E35
100
AcDbSymbolTableRecord
100
AcDbBlockTableRecord
  2
*D34
340
0
  0
BLOCK_RECORD
  5
4F3C
330
4E35
100
AcDbSymbolTableRecord
100
AcDbBlockTableRecord
  2
*U35
340
0
102
{BLKREFS
331
1682
102
}
  0
BLOCK_RECORD
  5
4F3E
330
4E35
100
AcDbSymbolTableRecord
100
AcDbBlockTableRecord
  2
*D36
340
0
  0
BLOCK_RECORD
  5
4F40
330
4E35
100
AcDbSymbolTableRecord
100
AcDbBlockTableRecord
  2
*U37
340
0
102
{BLKREFS
331
168B
102
}
  0
BLOCK_RECORD
  5
4F42
330
4E35
100
AcDbSymbolTableRecord
100
AcDbBlockTableRecord
  2
*U38
340
0
  0
BLOCK_RECORD
  5
4F44
330
4E35
100
AcDbSymbolTableRecord
100
AcDbBlockTableRecord
  2
*D39
340
0
  0
BLOCK_RECORD
  5
4F46
330
4E35
100
AcDbSymbolTableRecord
100
AcDbBlockTableRecord
  2
*U40
340
0
102
{BLKREFS
331
1698
102
}
  0
BLOCK_RECORD
  5
4F48
330
4E35
100
AcDbSymbolTableRecord
100
AcDbBlockTableRecord
  2
*D41
340
0
  0
BLOCK_RECORD
  5
4F4A
330
4E35
100
AcDbSymbolTableRecord
100
AcDbBlockTableRecord
  2
*U42
340
0
102
{BLKREFS
331
16A5
102
}
  0
BLOCK_RECORD
  5
4F4C
330
4E35
100
AcDbSymbolTableRecord
100
AcDbBlockTableRecord
  2
*D43
340
0
  0
BLOCK_RECORD
  5
4F4E
330
4E35
100
AcDbSymbolTableRecord
100
AcDbBlockTableRecord
  2
*U44
340
0
102
{BLKREFS
331
16B1
102
}
  0
BLOCK_RECORD
  5
4F50
330
4E35
100
AcDbSymbolTableRecord
100
AcDbBlockTableRecord
  2
*D45
340
0
  0
BLOCK_RECORD
  5
4F52
330
4E35
100
AcDbSymbolTableRecord
100
AcDbBlockTableRecord
  2
*U46
340
0
102
{BLKREFS
331
16BD
102
}
  0
BLOCK_RECORD
  5
4F54
330
4E35
100
AcDbSymbolTableRecord
100
AcDbBlockTableRecord
  2
*D47
340
0
  0
BLOCK_RECORD
  5
4F56
330
4E35
100
AcDbSymbolTableRecord
100
AcDbBlockTableRecord
  2
*U48
340
0
102
{BLKREFS
331
16C9
102
}
  0
BLOCK_RECORD
  5
4F58
330
4E35
100
AcDbSymbolTableRecord
100
AcDbBlockTableRecord
  2
*D49
340
0
  0
BLOCK_RECORD
  5
4F5A
330
4E35
100
AcDbSymbolTableRecord
100
AcDbBlockTableRecord
  2
*U50
340
0
102
{BLKREFS
331
16D5
102
}
  0
BLOCK_RECORD
  5
4F5C
330
4E35
100
AcDbSymbolTableRecord
100
AcDbBlockTableRecord
  2
*D51
340
0
  0
BLOCK_RECORD
  5
4F5E
330
4E35
100
AcDbSymbolTableRecord
100
AcDbBlockTableRecord
  2
*U52
340
0
102
{BLKREFS
331
1D88
102
}
  0
BLOCK_RECORD
  5
4F60
330
4E35
100
AcDbSymbolTableRecord
100
AcDbBlockTableRecord
  2
*D53
340
0
  0
BLOCK_RECORD
  5
4F62
330
4E35
100
AcDbSymbolTableRecord
100
AcDbBlockTableRecord
  2
*U54
340
0
102
{BLKREFS
331
1D91
102
}
  0
BLOCK_RECORD
  5
4F64
330
4E35
100
AcDbSymbolTableRecord
100
AcDbBlockTableRecord
  2
*D55
340
0
  0
BLOCK_RECORD
  5
4F66
330
4E35
100
AcDbSymbolTableRecord
100
AcDbBlockTableRecord
  2
*U56
340
0
102
{BLKREFS
331
1D9A
102
}
  0
BLOCK_RECORD
  5
4F68
330
4E35
100
AcDbSymbolTableRecord
100
AcDbBlockTableRecord
  2
*D57
340
0
  0
BLOCK_RECORD
  5
4F6A
330
4E35
100
AcDbSymbolTableRecord
100
AcDbBlockTableRecord
  2
*U58
340
0
102
{BLKREFS
331
1DA3
102
}
  0
BLOCK_RECORD
  5
4F6C
330
4E35
100
AcDbSymbolTableRecord
100
AcDbBlockTableRecord
  2
*D59
340
0
  0
BLOCK_RECORD
  5
4F6E
330
4E35
100
AcDbSymbolTableRecord
100
AcDbBlockTableRecord
  2
*U60
340
0
102
{BLKREFS
331
1DAD
102
}
  0
BLOCK_RECORD
  5
4F70
330
4E35
100
AcDbSymbolTableRecord
100
AcDbBlockTableRecord
  2
*D61
340
0
  0
BLOCK_RECORD
  5
4F72
330
4E35
100
AcDbSymbolTableRecord
100
AcDbBlockTableRecord
  2
*U62
340
0
102
{BLKREFS
331
1DB7
102
}
  0
BLOCK_RECORD
  5
4F74
330
4E35
100
AcDbSymbolTableRecord
100
AcDbBlockTableRecord
  2
*U63
340
0
  0
BLOCK_RECORD
  5
4F76
330
4E35
100
AcDbSymbolTableRecord
100
AcDbBlockTableRecord
  2
*U64
340
0
  0
BLOCK_RECORD
  5
4F78
330
4E35
100
AcDbSymbolTableRecord
100
AcDbBlockTableRecord
  2
*U65
340
0
  0
ENDTAB
  0
ENDSEC
  0
SECTION
  2
BLOCKS
  0
BLOCK
  5
4EA9
330
4EA8
100
AcDbEntity
  8
0
100
AcDbBlockBegin
  2
*Model_Space
 70
     0
 10
0.0
 20
0.0
 30
0.0
  3
*Model_Space
  1

  0
ENDBLK
  5
4EAA
330
4EA8
100
AcDbEntity
  8
0
100
AcDbBlockEnd
  0
BLOCK
  5
4EA5
330
4EA4
100
AcDbEntity
 67
     1
  8
0
100
AcDbBlockBegin
  2
*Paper_Space
 70
     0
 10
0.0
 20
0.0
 30
0.0
  3
*Paper_Space
  1

  0
ENDBLK
  5
4EA6
330
4EA4
100
AcDbEntity
 67
     1
  8
0
100
AcDbBlockEnd
  0
BLOCK
  5
4EF7
330
4EF6
100
AcDbEntity
  8
0
100
AcDbBlockBegin
  2
$MODEL_SPACE
 70
     0
 10
0.0
 20
0.0
 30
0.0
  3
$MODEL_SPACE
  1

  0
ENDBLK
  5
4C48
330
4EF6
100
AcDbEntity
  8
0
100
AcDbBlockEnd
  0
BLOCK
  5
4EF9
330
4EF8
100
AcDbEntity
  8
0
100
AcDbBlockBegin
  2
$PAPER_SPACE
 70
     0
 10
0.0
 20
0.0
 30
0.0
  3
$PAPER_SPACE
  1

  0
ENDBLK
  5
4C44
330
4EF8
100
AcDbEntity
  8
0
100
AcDbBlockEnd
  0
BLOCK
  5
4EFB
330
4EFA
100
AcDbEntity
  8
0
100
AcDbBlockBegin
  2
_ORIGIN
 70
     0
 10
0.0
 20
0.0
 30
0.0
  3
_ORIGIN
  1

  0
CIRCLE
  5
880
330
4EFA
100
AcDbEntity
  8
0
  6
Continuous
 62
     7
100
AcDbCircle
 10
0.0
 20
0.0
 30
0.0
 40
0.5
  0
LINE
  5
881
330
4EFA
100
AcDbEntity
  8
0
  6
Continuous
 62
     7
100
AcDbLine
 10
0.0
 20
0.0
 30
0.0
 11
-1.0
 21
0.0
 31
0.0
  0
ENDBLK
  5
882
330
4EFA
100
AcDbEntity
  8
0
100
AcDbBlockEnd
  0
BLOCK
  5
4EFD
330
4EFC
100
AcDbEntity
  8
0
 62
     1
100
AcDbBlockBegin
  2
_DOTBLANK
 70
     0
 10
0.0
 20
0.0
 30
0.0
  3
_DOTBLANK
  1

  0
CIRCLE
  5
AB3
330
4EFC
100
AcDbEntity
  8
0
  6
ByBlock
 62
     0
100
AcDbCircle
 10
0.0
 20
0.0
 30
0.0
 40
0.5
  0
LINE
  5
AB4
330
4EFC
100
AcDbEntity
  8
0
  6
ByBlock
 62
     0
100
AcDbLine
 10
-0.5
 20
0.0
 30
0.0
 11
-1.0
 21
0.0
 31
0.0
  0
ENDBLK
  5
AB6
330
4EFC
100
AcDbEntity
  8
0
 62
     1
100
AcDbBlockEnd
  0
BLOCK
  5
4EFF
330
4EFE
100
AcDbEntity
  8
0
 62
     1
100
AcDbBlockBegin
  2
_OPEN30
 70
     0
 10
0.0
 20
0.0
 30
0.0
  3
_OPEN30
  1

  0
LINE
  5
AB8
330
4EFE
100
AcDbEntity
  8
0
  6
ByBlock
 62
     0
100
AcDbLine
 10
-1.0
 20
0.26794919
 30
0.0
 11
0.0
 21
0.0
 31
0.0
  0
LINE
  5
AB9
330
4EFE
100
AcDbEntity
  8
0
  6
ByBlock
 62
     0
100
AcDbLine
 10
0.0
 20
0.0
 30
0.0
 11
-1.0
 21
-0.26794919
 31
0.0
  0
LINE
  5
ABA
330
4EFE
100
AcDbEntity
  8
0
  6
ByBlock
 62
     0
100
AcDbLine
 10
0.0
 20
0.0
 30
0.0
 11
-1.0
 21
0.0
 31
0.0
  0
ENDBLK
  5
ABC
330
4EFE
100
AcDbEntity
  8
0
 62
     1
100
AcDbBlockEnd
  0
BLOCK
  5
4F01
330
4F00
100
AcDbEntity
  8
0
100
AcDbBlockBegin
  2
*D5
 70
     1
 10
0.0
 20
0.0
 30
0.0
  3
*D5
  1

  0
LINE
  5
1296
330
4F00
100
AcDbEntity
  8
SIZE
 62
     0
100
AcDbLine
 10
-134.5
 20
-320.0
 30
0.0
 11
-134.5
 21
-468.0173952306001
 31
0.0
  0
LINE
  5
1297
330
4F00
100
AcDbEntity
  8
SIZE
 62
     0
100
AcDbLine
 10
134.5
 20
-320.0
 30
0.0
 11
134.5
 21
-468.0173952306001
 31
0.0
  0
LINE
  5
1298
330
4F00
100
AcDbEntity
  8
SIZE
 62
     0
100
AcDbLine
 10
-122.5
 20
-448.0173952306
 30
0.0
 11
122.5
 21
-448.0173952306
 31
0.0
  0
INSERT
  5
1299
330
4F00
100
AcDbEntity
  8
SIZE
 62
     0
100
AcDbBlockReference
  2
_DOTBLANK
 10
-134.5
 20
-448.0173952306
 30
0.0
 41
12.0
 42
12.0
 43
12.0
 50
180.0
  0
INSERT
  5
129A
330
4F00
100
AcDbEntity
  8
SIZE
 62
     0
100
AcDbBlockReference
  2
_DOTBLANK
 10
134.5
 20
-448.0173952306
 30
0.0
 41
12.0
 42
12.0
 43
12.0
  0
INSERT
  5
129B
330
4F00
100
AcDbEntity
  8
0
100
AcDbBlockReference
  2
*U6
 10
0.0
 20
0.0
 30
0.0
  0
POINT
  5
129C
330
4F00
100
AcDbEntity
  8
DEFPOINTS
 62
     0
100
AcDbPoint
 10
-134.5
 20
-300.0
 30
0.0
  0
POINT
  5
129D
330
4F00
100
AcDbEntity
  8
DEFPOINTS
 62
     0
100
AcDbPoint
 10
134.5
 20
-300.0
 30
0.0
  0
POINT
  5
129E
330
4F00
100
AcDbEntity
  8
DEFPOINTS
 62
     0
100
AcDbPoint
 10
134.5
 20
-448.0173952306
 30
0.0
  0
ENDBLK
  5
D72
330
4F00
100
AcDbEntity
  8
0
100
AcDbBlockEnd
  0
BLOCK
  5
4F03
330
4F02
100
AcDbEntity
  8
0
100
AcDbBlockBegin
  2
*U6
 70
     1
 10
0.0
 20
0.0
 30
0.0
  3
*U6
  1

  0
TEXT
  5
1EF5
330
4F02
100
AcDbEntity
  8
SIZE
 62
     0
100
AcDbText
 10
-72.68571428571426
 20
-438.0173952305999
 30
0.0
 40
64.0
  1
269
 41
0.9
100
AcDbText
  0
ENDBLK
  5
1EF7
330
4F02
100
AcDbEntity
  8
0
100
AcDbBlockEnd
  0
BLOCK
  5
4F05
330
4F04
100
AcDbEntity
  8
0
100
AcDbBlockBegin
  2
*D7
 70
     1
 10
0.0
 20
0.0
 30
0.0
  3
*D7
  1

  0
LINE
  5
11A7
330
4F04
100
AcDbEntity
  8
SIZE
  6
Continuous
 62
     0
100
AcDbLine
 10
143.5
 20
-300.0
 30
0.0
 11
304.6432844803791
 21
-300.0
 31
0.0
  0
LINE
  5
11A8
330
4F04
100
AcDbEntity
  8
SIZE
  6
Continuous
 62
     0
100
AcDbLine
 10
177.5
 20
-0.0000000000000057
 30
0.0
 11
304.6432844803792
 21
-0.0000000000000417
 31
0.0
  0
LINE
  5
11A9
330
4F04
100
AcDbEntity
  8
SIZE
  6
Continuous
 62
     0
100
AcDbLine
 10
284.6432844803791
 20
-288.0000000000001
 30
0.0
 11
284.6432844803792
 21
-12.00000000000003
 31
0.0
  0
INSERT
  5
11AA
330
4F04
100
AcDbEntity
  8
SIZE
  6
Continuous
 62
     0
100
AcDbBlockReference
  2
_DOTBLANK
 10
284.6432844803791
 20
-300.0
 30
0.0
 41
12.0
 42
12.0
 43
12.0
 50
270.0
  0
INSERT
  5
11AB
330
4F04
100
AcDbEntity
  8
SIZE
  6
Continuous
 62
     0
100
AcDbBlockReference
  2
_DOTBLANK
 10
284.6432844803792
 20
-0.000000000000036
 30
0.0
 41
12.0
 42
12.0
 43
12.0
 50
90.0
  0
INSERT
  5
11AC
330
4F04
100
AcDbEntity
  8
0
100
AcDbBlockReference
  2
*U8
 10
0.0
 20
0.0
 30
0.0
  0
POINT
  5
11AD
330
4F04
100
AcDbEntity
  8
DEFPOINTS
  6
Continuous
 62
     0
100
AcDbPoint
 10
123.5
 20
-300.0
 30
0.0
  0
POINT
  5
11AE
330
4F04
100
AcDbEntity
  8
DEFPOINTS
  6
Continuous
 62
     0
100
AcDbPoint
 10
157.5
 20
0.0
 30
0.0
  0
POINT
  5
11AF
330
4F04
100
AcDbEntity
  8
DEFPOINTS
  6
Continuous
 62
     0
100
AcDbPoint
 10
284.6432844803792
 20
-0.000000000000036
 30
0.0
  0
ENDBLK
  5
E11
330
4F04
100
AcDbEntity
  8
0
100
AcDbBlockEnd
  0
BLOCK
  5
4F07
330
4F06
100
AcDbEntity
  8
0
100
AcDbBlockBegin
  2
*U8
 70
     1
 10
0.0
 20
0.0
 30
0.0
  3
*U8
  1

  0
TEXT
  5
1EE1
330
4F06
100
AcDbEntity
  8
SIZE
 62
     0
100
AcDbText
 10
274.6432844803792
 20
-224.0571428571429
 30
0.0
 40
64.0
  1
300
 50
90.0
 41
0.9
100
AcDbText
  0
ENDBLK
  5
1EE3
330
4F06
100
AcDbEntity
  8
0
100
AcDbBlockEnd
  0
BLOCK
  5
4F09
330
4F08
100
AcDbEntity
  8
0
100
AcDbBlockBegin
  2
*D9
 70
     1
 10
0.0
 20
0.0
 30
0.0
  3
*D9
  1

  0
LINE
  5
E7D
330
4F08
100
AcDbEntity
  8
SIZE
 62
     0
100
AcDbLine
 10
-139.9999999999998
 20
32.46448280219375
 30
0.0
 11
-139.9999999999998
 21
136.4516878685508
 31
0.0
  0
LINE
  5
E7E
330
4F08
100
AcDbEntity
  8
SIZE
 62
     0
100
AcDbLine
 10
140.0
 20
32.46448280219375
 30
0.0
 11
140.0
 21
136.4516878685508
 31
0.0
  0
LINE
  5
E7F
330
4F08
100
AcDbEntity
  8
SIZE
 62
     0
100
AcDbLine
 10
-128.0
 20
116.4516878685508
 30
0.0
 11
128.0
 21
116.4516878685508
 31
0.0
  0
INSERT
  5
E80
330
4F08
100
AcDbEntity
  8
SIZE
 62
     0
100
AcDbBlockReference
  2
_DOTBLANK
 10
-139.9999999999998
 20
116.4516878685508
 30
0.0
 41
12.0
 42
12.0
 43
12.0
 50
180.0
  0
INSERT
  5
E81
330
4F08
100
AcDbEntity
  8
SIZE
 62
     0
100
AcDbBlockReference
  2
_DOTBLANK
 10
140.0
 20
116.4516878685508
 30
0.0
 41
12.0
 42
12.0
 43
12.0
  0
INSERT
  5
E82
330
4F08
100
AcDbEntity
  8
0
100
AcDbBlockReference
  2
*U10
 10
0.0
 20
0.0
 30
0.0
  0
POINT
  5
E83
330
4F08
100
AcDbEntity
  8
DEFPOINTS
 62
     0
100
AcDbPoint
 10
-139.9999999999998
 20
12.46448280219374
 30
0.0
  0
POINT
  5
E84
330
4F08
100
AcDbEntity
  8
DEFPOINTS
 62
     0
100
AcDbPoint
 10
140.0
 20
12.46448280219374
 30
0.0
  0
POINT
  5
E85
330
4F08
100
AcDbEntity
  8
DEFPOINTS
 62
     0
100
AcDbPoint
 10
140.0
 20
116.4516878685508
 30
0.0
  0
ENDBLK
  5
E7C
330
4F08
100
AcDbEntity
  8
0
100
AcDbBlockEnd
  0
BLOCK
  5
4F0B
330
4F0A
100
AcDbEntity
  8
0
100
AcDbBlockBegin
  2
*U10
 70
     1
 10
0.0
 20
0.0
 30
0.0
  3
*U10
  1

  0
TEXT
  5
1ED8
330
4F0A
100
AcDbEntity
  8
SIZE
 62
     0
100
AcDbText
 10
-74.05714285714281
 20
126.4516878685508
 30
0.0
 40
64.0
  1
280
 41
0.9
100
AcDbText
  0
ENDBLK
  5
1EDA
330
4F0A
100
AcDbEntity
  8
0
100
AcDbBlockEnd
  0
BLOCK
  5
4F0D
330
4F0C
100
AcDbEntity
  8
0
100
AcDbBlockBegin
  2
GENAXEH
 70
     0
 10
0.0
 20
0.0
 30
0.0
  3
GENAXEH
  1

  0
LINE
  5
FDB
330
4F0C
100
AcDbEntity
  8
0
100
AcDbLine
 10
-1.0
 20
0.0
 30
0.0
 11
1.0
 21
0.0
 31
0.0
  0
ENDBLK
  5
FDD
330
4F0C
100
AcDbEntity
  8
0
100
AcDbBlockEnd
  0
BLOCK
  5
4F0F
330
4F0E
100
AcDbEntity
  8
0
100
AcDbBlockBegin
  2
*D12
 70
     1
 10
0.0
 20
0.0
 30
0.0
  3
*D12
  1

  0
LINE
  5
1120
330
4F0E
100
AcDbEntity
  8
SIZE
 62
     0
100
AcDbLine
 10
-157.5
 20
20.0
 30
0.0
 11
-157.5
 21
245.5794621189598
 31
0.0
  0
LINE
  5
1121
330
4F0E
100
AcDbEntity
  8
SIZE
 62
     0
100
AcDbLine
 10
157.5
 20
20.0
 30
0.0
 11
157.5
 21
245.5794621189598
 31
0.0
  0
LINE
  5
1122
330
4F0E
100
AcDbEntity
  8
SIZE
 62
     0
100
AcDbLine
 10
-145.5
 20
225.5794621189598
 30
0.0
 11
145.5
 21
225.5794621189598
 31
0.0
  0
INSERT
  5
1123
330
4F0E
100
AcDbEntity
  8
SIZE
 62
     0
100
AcDbBlockReference
  2
_DOTBLANK
 10
-157.5
 20
225.5794621189598
 30
0.0
 41
12.0
 42
12.0
 43
12.0
 50
180.0
  0
INSERT
  5
1124
330
4F0E
100
AcDbEntity
  8
SIZE
 62
     0
100
AcDbBlockReference
  2
_DOTBLANK
 10
157.5
 20
225.5794621189598
 30
0.0
 41
12.0
 42
12.0
 43
12.0
  0
INSERT
  5
1125
330
4F0E
100
AcDbEntity
  8
0
100
AcDbBlockReference
  2
*U13
 10
0.0
 20
0.0
 30
0.0
  0
POINT
  5
1126
330
4F0E
100
AcDbEntity
  8
DEFPOINTS
 62
     0
100
AcDbPoint
 10
-157.5
 20
0.0
 30
0.0
  0
POINT
  5
1127
330
4F0E
100
AcDbEntity
  8
DEFPOINTS
 62
     0
100
AcDbPoint
 10
157.5
 20
0.0
 30
0.0
  0
POINT
  5
1128
330
4F0E
100
AcDbEntity
  8
DEFPOINTS
 62
     0
100
AcDbPoint
 10
157.5
 20
225.5794621189598
 30
0.0
  0
ENDBLK
  5
111F
330
4F0E
100
AcDbEntity
  8
0
100
AcDbBlockEnd
  0
BLOCK
  5
4F11
330
4F10
100
AcDbEntity
  8
0
100
AcDbBlockBegin
  2
*U13
 70
     1
 10
0.0
 20
0.0
 30
0.0
  3
*U13
  1

  0
TEXT
  5
1EDD
330
4F10
100
AcDbEntity
  8
SIZE
 62
     0
100
AcDbText
 10
-68.57142857142857
 20
235.5794621189599
 30
0.0
 40
64.0
  1
315
 41
0.9
100
AcDbText
  0
ENDBLK
  5
1EDF
330
4F10
100
AcDbEntity
  8
0
100
AcDbBlockEnd
  0
BLOCK
  5
4F13
330
4F12
100
AcDbEntity
  8
0
100
AcDbBlockBegin
  2
*D14
 70
     1
 10
0.0
 20
0.0
 30
0.0
  3
*D14
  1

  0
LINE
  5
11BD
330
4F12
100
AcDbEntity
  8
NOTE
 62
     0
100
AcDbLine
 10
-123.4999999999999
 20
-320.0
 30
0.0
 11
-123.4999999999999
 21
-354.9529861856111
 31
0.0
  0
LINE
  5
11BE
330
4F12
100
AcDbEntity
  8
NOTE
 62
     0
100
AcDbLine
 10
-133.4999999999998
 20
-331.2126909923287
 30
0.0
 11
-133.4999999999998
 21
-354.9529861856111
 31
0.0
  0
LINE
  5
11BF
330
4F12
100
AcDbEntity
  8
NOTE
 62
     0
100
AcDbLine
 10
-111.4999999999999
 20
-334.9529861856112
 30
0.0
 11
-99.4999999999999
 21
-334.9529861856112
 31
0.0
  0
LINE
  5
11C0
330
4F12
100
AcDbEntity
  8
NOTE
 62
     0
100
AcDbLine
 10
-145.4999999999998
 20
-334.9529861856112
 30
0.0
 11
-157.4999999999998
 21
-334.9529861856112
 31
0.0
  0
LINE
  5
11C1
330
4F12
100
AcDbEntity
  8
NOTE
 62
     0
100
AcDbLine
 10
-123.4999999999999
 20
-334.9529861856112
 30
0.0
 11
-133.4999999999998
 21
-334.9529861856112
 31
0.0
  0
INSERT
  5
11C2
330
4F12
100
AcDbEntity
  8
NOTE
 62
     0
100
AcDbBlockReference
  2
_DOTBLANK
 10
-123.4999999999999
 20
-334.9529861856112
 30
0.0
 41
12.0
 42
12.0
 43
12.0
 50
180.0
  0
INSERT
  5
11C3
330
4F12
100
AcDbEntity
  8
NOTE
 62
     0
100
AcDbBlockReference
  2
_DOTBLANK
 10
-133.4999999999998
 20
-334.9529861856112
 30
0.0
 41
12.0
 42
12.0
 43
12.0
  0
INSERT
  5
11C4
330
4F12
100
AcDbEntity
  8
0
100
AcDbBlockReference
  2
*U15
 10
0.0
 20
0.0
 30
0.0
  0
POINT
  5
11C5
330
4F12
100
AcDbEntity
  8
DEFPOINTS
 62
     0
100
AcDbPoint
 10
-123.4999999999999
 20
-300.0
 30
0.0
  0
POINT
  5
11C6
330
4F12
100
AcDbEntity
  8
DEFPOINTS
 62
     0
100
AcDbPoint
 10
-133.4999999999998
 20
-311.2126909923287
 30
0.0
  0
POINT
  5
11C7
330
4F12
100
AcDbEntity
  8
DEFPOINTS
 62
     0
100
AcDbPoint
 10
-133.4999999999998
 20
-334.9529861856112
 30
0.0
  0
ENDBLK
  5
11BC
330
4F12
100
AcDbEntity
  8
0
100
AcDbBlockEnd
  0
BLOCK
  5
4F15
330
4F14
100
AcDbEntity
  8
0
100
AcDbBlockBegin
  2
*U15
 70
     1
 10
0.0
 20
0.0
 30
0.0
  3
*U15
  1

  0
TEXT
  5
1EE5
330
4F14
100
AcDbEntity
  8
NOTE
 62
     0
100
AcDbText
 10
-169.642857142857
 20
-324.9529861856112
 30
0.0
 40
64.0
  1
10
 41
0.9
100
AcDbText
  0
ENDBLK
  5
1EE7
330
4F14
100
AcDbEntity
  8
0
100
AcDbBlockEnd
  0
BLOCK
  5
4F17
330
4F16
100
AcDbEntity
  8
0
100
AcDbBlockBegin
  2
*D16
 70
     1
 10
0.0
 20
0.0
 30
0.0
  3
*D16
  1

  0
LINE
  5
11E7
330
4F16
100
AcDbEntity
  8
NOTE
 62
     0
100
AcDbLine
 10
-135.5
 20
-333.2126909923287
 30
0.0
 11
-135.5
 21
-386.2569421441843
 31
0.0
  0
LINE
  5
11E8
330
4F16
100
AcDbEntity
  8
NOTE
 62
     0
100
AcDbLine
 10
-123.4999999999999
 20
-320.0
 30
0.0
 11
-123.4999999999999
 21
-386.2569421441843
 31
0.0
  0
LINE
  5
11E9
330
4F16
100
AcDbEntity
  8
NOTE
 62
     0
100
AcDbLine
 10
-147.5
 20
-366.2569421441844
 30
0.0
 11
-159.5
 21
-366.2569421441844
 31
0.0
  0
LINE
  5
11EA
330
4F16
100
AcDbEntity
  8
NOTE
 62
     0
100
AcDbLine
 10
-111.4999999999999
 20
-366.2569421441844
 30
0.0
 11
-99.4999999999999
 21
-366.2569421441844
 31
0.0
  0
LINE
  5
11EB
330
4F16
100
AcDbEntity
  8
NOTE
 62
     0
100
AcDbLine
 10
-135.5
 20
-366.2569421441844
 30
0.0
 11
-123.4999999999999
 21
-366.2569421441844
 31
0.0
  0
INSERT
  5
11EC
330
4F16
100
AcDbEntity
  8
NOTE
 62
     0
100
AcDbBlockReference
  2
_DOTBLANK
 10
-135.5
 20
-366.2569421441844
 30
0.0
 41
12.0
 42
12.0
 43
12.0
  0
INSERT
  5
11ED
330
4F16
100
AcDbEntity
  8
NOTE
 62
     0
100
AcDbBlockReference
  2
_DOTBLANK
 10
-123.4999999999999
 20
-366.2569421441844
 30
0.0
 41
12.0
 42
12.0
 43
12.0
 50
180.0
  0
INSERT
  5
11EE
330
4F16
100
AcDbEntity
  8
0
100
AcDbBlockReference
  2
*U17
 10
0.0
 20
0.0
 30
0.0
  0
POINT
  5
11EF
330
4F16
100
AcDbEntity
  8
DEFPOINTS
 62
     0
100
AcDbPoint
 10
-135.5
 20
-313.2126909923287
 30
0.0
  0
POINT
  5
11F0
330
4F16
100
AcDbEntity
  8
DEFPOINTS
 62
     0
100
AcDbPoint
 10
-123.4999999999999
 20
-300.0
 30
0.0
  0
POINT
  5
11F1
330
4F16
100
AcDbEntity
  8
DEFPOINTS
 62
     0
100
AcDbPoint
 10
-123.4999999999999
 20
-366.2569421441844
 30
0.0
  0
ENDBLK
  5
11E6
330
4F16
100
AcDbEntity
  8
0
100
AcDbBlockEnd
  0
BLOCK
  5
4F19
330
4F18
100
AcDbEntity
  8
0
100
AcDbBlockBegin
  2
*U17
 70
     1
 10
0.0
 20
0.0
 30
0.0
  3
*U17
  1

  0
TEXT
  5
1EE9
330
4F18
100
AcDbEntity
  8
NOTE
 62
     0
100
AcDbText
 10
-170.642857142857
 20
-356.2569421441843
 30
0.0
 40
64.0
  1
12
 41
0.9
100
AcDbText
  0
ENDBLK
  5
1EEB
330
4F18
100
AcDbEntity
  8
0
100
AcDbBlockEnd
  0
BLOCK
  5
4F1B
330
4F1A
100
AcDbEntity
  8
0
100
AcDbBlockBegin
  2
*D18
 70
     1
 10
0.0
 20
0.0
 30
0.0
  3
*D18
  1

  0
LINE
  5
11F6
330
4F1A
100
AcDbEntity
  8
NOTE
 62
     0
100
AcDbLine
 10
-123.4999999999999
 20
-320.0
 30
0.0
 11
-123.4999999999999
 21
-583.8286022818904
 31
0.0
  0
LINE
  5
11F7
330
4F1A
100
AcDbEntity
  8
NOTE
 62
     0
100
AcDbLine
 10
123.5
 20
-320.0
 30
0.0
 11
123.5
 21
-583.8286022818904
 31
0.0
  0
LINE
  5
11F8
330
4F1A
100
AcDbEntity
  8
NOTE
 62
     0
100
AcDbLine
 10
-111.4999999999999
 20
-563.8286022818904
 30
0.0
 11
111.5
 21
-563.8286022818904
 31
0.0
  0
INSERT
  5
11F9
330
4F1A
100
AcDbEntity
  8
NOTE
 62
     0
100
AcDbBlockReference
  2
_DOTBLANK
 10
-123.4999999999999
 20
-563.8286022818904
 30
0.0
 41
12.0
 42
12.0
 43
12.0
 50
180.0
  0
INSERT
  5
11FA
330
4F1A
100
AcDbEntity
  8
NOTE
 62
     0
100
AcDbBlockReference
  2
_DOTBLANK
 10
123.5
 20
-563.8286022818904
 30
0.0
 41
12.0
 42
12.0
 43
12.0
  0
INSERT
  5
11FB
330
4F1A
100
AcDbEntity
  8
0
100
AcDbBlockReference
  2
*U19
 10
0.0
 20
0.0
 30
0.0
  0
POINT
  5
11FC
330
4F1A
100
AcDbEntity
  8
DEFPOINTS
 62
     0
100
AcDbPoint
 10
-123.4999999999999
 20
-300.0
 30
0.0
  0
POINT
  5
11FD
330
4F1A
100
AcDbEntity
  8
DEFPOINTS
 62
     0
100
AcDbPoint
 10
123.5
 20
-300.0
 30
0.0
  0
POINT
  5
11FE
330
4F1A
100
AcDbEntity
  8
DEFPOINTS
 62
     0
100
AcDbPoint
 10
123.5
 20
-563.8286022818904
 30
0.0
  0
ENDBLK
  5
11F5
330
4F1A
100
AcDbEntity
  8
0
100
AcDbBlockEnd
  0
BLOCK
  5
4F1D
330
4F1C
100
AcDbEntity
  8
0
100
AcDbBlockBegin
  2
*U19
 70
     1
 10
0.0
 20
0.0
 30
0.0
  3
*U19
  1

  0
TEXT
  5
1EED
330
4F1C
100
AcDbEntity
  8
NOTE
 62
     0
100
AcDbText
 10
-74.05714285714281
 20
-553.8286022818904
 30
0.0
 40
64.0
  1
247
 41
0.9
100
AcDbText
  0
ENDBLK
  5
1EEF
330
4F1C
100
AcDbEntity
  8
0
100
AcDbBlockEnd
  0
BLOCK
  5
4F1F
330
4F1E
100
AcDbEntity
  8
0
100
AcDbBlockBegin
  2
*D20
 70
     1
 10
0.0
 20
0.0
 30
0.0
  3
*D20
  1

  0
LINE
  5
1284
330
4F1E
100
AcDbEntity
  8
NOTE
 62
     0
100
AcDbLine
 10
-123.5
 20
12.0
 30
0.0
 11
-123.5
 21
71.83630134534229
 31
0.0
  0
LINE
  5
1285
330
4F1E
100
AcDbEntity
  8
NOTE
 62
     0
100
AcDbLine
 10
123.5
 20
12.0
 30
0.0
 11
123.5
 21
71.83630134534229
 31
0.0
  0
LINE
  5
1286
330
4F1E
100
AcDbEntity
  8
NOTE
 62
     0
100
AcDbLine
 10
-111.5
 20
51.83630134534229
 30
0.0
 11
111.5
 21
51.83630134534229
 31
0.0
  0
INSERT
  5
1287
330
4F1E
100
AcDbEntity
  8
NOTE
 62
     0
100
AcDbBlockReference
  2
_DOTBLANK
 10
-123.5
 20
51.83630134534229
 30
0.0
 41
12.0
 42
12.0
 43
12.0
 50
180.0
  0
INSERT
  5
1288
330
4F1E
100
AcDbEntity
  8
NOTE
 62
     0
100
AcDbBlockReference
  2
_DOTBLANK
 10
123.5
 20
51.83630134534229
 30
0.0
 41
12.0
 42
12.0
 43
12.0
  0
INSERT
  5
1289
330
4F1E
100
AcDbEntity
  8
0
100
AcDbBlockReference
  2
*U21
 10
0.0
 20
0.0
 30
0.0
  0
POINT
  5
128A
330
4F1E
100
AcDbEntity
  8
DEFPOINTS
 62
     0
100
AcDbPoint
 10
-123.5
 20
-8.0
 30
0.0
  0
POINT
  5
128B
330
4F1E
100
AcDbEntity
  8
DEFPOINTS
 62
     0
100
AcDbPoint
 10
123.5
 20
-8.0
 30
0.0
  0
POINT
  5
128C
330
4F1E
100
AcDbEntity
  8
DEFPOINTS
 62
     0
100
AcDbPoint
 10
123.5
 20
51.83630134534229
 30
0.0
  0
ENDBLK
  5
1283
330
4F1E
100
AcDbEntity
  8
0
100
AcDbBlockEnd
  0
BLOCK
  5
4F21
330
4F20
100
AcDbEntity
  8
0
100
AcDbBlockBegin
  2
*U21
 70
     1
 10
0.0
 20
0.0
 30
0.0
  3
*U21
  1

  0
TEXT
  5
1EF1
330
4F20
100
AcDbEntity
  8
NOTE
 62
     0
100
AcDbText
 10
-74.05714285714283
 20
61.83630134534229
 30
0.0
 40
64.0
  1
247
 41
0.9
100
AcDbText
  0
ENDBLK
  5
1EF3
330
4F20
100
AcDbEntity
  8
0
100
AcDbBlockEnd
  0
BLOCK
  5
4F23
330
4F22
100
AcDbEntity
  8
0
100
AcDbBlockBegin
  2
*D22
 70
     1
 10
0.0
 20
0.0
 30
0.0
  3
*D22
  1

  0
LINE
  5
1414
330
4F22
100
AcDbEntity
  8
SIZE
 62
     0
100
AcDbLine
 10
-22313.11521613997
 20
7365.702971374808
 30
0.0
 11
-22313.11521613997
 21
7217.685576144207
 31
0.0
  0
LINE
  5
1415
330
4F22
100
AcDbEntity
  8
SIZE
 62
     0
100
AcDbLine
 10
-22044.11521613997
 20
7365.702971374808
 30
0.0
 11
-22044.11521613997
 21
7217.685576144207
 31
0.0
  0
LINE
  5
1416
330
4F22
100
AcDbEntity
  8
SIZE
 62
     0
100
AcDbLine
 10
-22301.11521613997
 20
7237.685576144207
 30
0.0
 11
-22056.11521613997
 21
7237.685576144207
 31
0.0
  0
INSERT
  5
1417
330
4F22
100
AcDbEntity
  8
SIZE
 62
     0
100
AcDbBlockReference
  2
_DOTBLANK
 10
-22313.11521613997
 20
7237.685576144207
 30
0.0
 41
12.0
 42
12.0
 43
12.0
 50
180.0
  0
INSERT
  5
1418
330
4F22
100
AcDbEntity
  8
SIZE
 62
     0
100
AcDbBlockReference
  2
_DOTBLANK
 10
-22044.11521613997
 20
7237.685576144207
 30
0.0
 41
12.0
 42
12.0
 43
12.0
  0
INSERT
  5
1419
330
4F22
100
AcDbEntity
  8
0
100
AcDbBlockReference
  2
*U23
 10
0.0
 20
0.0
 30
0.0
  0
POINT
  5
141A
330
4F22
100
AcDbEntity
  8
DEFPOINTS
 62
     0
100
AcDbPoint
 10
-22313.11521613997
 20
7385.702971374808
 30
0.0
  0
POINT
  5
141B
330
4F22
100
AcDbEntity
  8
DEFPOINTS
 62
     0
100
AcDbPoint
 10
-22044.11521613997
 20
7385.702971374808
 30
0.0
  0
POINT
  5
141C
330
4F22
100
AcDbEntity
  8
DEFPOINTS
 62
     0
100
AcDbPoint
 10
-22044.11521613997
 20
7237.685576144207
 30
0.0
  0
ENDBLK
  5
141D
330
4F22
100
AcDbEntity
  8
0
100
AcDbBlockEnd
  0
BLOCK
  5
4F25
330
4F24
100
AcDbEntity
  8
0
100
AcDbBlockBegin
  2
*U23
 70
     1
 10
0.0
 20
0.0
 30
0.0
  3
*U23
  1

  0
TEXT
  5
1EF9
330
4F24
100
AcDbEntity
  8
SIZE
 62
     0
100
AcDbText
 10
-22251.30093042568
 20
7247.685576144205
 30
0.0
 40
64.0
  1
269
 41
0.9
100
AcDbText
  0
ENDBLK
  5
1EFB
330
4F24
100
AcDbEntity
  8
0
100
AcDbBlockEnd
  0
BLOCK
  5
4F27
330
4F26
100
AcDbEntity
  8
0
100
AcDbBlockBegin
  2
*D24
 70
     1
 10
0.0
 20
0.0
 30
0.0
  3
*D24
  1

  0
LINE
  5
1420
330
4F26
100
AcDbEntity
  8
SIZE
  6
Continuous
 62
     0
100
AcDbLine
 10
-22035.11521613997
 20
7385.702971374808
 30
0.0
 11
-21873.97193165959
 21
7385.702971374808
 31
0.0
  0
LINE
  5
1421
330
4F26
100
AcDbEntity
  8
SIZE
  6
Continuous
 62
     0
100
AcDbLine
 10
-22001.11521613997
 20
7685.702971374808
 30
0.0
 11
-21873.97193165959
 21
7685.702971374808
 31
0.0
  0
LINE
  5
1422
330
4F26
100
AcDbEntity
  8
SIZE
  6
Continuous
 62
     0
100
AcDbLine
 10
-21893.97193165959
 20
7397.702971374808
 30
0.0
 11
-21893.97193165959
 21
7673.702971374808
 31
0.0
  0
INSERT
  5
1423
330
4F26
100
AcDbEntity
  8
SIZE
  6
Continuous
 62
     0
100
AcDbBlockReference
  2
_DOTBLANK
 10
-21893.97193165959
 20
7385.702971374808
 30
0.0
 41
12.0
 42
12.0
 43
12.0
 50
270.0
  0
INSERT
  5
1424
330
4F26
100
AcDbEntity
  8
SIZE
  6
Continuous
 62
     0
100
AcDbBlockReference
  2
_DOTBLANK
 10
-21893.97193165959
 20
7685.702971374808
 30
0.0
 41
12.0
 42
12.0
 43
12.0
 50
90.0
  0
INSERT
  5
1425
330
4F26
100
AcDbEntity
  8
0
100
AcDbBlockReference
  2
*U25
 10
0.0
 20
0.0
 30
0.0
  0
POINT
  5
1426
330
4F26
100
AcDbEntity
  8
DEFPOINTS
  6
Continuous
 62
     0
100
AcDbPoint
 10
-22055.11521613997
 20
7385.702971374808
 30
0.0
  0
POINT
  5
1427
330
4F26
100
AcDbEntity
  8
DEFPOINTS
  6
Continuous
 62
     0
100
AcDbPoint
 10
-22021.11521613997
 20
7685.702971374808
 30
0.0
  0
POINT
  5
1428
330
4F26
100
AcDbEntity
  8
DEFPOINTS
  6
Continuous
 62
     0
100
AcDbPoint
 10
-21893.97193165959
 20
7685.702971374808
 30
0.0
  0
ENDBLK
  5
1429
330
4F26
100
AcDbEntity
  8
0
100
AcDbBlockEnd
  0
BLOCK
  5
4F29
330
4F28
100
AcDbEntity
  8
0
100
AcDbBlockBegin
  2
*U25
 70
     1
 10
0.0
 20
0.0
 30
0.0
  3
*U25
  1

  0
TEXT
  5
1EFD
330
4F28
100
AcDbEntity
  8
SIZE
 62
     0
100
AcDbText
 10
-21903.97193165959
 20
7461.645828517662
 30
0.0
 40
64.0
  1
300
 50
90.0
 41
0.9
100
AcDbText
  0
ENDBLK
  5
1EFF
330
4F28
100
AcDbEntity
  8
0
100
AcDbBlockEnd
  0
BLOCK
  5
4F2B
330
4F2A
100
AcDbEntity
  8
0
100
AcDbBlockBegin
  2
*D26
 70
     1
 10
0.0
 20
0.0
 30
0.0
  3
*D26
  1

  0
LINE
  5
142C
330
4F2A
100
AcDbEntity
  8
SIZE
 62
     0
100
AcDbLine
 10
-22318.61521613997
 20
7718.167454177002
 30
0.0
 11
-22318.61521613997
 21
7822.154659243358
 31
0.0
  0
LINE
  5
142D
330
4F2A
100
AcDbEntity
  8
SIZE
 62
     0
100
AcDbLine
 10
-22038.61521613997
 20
7718.167454177002
 30
0.0
 11
-22038.61521613997
 21
7822.154659243358
 31
0.0
  0
LINE
  5
142E
330
4F2A
100
AcDbEntity
  8
SIZE
 62
     0
100
AcDbLine
 10
-22306.61521613997
 20
7802.154659243358
 30
0.0
 11
-22050.61521613997
 21
7802.154659243358
 31
0.0
  0
INSERT
  5
142F
330
4F2A
100
AcDbEntity
  8
SIZE
 62
     0
100
AcDbBlockReference
  2
_DOTBLANK
 10
-22318.61521613997
 20
7802.154659243358
 30
0.0
 41
12.0
 42
12.0
 43
12.0
 50
180.0
  0
INSERT
  5
1430
330
4F2A
100
AcDbEntity
  8
SIZE
 62
     0
100
AcDbBlockReference
  2
_DOTBLANK
 10
-22038.61521613997
 20
7802.154659243358
 30
0.0
 41
12.0
 42
12.0
 43
12.0
  0
INSERT
  5
1431
330
4F2A
100
AcDbEntity
  8
0
100
AcDbBlockReference
  2
*U27
 10
0.0
 20
0.0
 30
0.0
  0
POINT
  5
1432
330
4F2A
100
AcDbEntity
  8
DEFPOINTS
 62
     0
100
AcDbPoint
 10
-22318.61521613997
 20
7698.167454177002
 30
0.0
  0
POINT
  5
1433
330
4F2A
100
AcDbEntity
  8
DEFPOINTS
 62
     0
100
AcDbPoint
 10
-22038.61521613997
 20
7698.167454177002
 30
0.0
  0
POINT
  5
1434
330
4F2A
100
AcDbEntity
  8
DEFPOINTS
 62
     0
100
AcDbPoint
 10
-22038.61521613997
 20
7802.154659243358
 30
0.0
  0
ENDBLK
  5
1435
330
4F2A
100
AcDbEntity
  8
0
100
AcDbBlockEnd
  0
BLOCK
  5
4F2D
330
4F2C
100
AcDbEntity
  8
0
100
AcDbBlockBegin
  2
*U27
 70
     1
 10
0.0
 20
0.0
 30
0.0
  3
*U27
  1

  0
TEXT
  5
1F01
330
4F2C
100
AcDbEntity
  8
SIZE
 62
     0
100
AcDbText
 10
-22252.6723589971
 20
7812.154659243358
 30
0.0
 40
64.0
  1
280
 41
0.9
100
AcDbText
  0
ENDBLK
  5
1F03
330
4F2C
100
AcDbEntity
  8
0
100
AcDbBlockEnd
  0
BLOCK
  5
4F2F
330
4F2E
100
AcDbEntity
  8
0
100
AcDbBlockBegin
  2
*D28
 70
     1
 10
0.0
 20
0.0
 30
0.0
  3
*D28
  1

  0
LINE
  5
1438
330
4F2E
100
AcDbEntity
  8
SIZE
 62
     0
100
AcDbLine
 10
-22336.11521613997
 20
7705.702971374808
 30
0.0
 11
-22336.11521613997
 21
7931.282433493766
 31
0.0
  0
LINE
  5
1439
330
4F2E
100
AcDbEntity
  8
SIZE
 62
     0
100
AcDbLine
 10
-22021.11521613997
 20
7705.702971374808
 30
0.0
 11
-22021.11521613997
 21
7931.282433493766
 31
0.0
  0
LINE
  5
143A
330
4F2E
100
AcDbEntity
  8
SIZE
 62
     0
100
AcDbLine
 10
-22324.11521613997
 20
7911.282433493766
 30
0.0
 11
-22033.11521613997
 21
7911.282433493766
 31
0.0
  0
INSERT
  5
143B
330
4F2E
100
AcDbEntity
  8
SIZE
 62
     0
100
AcDbBlockReference
  2
_DOTBLANK
 10
-22336.11521613997
 20
7911.282433493766
 30
0.0
 41
12.0
 42
12.0
 43
12.0
 50
180.0
  0
INSERT
  5
143C
330
4F2E
100
AcDbEntity
  8
SIZE
 62
     0
100
AcDbBlockReference
  2
_DOTBLANK
 10
-22021.11521613997
 20
7911.282433493766
 30
0.0
 41
12.0
 42
12.0
 43
12.0
  0
INSERT
  5
143D
330
4F2E
100
AcDbEntity
  8
0
100
AcDbBlockReference
  2
*U29
 10
0.0
 20
0.0
 30
0.0
  0
POINT
  5
143E
330
4F2E
100
AcDbEntity
  8
DEFPOINTS
 62
     0
100
AcDbPoint
 10
-22336.11521613997
 20
7685.702971374808
 30
0.0
  0
POINT
  5
143F
330
4F2E
100
AcDbEntity
  8
DEFPOINTS
 62
     0
100
AcDbPoint
 10
-22021.11521613997
 20
7685.702971374808
 30
0.0
  0
POINT
  5
1440
330
4F2E
100
AcDbEntity
  8
DEFPOINTS
 62
     0
100
AcDbPoint
 10
-22021.11521613997
 20
7911.282433493766
 30
0.0
  0
ENDBLK
  5
1441
330
4F2E
100
AcDbEntity
  8
0
100
AcDbBlockEnd
  0
BLOCK
  5
4F31
330
4F30
100
AcDbEntity
  8
0
100
AcDbBlockBegin
  2
*U29
 70
     1
 10
0.0
 20
0.0
 30
0.0
  3
*U29
  1

  0
TEXT
  5
1F05
330
4F30
100
AcDbEntity
  8
SIZE
 62
     0
100
AcDbText
 10
-22247.18664471139
 20
7921.282433493766
 30
0.0
 40
64.0
  1
315
 41
0.9
100
AcDbText
  0
ENDBLK
  5
1F07
330
4F30
100
AcDbEntity
  8
0
100
AcDbBlockEnd
  0
BLOCK
  5
4F33
330
4F32
100
AcDbEntity
  8
0
100
AcDbBlockBegin
  2
*D30
 70
     1
 10
0.0
 20
0.0
 30
0.0
  3
*D30
  1

  0
LINE
  5
166B
330
4F32
100
AcDbEntity
  8
SIZE
 62
     0
100
AcDbLine
 10
-134.5
 20
-320.0
 30
0.0
 11
-134.5
 21
-468.0173952306001
 31
0.0
  0
LINE
  5
166C
330
4F32
100
AcDbEntity
  8
SIZE
 62
     0
100
AcDbLine
 10
134.5
 20
-320.0
 30
0.0
 11
134.5
 21
-468.0173952306001
 31
0.0
  0
LINE
  5
166D
330
4F32
100
AcDbEntity
  8
SIZE
 62
     0
100
AcDbLine
 10
-122.5
 20
-448.0173952306
 30
0.0
 11
122.5
 21
-448.0173952306
 31
0.0
  0
INSERT
  5
166E
330
4F32
100
AcDbEntity
  8
SIZE
 62
     0
100
AcDbBlockReference
  2
_DOTBLANK
 10
-134.5
 20
-448.0173952306
 30
0.0
 41
12.0
 42
12.0
 43
12.0
 50
180.0
  0
INSERT
  5
166F
330
4F32
100
AcDbEntity
  8
SIZE
 62
     0
100
AcDbBlockReference
  2
_DOTBLANK
 10
134.5
 20
-448.0173952306
 30
0.0
 41
12.0
 42
12.0
 43
12.0
  0
INSERT
  5
1670
330
4F32
100
AcDbEntity
  8
0
100
AcDbBlockReference
  2
*U31
 10
0.0
 20
0.0
 30
0.0
  0
POINT
  5
1671
330
4F32
100
AcDbEntity
  8
DEFPOINTS
 62
     0
100
AcDbPoint
 10
-134.5
 20
-300.0
 30
0.0
  0
POINT
  5
1672
330
4F32
100
AcDbEntity
  8
DEFPOINTS
 62
     0
100
AcDbPoint
 10
134.5
 20
-300.0
 30
0.0
  0
POINT
  5
1673
330
4F32
100
AcDbEntity
  8
DEFPOINTS
 62
     0
100
AcDbPoint
 10
134.5
 20
-448.0173952306
 30
0.0
  0
ENDBLK
  5
14A7
330
4F32
100
AcDbEntity
  8
0
100
AcDbBlockEnd
  0
BLOCK
  5
4F35
330
4F34
100
AcDbEntity
  8
0
100
AcDbBlockBegin
  2
*U31
 70
     1
 10
0.0
 20
0.0
 30
0.0
  3
*U31
  1

  0
TEXT
  5
1F09
330
4F34
100
AcDbEntity
  8
SIZE
 62
     0
100
AcDbText
 10
-72.68571428571426
 20
-438.0173952306002
 30
0.0
 40
64.0
  1
269
 41
0.9
100
AcDbText
  0
ENDBLK
  5
1F0B
330
4F34
100
AcDbEntity
  8
0
100
AcDbBlockEnd
  0
BLOCK
  5
4F37
330
4F36
100
AcDbEntity
  8
0
100
AcDbBlockBegin
  2
*D32
 70
     1
 10
0.0
 20
0.0
 30
0.0
  3
*D32
  1

  0
LINE
  5
1674
330
4F36
100
AcDbEntity
  8
SIZE
  6
Continuous
 62
     0
100
AcDbLine
 10
143.5
 20
-300.0
 30
0.0
 11
304.6432844803784
 21
-300.0
 31
0.0
  0
LINE
  5
1675
330
4F36
100
AcDbEntity
  8
SIZE
  6
Continuous
 62
     0
100
AcDbLine
 10
177.5
 20
-0.0000000000000057
 30
0.0
 11
304.6432844803785
 21
-0.0000000000000417
 31
0.0
  0
LINE
  5
1676
330
4F36
100
AcDbEntity
  8
SIZE
  6
Continuous
 62
     0
100
AcDbLine
 10
284.6432844803784
 20
-288.0000000000001
 30
0.0
 11
284.6432844803785
 21
-12.00000000000003
 31
0.0
  0
INSERT
  5
1677
330
4F36
100
AcDbEntity
  8
SIZE
  6
Continuous
 62
     0
100
AcDbBlockReference
  2
_DOTBLANK
 10
284.6432844803784
 20
-300.0
 30
0.0
 41
12.0
 42
12.0
 43
12.0
 50
270.0
  0
INSERT
  5
1678
330
4F36
100
AcDbEntity
  8
SIZE
  6
Continuous
 62
     0
100
AcDbBlockReference
  2
_DOTBLANK
 10
284.6432844803785
 20
-0.000000000000036
 30
0.0
 41
12.0
 42
12.0
 43
12.0
 50
90.0
  0
INSERT
  5
1679
330
4F36
100
AcDbEntity
  8
0
100
AcDbBlockReference
  2
*U33
 10
0.0
 20
0.0
 30
0.0
  0
POINT
  5
167A
330
4F36
100
AcDbEntity
  8
DEFPOINTS
  6
Continuous
 62
     0
100
AcDbPoint
 10
123.5
 20
-300.0
 30
0.0
  0
POINT
  5
167B
330
4F36
100
AcDbEntity
  8
DEFPOINTS
  6
Continuous
 62
     0
100
AcDbPoint
 10
157.5
 20
0.0
 30
0.0
  0
POINT
  5
167C
330
4F36
100
AcDbEntity
  8
DEFPOINTS
  6
Continuous
 62
     0
100
AcDbPoint
 10
284.6432844803785
 20
-0.000000000000036
 30
0.0
  0
ENDBLK
  5
14B3
330
4F36
100
AcDbEntity
  8
0
100
AcDbBlockEnd
  0
BLOCK
  5
4F39
330
4F38
100
AcDbEntity
  8
0
100
AcDbBlockBegin
  2
*U33
 70
     1
 10
0.0
 20
0.0
 30
0.0
  3
*U33
  1

  0
TEXT
  5
1F0D
330
4F38
100
AcDbEntity
  8
SIZE
 62
     0
100
AcDbText
 10
274.6432844803785
 20
-224.0571428571429
 30
0.0
 40
64.0
  1
300
 50
90.0
 41
0.9
100
AcDbText
  0
ENDBLK
  5
1F0F
330
4F38
100
AcDbEntity
  8
0
100
AcDbBlockEnd
  0
BLOCK
  5
4F3B
330
4F3A
100
AcDbEntity
  8
0
100
AcDbBlockBegin
  2
*D34
 70
     1
 10
0.0
 20
0.0
 30
0.0
  3
*D34
  1

  0
LINE
  5
167D
330
4F3A
100
AcDbEntity
  8
SIZE
 62
     0
100
AcDbLine
 10
-140.0
 20
32.46448280219375
 30
0.0
 11
-140.0
 21
136.4516878685507
 31
0.0
  0
LINE
  5
167E
330
4F3A
100
AcDbEntity
  8
SIZE
 62
     0
100
AcDbLine
 10
140.0
 20
32.46448280219375
 30
0.0
 11
140.0
 21
136.4516878685507
 31
0.0
  0
LINE
  5
167F
330
4F3A
100
AcDbEntity
  8
SIZE
 62
     0
100
AcDbLine
 10
-128.0
 20
116.4516878685508
 30
0.0
 11
128.0
 21
116.4516878685508
 31
0.0
  0
INSERT
  5
1680
330
4F3A
100
AcDbEntity
  8
SIZE
 62
     0
100
AcDbBlockReference
  2
_DOTBLANK
 10
-140.0
 20
116.4516878685508
 30
0.0
 41
12.0
 42
12.0
 43
12.0
 50
180.0
  0
INSERT
  5
1681
330
4F3A
100
AcDbEntity
  8
SIZE
 62
     0
100
AcDbBlockReference
  2
_DOTBLANK
 10
140.0
 20
116.4516878685508
 30
0.0
 41
12.0
 42
12.0
 43
12.0
  0
INSERT
  5
1682
330
4F3A
100
AcDbEntity
  8
0
100
AcDbBlockReference
  2
*U35
 10
0.0
 20
0.0
 30
0.0
  0
POINT
  5
1683
330
4F3A
100
AcDbEntity
  8
DEFPOINTS
 62
     0
100
AcDbPoint
 10
-140.0
 20
12.46448280219374
 30
0.0
  0
POINT
  5
1684
330
4F3A
100
AcDbEntity
  8
DEFPOINTS
 62
     0
100
AcDbPoint
 10
140.0
 20
12.46448280219374
 30
0.0
  0
POINT
  5
1685
330
4F3A
100
AcDbEntity
  8
DEFPOINTS
 62
     0
100
AcDbPoint
 10
140.0
 20
116.4516878685508
 30
0.0
  0
ENDBLK
  5
14BF
330
4F3A
100
AcDbEntity
  8
0
100
AcDbBlockEnd
  0
BLOCK
  5
4F3D
330
4F3C
100
AcDbEntity
  8
0
100
AcDbBlockBegin
  2
*U35
 70
     1
 10
0.0
 20
0.0
 30
0.0
  3
*U35
  1

  0
TEXT
  5
1F11
330
4F3C
100
AcDbEntity
  8
SIZE
 62
     0
100
AcDbText
 10
-74.05714285714283
 20
126.4516878685507
 30
0.0
 40
64.0
  1
280
 41
0.9
100
AcDbText
  0
ENDBLK
  5
1F13
330
4F3C
100
AcDbEntity
  8
0
100
AcDbBlockEnd
  0
BLOCK
  5
4F3F
330
4F3E
100
AcDbEntity
  8
0
100
AcDbBlockBegin
  2
*D36
 70
     1
 10
0.0
 20
0.0
 30
0.0
  3
*D36
  1

  0
LINE
  5
1686
330
4F3E
100
AcDbEntity
  8
SIZE
 62
     0
100
AcDbLine
 10
-157.5
 20
20.0
 30
0.0
 11
-157.5
 21
245.5794621189598
 31
0.0
  0
LINE
  5
1687
330
4F3E
100
AcDbEntity
  8
SIZE
 62
     0
100
AcDbLine
 10
157.5
 20
20.0
 30
0.0
 11
157.5
 21
245.5794621189598
 31
0.0
  0
LINE
  5
1688
330
4F3E
100
AcDbEntity
  8
SIZE
 62
     0
100
AcDbLine
 10
-145.5
 20
225.5794621189598
 30
0.0
 11
145.5
 21
225.5794621189598
 31
0.0
  0
INSERT
  5
1689
330
4F3E
100
AcDbEntity
  8
SIZE
 62
     0
100
AcDbBlockReference
  2
_DOTBLANK
 10
-157.5
 20
225.5794621189598
 30
0.0
 41
12.0
 42
12.0
 43
12.0
 50
180.0
  0
INSERT
  5
168A
330
4F3E
100
AcDbEntity
  8
SIZE
 62
     0
100
AcDbBlockReference
  2
_DOTBLANK
 10
157.5
 20
225.5794621189598
 30
0.0
 41
12.0
 42
12.0
 43
12.0
  0
INSERT
  5
168B
330
4F3E
100
AcDbEntity
  8
0
100
AcDbBlockReference
  2
*U37
 10
0.0
 20
0.0
 30
0.0
  0
POINT
  5
168C
330
4F3E
100
AcDbEntity
  8
DEFPOINTS
 62
     0
100
AcDbPoint
 10
-157.5
 20
0.0
 30
0.0
  0
POINT
  5
168D
330
4F3E
100
AcDbEntity
  8
DEFPOINTS
 62
     0
100
AcDbPoint
 10
157.5
 20
0.0
 30
0.0
  0
POINT
  5
168E
330
4F3E
100
AcDbEntity
  8
DEFPOINTS
 62
     0
100
AcDbPoint
 10
157.5
 20
225.5794621189598
 30
0.0
  0
ENDBLK
  5
14CB
330
4F3E
100
AcDbEntity
  8
0
100
AcDbBlockEnd
  0
BLOCK
  5
4F41
330
4F40
100
AcDbEntity
  8
0
100
AcDbBlockBegin
  2
*U37
 70
     1
 10
0.0
 20
0.0
 30
0.0
  3
*U37
  1

  0
TEXT
  5
1F15
330
4F40
100
AcDbEntity
  8
SIZE
 62
     0
100
AcDbText
 10
-68.57142857142857
 20
235.5794621189598
 30
0.0
 40
64.0
  1
315
 41
0.9
100
AcDbText
  0
ENDBLK
  5
1F17
330
4F40
100
AcDbEntity
  8
0
100
AcDbBlockEnd
  0
BLOCK
  5
4F43
330
4F42
100
AcDbEntity
  8
0
100
AcDbBlockBegin
  2
*U38
 70
     1
 10
0.0
 20
0.0
 30
0.0
  3
*U38
  1

  0
ENDBLK
  5
15CF
330
4F42
100
AcDbEntity
  8
0
100
AcDbBlockEnd
  0
BLOCK
  5
4F45
330
4F44
100
AcDbEntity
  8
0
100
AcDbBlockBegin
  2
*D39
 70
     1
 10
0.0
 20
0.0
 30
0.0
  3
*D39
  1

  0
LINE
  5
1692
330
4F44
100
AcDbEntity
  8
SIZE
 62
     0
100
AcDbLine
 10
-25844.51823276502
 20
7685.702971374808
 30
0.0
 11
-25981.04465488371
 21
7685.702971374808
 31
0.0
  0
LINE
  5
1693
330
4F44
100
AcDbEntity
  8
SIZE
 62
     0
100
AcDbLine
 10
-25844.51823276502
 20
7677.702971374808
 30
0.0
 11
-25981.04465488371
 21
7677.702971374808
 31
0.0
  0
LINE
  5
1694
330
4F44
100
AcDbEntity
  8
SIZE
 62
     0
100
AcDbLine
 10
-25961.04465488371
 20
7697.702971374808
 30
0.0
 11
-25961.04465488371
 21
7709.702971374809
 31
0.0
  0
LINE
  5
1695
330
4F44
100
AcDbEntity
  8
SIZE
 62
     0
100
AcDbLine
 10
-25961.04465488371
 20
7665.70297137481
 30
0.0
 11
-25961.04465488371
 21
7595.302971374808
 31
0.0
  0
INSERT
  5
1696
330
4F44
100
AcDbEntity
  8
SIZE
 62
     0
100
AcDbBlockReference
  2
_DOTBLANK
 10
-25961.04465488371
 20
7685.702971374808
 30
0.0
 41
12.0
 42
12.0
 43
12.0
 50
270.0
  0
INSERT
  5
1697
330
4F44
100
AcDbEntity
  8
SIZE
 62
     0
100
AcDbBlockReference
  2
_DOTBLANK
 10
-25961.04465488371
 20
7677.702971374808
 30
0.0
 41
12.0
 42
12.0
 43
12.0
 50
90.0
  0
INSERT
  5
1698
330
4F44
100
AcDbEntity
  8
0
100
AcDbBlockReference
  2
*U40
 10
0.0
 20
0.0
 30
0.0
  0
POINT
  5
1699
330
4F44
100
AcDbEntity
  8
DEFPOINTS
 62
     0
100
AcDbPoint
 10
-25824.51823276501
 20
7685.702971374808
 30
0.0
  0
POINT
  5
169A
330
4F44
100
AcDbEntity
  8
DEFPOINTS
 62
     0
100
AcDbPoint
 10
-25824.51823276501
 20
7677.702971374808
 30
0.0
  0
POINT
  5
169B
330
4F44
100
AcDbEntity
  8
DEFPOINTS
 62
     0
100
AcDbPoint
 10
-25961.04465488371
 20
7677.702971374808
 30
0.0
  0
ENDBLK
  5
169C
330
4F44
100
AcDbEntity
  8
0
100
AcDbBlockEnd
  0
BLOCK
  5
4F47
330
4F46
100
AcDbEntity
  8
0
100
AcDbBlockBegin
  2
*U40
 70
     1
 10
0.0
 20
0.0
 30
0.0
  3
*U40
  1

  0
TEXT
  5
1F19
330
4F46
100
AcDbEntity
  8
SIZE
 62
     0
100
AcDbText
 10
-25971.04465488371
 20
7605.302971374804
 30
0.0
 40
64.0
  1
8
 50
90.0
 41
0.9
100
AcDbText
  0
ENDBLK
  5
1F1B
330
4F46
100
AcDbEntity
  8
0
100
AcDbBlockEnd
  0
BLOCK
  5
4F49
330
4F48
100
AcDbEntity
  8
0
100
AcDbBlockBegin
  2
*D41
 70
     1
 10
0.0
 20
0.0
 30
0.0
  3
*D41
  1

  0
LINE
  5
169F
330
4F48
100
AcDbEntity
  8
SIZE
 62
     0
100
AcDbLine
 10
-25512.51823276502
 20
7385.702971374808
 30
0.0
 11
-25362.37494828464
 21
7385.702971374808
 31
0.0
  0
LINE
  5
16A0
330
4F48
100
AcDbEntity
  8
SIZE
 62
     0
100
AcDbLine
 10
-25523.51823276501
 20
7373.702971374808
 30
0.0
 11
-25362.37494828464
 21
7373.702971374808
 31
0.0
  0
LINE
  5
16A1
330
4F48
100
AcDbEntity
  8
SIZE
 62
     0
100
AcDbLine
 10
-25382.37494828464
 20
7397.702971374808
 30
0.0
 11
-25382.37494828464
 21
7409.70297137481
 31
0.0
  0
LINE
  5
16A2
330
4F48
100
AcDbEntity
  8
SIZE
 62
     0
100
AcDbLine
 10
-25382.37494828464
 20
7361.702971374808
 30
0.0
 11
-25382.37494828464
 21
7244.674399946238
 31
0.0
  0
INSERT
  5
16A3
330
4F48
100
AcDbEntity
  8
SIZE
 62
     0
100
AcDbBlockReference
  2
_DOTBLANK
 10
-25382.37494828464
 20
7385.702971374808
 30
0.0
 41
12.0
 42
12.0
 43
12.0
 50
270.0
  0
INSERT
  5
16A4
330
4F48
100
AcDbEntity
  8
SIZE
 62
     0
100
AcDbBlockReference
  2
_DOTBLANK
 10
-25382.37494828464
 20
7373.702971374808
 30
0.0
 41
12.0
 42
12.0
 43
12.0
 50
90.0
  0
INSERT
  5
16A5
330
4F48
100
AcDbEntity
  8
0
100
AcDbBlockReference
  2
*U42
 10
0.0
 20
0.0
 30
0.0
  0
POINT
  5
16A6
330
4F48
100
AcDbEntity
  8
DEFPOINTS
 62
     0
100
AcDbPoint
 10
-25532.51823276502
 20
7385.702971374808
 30
0.0
  0
POINT
  5
16A7
330
4F48
100
AcDbEntity
  8
DEFPOINTS
 62
     0
100
AcDbPoint
 10
-25543.51823276502
 20
7373.702971374808
 30
0.0
  0
POINT
  5
16A8
330
4F48
100
AcDbEntity
  8
DEFPOINTS
 62
     0
100
AcDbPoint
 10
-25382.37494828464
 20
7373.702971374808
 30
0.0
  0
ENDBLK
  5
16A9
330
4F48
100
AcDbEntity
  8
0
100
AcDbBlockEnd
  0
BLOCK
  5
4F4B
330
4F4A
100
AcDbEntity
  8
0
100
AcDbBlockBegin
  2
*U42
 70
     1
 10
0.0
 20
0.0
 30
0.0
  3
*U42
  1

  0
TEXT
  5
1F1D
330
4F4A
100
AcDbEntity
  8
SIZE
 62
     0
100
AcDbText
 10
-25392.37494828464
 20
7256.045828517662
 30
0.0
 40
64.0
  1
12
 50
90.0
 41
0.9
100
AcDbText
  0
ENDBLK
  5
1F1F
330
4F4A
100
AcDbEntity
  8
0
100
AcDbBlockEnd
  0
BLOCK
  5
4F4D
330
4F4C
100
AcDbEntity
  8
0
100
AcDbBlockBegin
  2
*D43
 70
     1
 10
0.0
 20
0.0
 30
0.0
  3
*D43
  1

  0
LINE
  5
16AC
330
4F4C
100
AcDbEntity
  8
SIZE
 62
     0
100
AcDbLine
 10
-25801.51823276501
 20
7365.702971374808
 30
0.0
 11
-25801.51823276501
 21
7217.685576144207
 31
0.0
  0
LINE
  5
16AD
330
4F4C
100
AcDbEntity
  8
SIZE
 62
     0
100
AcDbLine
 10
-25532.51823276502
 20
7365.702971374808
 30
0.0
 11
-25532.51823276502
 21
7217.685576144207
 31
0.0
  0
LINE
  5
16AE
330
4F4C
100
AcDbEntity
  8
SIZE
 62
     0
100
AcDbLine
 10
-25789.51823276502
 20
7237.685576144207
 30
0.0
 11
-25544.51823276501
 21
7237.685576144207
 31
0.0
  0
INSERT
  5
16AF
330
4F4C
100
AcDbEntity
  8
SIZE
 62
     0
100
AcDbBlockReference
  2
_DOTBLANK
 10
-25801.51823276501
 20
7237.685576144207
 30
0.0
 41
12.0
 42
12.0
 43
12.0
 50
180.0
  0
INSERT
  5
16B0
330
4F4C
100
AcDbEntity
  8
SIZE
 62
     0
100
AcDbBlockReference
  2
_DOTBLANK
 10
-25532.51823276502
 20
7237.685576144207
 30
0.0
 41
12.0
 42
12.0
 43
12.0
  0
INSERT
  5
16B1
330
4F4C
100
AcDbEntity
  8
0
100
AcDbBlockReference
  2
*U44
 10
0.0
 20
0.0
 30
0.0
  0
POINT
  5
16B2
330
4F4C
100
AcDbEntity
  8
DEFPOINTS
 62
     0
100
AcDbPoint
 10
-25801.51823276501
 20
7385.702971374808
 30
0.0
  0
POINT
  5
16B3
330
4F4C
100
AcDbEntity
  8
DEFPOINTS
 62
     0
100
AcDbPoint
 10
-25532.51823276502
 20
7385.702971374808
 30
0.0
  0
POINT
  5
16B4
330
4F4C
100
AcDbEntity
  8
DEFPOINTS
 62
     0
100
AcDbPoint
 10
-25532.51823276502
 20
7237.685576144207
 30
0.0
  0
ENDBLK
  5
16B5
330
4F4C
100
AcDbEntity
  8
0
100
AcDbBlockEnd
  0
BLOCK
  5
4F4F
330
4F4E
100
AcDbEntity
  8
0
100
AcDbBlockBegin
  2
*U44
 70
     1
 10
0.0
 20
0.0
 30
0.0
  3
*U44
  1

  0
TEXT
  5
1F21
330
4F4E
100
AcDbEntity
  8
SIZE
 62
     0
100
AcDbText
 10
-25739.70394705074
 20
7247.685576144205
 30
0.0
 40
64.0
  1
269
 41
0.9
100
AcDbText
  0
ENDBLK
  5
1F23
330
4F4E
100
AcDbEntity
  8
0
100
AcDbBlockEnd
  0
BLOCK
  5
4F51
330
4F50
100
AcDbEntity
  8
0
100
AcDbBlockBegin
  2
*D45
 70
     1
 10
0.0
 20
0.0
 30
0.0
  3
*D45
  1

  0
LINE
  5
16B8
330
4F50
100
AcDbEntity
  8
SIZE
 62
     0
100
AcDbLine
 10
-25512.51823276502
 20
7385.702971374808
 30
0.0
 11
-25362.37494828464
 21
7385.702971374808
 31
0.0
  0
LINE
  5
16B9
330
4F50
100
AcDbEntity
  8
SIZE
 62
     0
100
AcDbLine
 10
-25489.51823276501
 20
7685.702971374808
 30
0.0
 11
-25362.37494828464
 21
7685.702971374808
 31
0.0
  0
LINE
  5
16BA
330
4F50
100
AcDbEntity
  8
SIZE
 62
     0
100
AcDbLine
 10
-25382.37494828464
 20
7397.702971374808
 30
0.0
 11
-25382.37494828464
 21
7673.702971374808
 31
0.0
  0
INSERT
  5
16BB
330
4F50
100
AcDbEntity
  8
SIZE
 62
     0
100
AcDbBlockReference
  2
_DOTBLANK
 10
-25382.37494828464
 20
7385.702971374808
 30
0.0
 41
12.0
 42
12.0
 43
12.0
 50
270.0
  0
INSERT
  5
16BC
330
4F50
100
AcDbEntity
  8
SIZE
 62
     0
100
AcDbBlockReference
  2
_DOTBLANK
 10
-25382.37494828464
 20
7685.702971374808
 30
0.0
 41
12.0
 42
12.0
 43
12.0
 50
90.0
  0
INSERT
  5
16BD
330
4F50
100
AcDbEntity
  8
0
100
AcDbBlockReference
  2
*U46
 10
0.0
 20
0.0
 30
0.0
  0
POINT
  5
16BE
330
4F50
100
AcDbEntity
  8
DEFPOINTS
 62
     0
100
AcDbPoint
 10
-25532.51823276502
 20
7385.702971374808
 30
0.0
  0
POINT
  5
16BF
330
4F50
100
AcDbEntity
  8
DEFPOINTS
 62
     0
100
AcDbPoint
 10
-25509.51823276502
 20
7685.702971374808
 30
0.0
  0
POINT
  5
16C0
330
4F50
100
AcDbEntity
  8
DEFPOINTS
 62
     0
100
AcDbPoint
 10
-25382.37494828464
 20
7685.702971374808
 30
0.0
  0
ENDBLK
  5
16C1
330
4F50
100
AcDbEntity
  8
0
100
AcDbBlockEnd
  0
BLOCK
  5
4F53
330
4F52
100
AcDbEntity
  8
0
100
AcDbBlockBegin
  2
*U46
 70
     1
 10
0.0
 20
0.0
 30
0.0
  3
*U46
  1

  0
TEXT
  5
1F25
330
4F52
100
AcDbEntity
  8
SIZE
 62
     0
100
AcDbText
 10
-25392.37494828464
 20
7461.645828517662
 30
0.0
 40
64.0
  1
300
 50
90.0
 41
0.9
100
AcDbText
  0
ENDBLK
  5
1F27
330
4F52
100
AcDbEntity
  8
0
100
AcDbBlockEnd
  0
BLOCK
  5
4F55
330
4F54
100
AcDbEntity
  8
0
100
AcDbBlockBegin
  2
*D47
 70
     1
 10
0.0
 20
0.0
 30
0.0
  3
*D47
  1

  0
LINE
  5
16C4
330
4F54
100
AcDbEntity
  8
SIZE
 62
     0
100
AcDbLine
 10
-25807.01823276501
 20
7718.167454177002
 30
0.0
 11
-25807.01823276501
 21
7822.154659243358
 31
0.0
  0
LINE
  5
16C5
330
4F54
100
AcDbEntity
  8
SIZE
 62
     0
100
AcDbLine
 10
-25527.01823276501
 20
7718.167454177002
 30
0.0
 11
-25527.01823276501
 21
7822.154659243358
 31
0.0
  0
LINE
  5
16C6
330
4F54
100
AcDbEntity
  8
SIZE
 62
     0
100
AcDbLine
 10
-25795.01823276502
 20
7802.154659243358
 30
0.0
 11
-25539.01823276501
 21
7802.154659243358
 31
0.0
  0
INSERT
  5
16C7
330
4F54
100
AcDbEntity
  8
SIZE
 62
     0
100
AcDbBlockReference
  2
_DOTBLANK
 10
-25807.01823276501
 20
7802.154659243358
 30
0.0
 41
12.0
 42
12.0
 43
12.0
 50
180.0
  0
INSERT
  5
16C8
330
4F54
100
AcDbEntity
  8
SIZE
 62
     0
100
AcDbBlockReference
  2
_DOTBLANK
 10
-25527.01823276501
 20
7802.154659243358
 30
0.0
 41
12.0
 42
12.0
 43
12.0
  0
INSERT
  5
16C9
330
4F54
100
AcDbEntity
  8
0
100
AcDbBlockReference
  2
*U48
 10
0.0
 20
0.0
 30
0.0
  0
POINT
  5
16CA
330
4F54
100
AcDbEntity
  8
DEFPOINTS
 62
     0
100
AcDbPoint
 10
-25807.01823276501
 20
7698.167454177002
 30
0.0
  0
POINT
  5
16CB
330
4F54
100
AcDbEntity
  8
DEFPOINTS
 62
     0
100
AcDbPoint
 10
-25527.01823276501
 20
7698.167454177002
 30
0.0
  0
POINT
  5
16CC
330
4F54
100
AcDbEntity
  8
DEFPOINTS
 62
     0
100
AcDbPoint
 10
-25527.01823276501
 20
7802.154659243358
 30
0.0
  0
ENDBLK
  5
16CD
330
4F54
100
AcDbEntity
  8
0
100
AcDbBlockEnd
  0
BLOCK
  5
4F57
330
4F56
100
AcDbEntity
  8
0
100
AcDbBlockBegin
  2
*U48
 70
     1
 10
0.0
 20
0.0
 30
0.0
  3
*U48
  1

  0
TEXT
  5
1F29
330
4F56
100
AcDbEntity
  8
SIZE
 62
     0
100
AcDbText
 10
-25741.07537562216
 20
7812.154659243358
 30
0.0
 40
64.0
  1
280
 41
0.9
100
AcDbText
  0
ENDBLK
  5
1F2B
330
4F56
100
AcDbEntity
  8
0
100
AcDbBlockEnd
  0
BLOCK
  5
4F59
330
4F58
100
AcDbEntity
  8
0
100
AcDbBlockBegin
  2
*D49
 70
     1
 10
0.0
 20
0.0
 30
0.0
  3
*D49
  1

  0
LINE
  5
16D0
330
4F58
100
AcDbEntity
  8
SIZE
 62
     0
100
AcDbLine
 10
-25824.51823276501
 20
7705.702971374808
 30
0.0
 11
-25824.51823276501
 21
7931.282433493766
 31
0.0
  0
LINE
  5
16D1
330
4F58
100
AcDbEntity
  8
SIZE
 62
     0
100
AcDbLine
 10
-25509.51823276502
 20
7705.702971374808
 30
0.0
 11
-25509.51823276502
 21
7931.282433493766
 31
0.0
  0
LINE
  5
16D2
330
4F58
100
AcDbEntity
  8
SIZE
 62
     0
100
AcDbLine
 10
-25812.51823276502
 20
7911.282433493766
 30
0.0
 11
-25521.51823276501
 21
7911.282433493766
 31
0.0
  0
INSERT
  5
16D3
330
4F58
100
AcDbEntity
  8
SIZE
 62
     0
100
AcDbBlockReference
  2
_DOTBLANK
 10
-25824.51823276501
 20
7911.282433493766
 30
0.0
 41
12.0
 42
12.0
 43
12.0
 50
180.0
  0
INSERT
  5
16D4
330
4F58
100
AcDbEntity
  8
SIZE
 62
     0
100
AcDbBlockReference
  2
_DOTBLANK
 10
-25509.51823276502
 20
7911.282433493766
 30
0.0
 41
12.0
 42
12.0
 43
12.0
  0
INSERT
  5
16D5
330
4F58
100
AcDbEntity
  8
0
100
AcDbBlockReference
  2
*U50
 10
0.0
 20
0.0
 30
0.0
  0
POINT
  5
16D6
330
4F58
100
AcDbEntity
  8
DEFPOINTS
 62
     0
100
AcDbPoint
 10
-25824.51823276501
 20
7685.702971374808
 30
0.0
  0
POINT
  5
16D7
330
4F58
100
AcDbEntity
  8
DEFPOINTS
 62
     0
100
AcDbPoint
 10
-25509.51823276502
 20
7685.702971374808
 30
0.0
  0
POINT
  5
16D8
330
4F58
100
AcDbEntity
  8
DEFPOINTS
 62
     0
100
AcDbPoint
 10
-25509.51823276502
 20
7911.282433493766
 30
0.0
  0
ENDBLK
  5
16D9
330
4F58
100
AcDbEntity
  8
0
100
AcDbBlockEnd
  0
BLOCK
  5
4F5B
330
4F5A
100
AcDbEntity
  8
0
100
AcDbBlockBegin
  2
*U50
 70
     1
 10
0.0
 20
0.0
 30
0.0
  3
*U50
  1

  0
TEXT
  5
1F2D
330
4F5A
100
AcDbEntity
  8
SIZE
 62
     0
100
AcDbText
 10
-25735.58966133645
 20
7921.282433493766
 30
0.0
 40
64.0
  1
315
 41
0.9
100
AcDbText
  0
ENDBLK
  5
1F2F
330
4F5A
100
AcDbEntity
  8
0
100
AcDbBlockEnd
  0
BLOCK
  5
4F5D
330
4F5C
100
AcDbEntity
  8
0
100
AcDbBlockBegin
  2
*D51
 70
     1
 10
0.0
 20
0.0
 30
0.0
  3
*D51
  1

  0
LINE
  5
1D83
330
4F5C
100
AcDbEntity
  8
SIZE
 62
     0
100
AcDbLine
 10
-134.5
 20
-320.0
 30
0.0
 11
-134.5
 21
-468.0173952306001
 31
0.0
  0
LINE
  5
1D84
330
4F5C
100
AcDbEntity
  8
SIZE
 62
     0
100
AcDbLine
 10
134.5
 20
-320.0
 30
0.0
 11
134.5
 21
-468.0173952306001
 31
0.0
  0
LINE
  5
1D85
330
4F5C
100
AcDbEntity
  8
SIZE
 62
     0
100
AcDbLine
 10
-122.5
 20
-448.0173952306
 30
0.0
 11
122.5
 21
-448.0173952306
 31
0.0
  0
INSERT
  5
1D86
330
4F5C
100
AcDbEntity
  8
SIZE
 62
     0
100
AcDbBlockReference
  2
_DOTBLANK
 10
-134.5
 20
-448.0173952306
 30
0.0
 41
12.0
 42
12.0
 43
12.0
 50
180.0
  0
INSERT
  5
1D87
330
4F5C
100
AcDbEntity
  8
SIZE
 62
     0
100
AcDbBlockReference
  2
_DOTBLANK
 10
134.5
 20
-448.0173952306
 30
0.0
 41
12.0
 42
12.0
 43
12.0
  0
INSERT
  5
1D88
330
4F5C
100
AcDbEntity
  8
0
100
AcDbBlockReference
  2
*U52
 10
0.0
 20
0.0
 30
0.0
  0
POINT
  5
1D89
330
4F5C
100
AcDbEntity
  8
DEFPOINTS
 62
     0
100
AcDbPoint
 10
-134.5
 20
-300.0
 30
0.0
  0
POINT
  5
1D8A
330
4F5C
100
AcDbEntity
  8
DEFPOINTS
 62
     0
100
AcDbPoint
 10
134.5
 20
-300.0
 30
0.0
  0
POINT
  5
1D8B
330
4F5C
100
AcDbEntity
  8
DEFPOINTS
 62
     0
100
AcDbPoint
 10
134.5
 20
-448.0173952306
 30
0.0
  0
ENDBLK
  5
173D
330
4F5C
100
AcDbEntity
  8
0
100
AcDbBlockEnd
  0
BLOCK
  5
4F5F
330
4F5E
100
AcDbEntity
  8
0
100
AcDbBlockBegin
  2
*U52
 70
     1
 10
0.0
 20
0.0
 30
0.0
  3
*U52
  1

  0
TEXT
  5
1F31
330
4F5E
100
AcDbEntity
  8
SIZE
 62
     0
100
AcDbText
 10
-72.68571428571426
 20
-438.0173952306003
 30
0.0
 40
64.0
  1
269
 41
0.9
100
AcDbText
  0
ENDBLK
  5
1F33
330
4F5E
100
AcDbEntity
  8
0
100
AcDbBlockEnd
  0
BLOCK
  5
4F61
330
4F60
100
AcDbEntity
  8
0
100
AcDbBlockBegin
  2
*D53
 70
     1
 10
0.0
 20
0.0
 30
0.0
  3
*D53
  1

  0
LINE
  5
1D8C
330
4F60
100
AcDbEntity
  8
SIZE
 62
     0
100
AcDbLine
 10
154.5
 20
-300.0
 30
0.0
 11
304.6432844803784
 21
-300.0
 31
0.0
  0
LINE
  5
1D8D
330
4F60
100
AcDbEntity
  8
SIZE
 62
     0
100
AcDbLine
 10
177.5
 20
-0.0000000000000057
 30
0.0
 11
304.6432844803785
 21
-0.0000000000000417
 31
0.0
  0
LINE
  5
1D8E
330
4F60
100
AcDbEntity
  8
SIZE
 62
     0
100
AcDbLine
 10
284.6432844803784
 20
-288.0
 30
0.0
 11
284.6432844803785
 21
-12.00000000000003
 31
0.0
  0
INSERT
  5
1D8F
330
4F60
100
AcDbEntity
  8
SIZE
 62
     0
100
AcDbBlockReference
  2
_DOTBLANK
 10
284.6432844803784
 20
-300.0
 30
0.0
 41
12.0
 42
12.0
 43
12.0
 50
270.0
  0
INSERT
  5
1D90
330
4F60
100
AcDbEntity
  8
SIZE
 62
     0
100
AcDbBlockReference
  2
_DOTBLANK
 10
284.6432844803785
 20
-0.000000000000036
 30
0.0
 41
12.0
 42
12.0
 43
12.0
 50
90.0
  0
INSERT
  5
1D91
330
4F60
100
AcDbEntity
  8
0
100
AcDbBlockReference
  2
*U54
 10
0.0
 20
0.0
 30
0.0
  0
POINT
  5
1D92
330
4F60
100
AcDbEntity
  8
DEFPOINTS
 62
     0
100
AcDbPoint
 10
134.5
 20
-300.0
 30
0.0
  0
POINT
  5
1D93
330
4F60
100
AcDbEntity
  8
DEFPOINTS
 62
     0
100
AcDbPoint
 10
157.5
 20
0.0
 30
0.0
  0
POINT
  5
1D94
330
4F60
100
AcDbEntity
  8
DEFPOINTS
 62
     0
100
AcDbPoint
 10
284.6432844803785
 20
-0.000000000000036
 30
0.0
  0
ENDBLK
  5
1749
330
4F60
100
AcDbEntity
  8
0
100
AcDbBlockEnd
  0
BLOCK
  5
4F63
330
4F62
100
AcDbEntity
  8
0
100
AcDbBlockBegin
  2
*U54
 70
     1
 10
0.0
 20
0.0
 30
0.0
  3
*U54
  1

  0
TEXT
  5
1F35
330
4F62
100
AcDbEntity
  8
SIZE
 62
     0
100
AcDbText
 10
274.6432844803785
 20
-224.0571428571429
 30
0.0
 40
64.0
  1
300
 50
90.0
 41
0.9
100
AcDbText
  0
ENDBLK
  5
1F37
330
4F62
100
AcDbEntity
  8
0
100
AcDbBlockEnd
  0
BLOCK
  5
4F65
330
4F64
100
AcDbEntity
  8
0
100
AcDbBlockBegin
  2
*D55
 70
     1
 10
0.0
 20
0.0
 30
0.0
  3
*D55
  1

  0
LINE
  5
1D95
330
4F64
100
AcDbEntity
  8
SIZE
 62
     0
100
AcDbLine
 10
-140.0
 20
32.46448280219375
 30
0.0
 11
-140.0
 21
136.4516878685508
 31
0.0
  0
LINE
  5
1D96
330
4F64
100
AcDbEntity
  8
SIZE
 62
     0
100
AcDbLine
 10
140.0
 20
32.46448280219375
 30
0.0
 11
140.0
 21
136.4516878685508
 31
0.0
  0
LINE
  5
1D97
330
4F64
100
AcDbEntity
  8
SIZE
 62
     0
100
AcDbLine
 10
-128.0
 20
116.4516878685508
 30
0.0
 11
128.0
 21
116.4516878685508
 31
0.0
  0
INSERT
  5
1D98
330
4F64
100
AcDbEntity
  8
SIZE
 62
     0
100
AcDbBlockReference
  2
_DOTBLANK
 10
-140.0
 20
116.4516878685508
 30
0.0
 41
12.0
 42
12.0
 43
12.0
 50
180.0
  0
INSERT
  5
1D99
330
4F64
100
AcDbEntity
  8
SIZE
 62
     0
100
AcDbBlockReference
  2
_DOTBLANK
 10
140.0
 20
116.4516878685508
 30
0.0
 41
12.0
 42
12.0
 43
12.0
  0
INSERT
  5
1D9A
330
4F64
100
AcDbEntity
  8
0
100
AcDbBlockReference
  2
*U56
 10
0.0
 20
0.0
 30
0.0
  0
POINT
  5
1D9B
330
4F64
100
AcDbEntity
  8
DEFPOINTS
 62
     0
100
AcDbPoint
 10
-140.0
 20
12.46448280219374
 30
0.0
  0
POINT
  5
1D9C
330
4F64
100
AcDbEntity
  8
DEFPOINTS
 62
     0
100
AcDbPoint
 10
140.0
 20
12.46448280219374
 30
0.0
  0
POINT
  5
1D9D
330
4F64
100
AcDbEntity
  8
DEFPOINTS
 62
     0
100
AcDbPoint
 10
140.0
 20
116.4516878685508
 30
0.0
  0
ENDBLK
  5
1755
330
4F64
100
AcDbEntity
  8
0
100
AcDbBlockEnd
  0
BLOCK
  5
4F67
330
4F66
100
AcDbEntity
  8
0
100
AcDbBlockBegin
  2
*U56
 70
     1
 10
0.0
 20
0.0
 30
0.0
  3
*U56
  1

  0
TEXT
  5
1F39
330
4F66
100
AcDbEntity
  8
SIZE
 62
     0
100
AcDbText
 10
-74.05714285714283
 20
126.4516878685508
 30
0.0
 40
64.0
  1
280
 41
0.9
100
AcDbText
  0
ENDBLK
  5
1F3B
330
4F66
100
AcDbEntity
  8
0
100
AcDbBlockEnd
  0
BLOCK
  5
4F69
330
4F68
100
AcDbEntity
  8
0
100
AcDbBlockBegin
  2
*D57
 70
     1
 10
0.0
 20
0.0
 30
0.0
  3
*D57
  1

  0
LINE
  5
1D9E
330
4F68
100
AcDbEntity
  8
SIZE
 62
     0
100
AcDbLine
 10
-157.5
 20
20.0
 30
0.0
 11
-157.5
 21
245.5794621189598
 31
0.0
  0
LINE
  5
1D9F
330
4F68
100
AcDbEntity
  8
SIZE
 62
     0
100
AcDbLine
 10
157.5
 20
20.0
 30
0.0
 11
157.5
 21
245.5794621189598
 31
0.0
  0
LINE
  5
1DA0
330
4F68
100
AcDbEntity
  8
SIZE
 62
     0
100
AcDbLine
 10
-145.5
 20
225.5794621189598
 30
0.0
 11
145.5
 21
225.5794621189598
 31
0.0
  0
INSERT
  5
1DA1
330
4F68
100
AcDbEntity
  8
SIZE
 62
     0
100
AcDbBlockReference
  2
_DOTBLANK
 10
-157.5
 20
225.5794621189598
 30
0.0
 41
12.0
 42
12.0
 43
12.0
 50
180.0
  0
INSERT
  5
1DA2
330
4F68
100
AcDbEntity
  8
SIZE
 62
     0
100
AcDbBlockReference
  2
_DOTBLANK
 10
157.5
 20
225.5794621189598
 30
0.0
 41
12.0
 42
12.0
 43
12.0
  0
INSERT
  5
1DA3
330
4F68
100
AcDbEntity
  8
0
100
AcDbBlockReference
  2
*U58
 10
0.0
 20
0.0
 30
0.0
  0
POINT
  5
1DA4
330
4F68
100
AcDbEntity
  8
DEFPOINTS
 62
     0
100
AcDbPoint
 10
-157.5
 20
0.0
 30
0.0
  0
POINT
  5
1DA5
330
4F68
100
AcDbEntity
  8
DEFPOINTS
 62
     0
100
AcDbPoint
 10
157.5
 20
0.0
 30
0.0
  0
POINT
  5
1DA6
330
4F68
100
AcDbEntity
  8
DEFPOINTS
 62
     0
100
AcDbPoint
 10
157.5
 20
225.5794621189598
 30
0.0
  0
ENDBLK
  5
1761
330
4F68
100
AcDbEntity
  8
0
100
AcDbBlockEnd
  0
BLOCK
  5
4F6B
330
4F6A
100
AcDbEntity
  8
0
100
AcDbBlockBegin
  2
*U58
 70
     1
 10
0.0
 20
0.0
 30
0.0
  3
*U58
  1

  0
TEXT
  5
1F3D
330
4F6A
100
AcDbEntity
  8
SIZE
 62
     0
100
AcDbText
 10
-68.57142857142857
 20
235.5794621189599
 30
0.0
 40
64.0
  1
315
 41
0.9
100
AcDbText
  0
ENDBLK
  5
1F3F
330
4F6A
100
AcDbEntity
  8
0
100
AcDbBlockEnd
  0
BLOCK
  5
4F6D
330
4F6C
100
AcDbEntity
  8
0
100
AcDbBlockBegin
  2
*D59
 70
     1
 10
0.0
 20
0.0
 30
0.0
  3
*D59
  1

  0
LINE
  5
1DA7
330
4F6C
100
AcDbEntity
  8
SIZE
 62
     0
100
AcDbLine
 10
-177.5
 20
0.0000000000000057
 30
0.0
 11
-314.0264221186908
 21
0.0000000000000443
 31
0.0
  0
LINE
  5
1DA8
330
4F6C
100
AcDbEntity
  8
SIZE
 62
     0
100
AcDbLine
 10
-177.5
 20
-7.999999999999993
 30
0.0
 11
-314.0264221186908
 21
-7.999999999999958
 31
0.0
  0
LINE
  5
1DA9
330
4F6C
100
AcDbEntity
  8
SIZE
 62
     0
100
AcDbLine
 10
-294.0264221186908
 20
12.00000000000003
 30
0.0
 11
-294.0264221186908
 21
24.00000000000004
 31
0.0
  0
LINE
  5
1DAA
330
4F6C
100
AcDbEntity
  8
SIZE
 62
     0
100
AcDbLine
 10
-294.0264221186908
 20
-19.99999999999996
 30
0.0
 11
-294.0264221186908
 21
-90.39999999999997
 31
0.0
  0
INSERT
  5
1DAB
330
4F6C
100
AcDbEntity
  8
SIZE
 62
     0
100
AcDbBlockReference
  2
_DOTBLANK
 10
-294.0264221186908
 20
0.0000000000000387
 30
0.0
 41
12.0
 42
12.0
 43
12.0
 50
270.0
  0
INSERT
  5
1DAC
330
4F6C
100
AcDbEntity
  8
SIZE
 62
     0
100
AcDbBlockReference
  2
_DOTBLANK
 10
-294.0264221186908
 20
-7.999999999999961
 30
0.0
 41
12.0
 42
12.0
 43
12.0
 50
90.0
  0
INSERT
  5
1DAD
330
4F6C
100
AcDbEntity
  8
0
100
AcDbBlockReference
  2
*U60
 10
0.0
 20
0.0
 30
0.0
  0
POINT
  5
1DAE
330
4F6C
100
AcDbEntity
  8
DEFPOINTS
 62
     0
100
AcDbPoint
 10
-157.5
 20
0.0
 30
0.0
  0
POINT
  5
1DAF
330
4F6C
100
AcDbEntity
  8
DEFPOINTS
 62
     0
100
AcDbPoint
 10
-157.5
 20
-8.000000000000003
 30
0.0
  0
POINT
  5
1DB0
330
4F6C
100
AcDbEntity
  8
DEFPOINTS
 62
     0
100
AcDbPoint
 10
-294.0264221186908
 20
-7.999999999999961
 30
0.0
  0
ENDBLK
  5
176D
330
4F6C
100
AcDbEntity
  8
0
100
AcDbBlockEnd
  0
BLOCK
  5
4F6F
330
4F6E
100
AcDbEntity
  8
0
100
AcDbBlockBegin
  2
*U60
 70
     1
 10
0.0
 20
0.0
 30
0.0
  3
*U60
  1

  0
TEXT
  5
1F41
330
4F6E
100
AcDbEntity
  8
SIZE
 62
     0
100
AcDbText
 10
-304.0264221186908
 20
-80.4
 30
0.0
 40
64.0
  1
8
 50
90.0
 41
0.9
100
AcDbText
  0
ENDBLK
  5
1F43
330
4F6E
100
AcDbEntity
  8
0
100
AcDbBlockEnd
  0
BLOCK
  5
4F71
330
4F70
100
AcDbEntity
  8
0
100
AcDbBlockBegin
  2
*D61
 70
     1
 10
0.0
 20
0.0
 30
0.0
  3
*D61
  1

  0
LINE
  5
1DB1
330
4F70
100
AcDbEntity
  8
SIZE
 62
     0
100
AcDbLine
 10
154.5
 20
-300.0
 30
0.0
 11
304.6432844803785
 21
-300.0
 31
0.0
  0
LINE
  5
1DB2
330
4F70
100
AcDbEntity
  8
SIZE
 62
     0
100
AcDbLine
 10
143.5
 20
-312.0
 30
0.0
 11
304.6432844803785
 21
-312.0
 31
0.0
  0
LINE
  5
1DB3
330
4F70
100
AcDbEntity
  8
SIZE
 62
     0
100
AcDbLine
 10
284.6432844803785
 20
-288.0
 30
0.0
 11
284.6432844803785
 21
-276.0
 31
0.0
  0
LINE
  5
1DB4
330
4F70
100
AcDbEntity
  8
SIZE
 62
     0
100
AcDbLine
 10
284.6432844803785
 20
-324.0000000000001
 30
0.0
 11
284.6432844803784
 21
-438.2857142857143
 31
0.0
  0
INSERT
  5
1DB5
330
4F70
100
AcDbEntity
  8
SIZE
 62
     0
100
AcDbBlockReference
  2
_DOTBLANK
 10
284.6432844803785
 20
-300.0
 30
0.0
 41
12.0
 42
12.0
 43
12.0
 50
270.0
  0
INSERT
  5
1DB6
330
4F70
100
AcDbEntity
  8
SIZE
 62
     0
100
AcDbBlockReference
  2
_DOTBLANK
 10
284.6432844803785
 20
-312.0
 30
0.0
 41
12.0
 42
12.0
 43
12.0
 50
90.0
  0
INSERT
  5
1DB7
330
4F70
100
AcDbEntity
  8
0
100
AcDbBlockReference
  2
*U62
 10
0.0
 20
0.0
 30
0.0
  0
POINT
  5
1DB8
330
4F70
100
AcDbEntity
  8
DEFPOINTS
 62
     0
100
AcDbPoint
 10
134.5
 20
-300.0
 30
0.0
  0
POINT
  5
1DB9
330
4F70
100
AcDbEntity
  8
DEFPOINTS
 62
     0
100
AcDbPoint
 10
123.5
 20
-312.0
 30
0.0
  0
POINT
  5
1DBA
330
4F70
100
AcDbEntity
  8
DEFPOINTS
 62
     0
100
AcDbPoint
 10
284.6432844803785
 20
-312.0
 30
0.0
  0
ENDBLK
  5
177B
330
4F70
100
AcDbEntity
  8
0
100
AcDbBlockEnd
  0
BLOCK
  5
4F73
330
4F72
100
AcDbEntity
  8
0
100
AcDbBlockBegin
  2
*U62
 70
     1
 10
0.0
 20
0.0
 30
0.0
  3
*U62
  1

  0
TEXT
  5
1F45
330
4F72
100
AcDbEntity
  8
SIZE
 62
     0
100
AcDbText
 10
274.6432844803785
 20
-428.2857142857142
 30
0.0
 40
64.0
  1
12
 50
90.0
 41
0.9
100
AcDbText
  0
ENDBLK
  5
1F47
330
4F72
100
AcDbEntity
  8
0
100
AcDbBlockEnd
  0
BLOCK
  5
4F75
330
4F74
100
AcDbEntity
  8
0
100
AcDbBlockBegin
  2
*U63
 70
     1
 10
0.0
 20
0.0
 30
0.0
  3
*U63
  1

  0
ENDBLK
  5
1D57
330
4F74
100
AcDbEntity
  8
0
100
AcDbBlockEnd
  0
BLOCK
  5
4F77
330
4F76
100
AcDbEntity
  8
0
100
AcDbBlockBegin
  2
*U64
 70
     1
 10
0.0
 20
0.0
 30
0.0
  3
*U64
  1

  0
INSERT
  5
2088
330
4F76
100
AcDbEntity
  8
NOTE
100
AcDbBlockReference
  2
_OPEN30
 10
-140.0
 20
0.0
 30
0.0
 41
12.0
 42
12.0
 43
12.0
 50
312.6090116116894
  0
POLYLINE
  5
2089
330
4F76
100
AcDbEntity
  8
NOTE
100
AcDb2dPolyline
 66
     1
 10
0.0
 20
0.0
 30
0.0
  0
VERTEX
  5
2124
330
2089
100
AcDbEntity
  8
NOTE
100
AcDbVertex
100
AcDb2dVertex
 10
-148.1239008361894
 20
8.831887408915472
 30
0.0
  0
VERTEX
  5
2125
330
2089
100
AcDbEntity
  8
NOTE
100
AcDbVertex
100
AcDb2dVertex
 10
-227.8693999922543
 20
95.52709505801338
 30
0.0
  0
VERTEX
  5
2126
330
2089
100
AcDbEntity
  8
NOTE
100
AcDbVertex
100
AcDb2dVertex
 10
-773.7093999922541
 20
95.52709505801338
 30
0.0
  0
SEQEND
  5
2127
330
2089
100
AcDbEntity
  8
NOTE
  0
ENDBLK
  5
208A
330
4F76
100
AcDbEntity
  8
0
100
AcDbBlockEnd
  0
BLOCK
  5
4F79
330
4F78
100
AcDbEntity
  8
0
100
AcDbBlockBegin
  2
*U65
 70
     1
 10
0.0
 20
0.0
 30
0.0
  3
*U65
  1

  0
TEXT
  5
208D
330
4F78
100
AcDbEntity
  8
NOTE
100
AcDbText
 10
-773.7093999922541
 20
113.5270950580134
 30
0.0
 40
64.0
  1
4×φ10取付穴
 41
0.9
100
AcDbText
  0
ENDBLK
  5
208E
330
4F78
100
AcDbEntity
  8
0
100
AcDbBlockEnd
  0
ENDSEC
  0
SECTION
  2
ENTITIES
  0
TEXT
  5
953
330
4EA8
100
AcDbEntity
  8
OUTLINE
  6
Continuous
 62
     3
100
AcDbText
 10
-418.231467
 20
13.715189
 30
0.0
 40
64.0
  1
 
 41
0.9
100
AcDbText
  0
TEXT
  5
954
330
4EA8
100
AcDbEntity
  8
OUTLINE
  6
Continuous
 62
     3
100
AcDbText
 10
-418.231467
 20
13.715189
 30
0.0
 40
64.0
  1
 
 41
0.9
100
AcDbText
  0
TEXT
  5
955
330
4EA8
100
AcDbEntity
  8
OUTLINE
  6
Continuous
 62
     3
100
AcDbText
 10
1341.41903
 20
-706.0588199999997
 30
0.0
 40
64.0
  1
 
 41
0.9
100
AcDbText
  0
TEXT
  5
956
330
4EA8
100
AcDbEntity
  8
OUTLINE
  6
Continuous
 62
     3
100
AcDbText
 10
1341.41903
 20
-706.0588199999997
 30
0.0
 40
64.0
  1
 
 41
0.9
100
AcDbText
  0
TEXT
  5
957
330
4EA8
100
AcDbEntity
  8
OUTLINE
  6
Continuous
 62
     3
100
AcDbText
 10
1341.41903
 20
-706.0588199999997
 30
0.0
 40
64.0
  1
 
 41
0.9
100
AcDbText
  0
TEXT
  5
958
330
4EA8
100
AcDbEntity
  8
OUTLINE
  6
Continuous
 62
     3
100
AcDbText
 10
1341.41903
 20
-706.0588199999997
 30
0.0
 40
64.0
  1
 
 41
0.9
100
AcDbText
  0
ARC
  5
39B3
330
4EA8
100
AcDbEntity
  8
DETAIL
100
AcDbCircle
 10
194.9999999999944
 20
-194.9999999999991
 30
0.0
 40
10.00000000000001
100
AcDbArc
 50
270.0
 51
0.0
  0
ARC
  5
39B4
330
4EA8
100
AcDbEntity
  8
DETAIL
100
AcDbCircle
 10
194.9999999999944
 20
195.0000000000009
 30
0.0
 40
10.0
100
AcDbArc
 50
0.0
 51
90.0
  0
LINE
  5
39B5
330
4EA8
100
AcDbEntity
  8
DETAIL
100
AcDbLine
 10
194.9999999999944
 20
-204.9999999999991
 30
0.0
 11
167.9999999999944
 21
-204.9999999999991
 31
0.0
  0
LINE
  5
39B6
330
4EA8
100
AcDbEntity
  8
DETAIL
100
AcDbLine
 10
167.9999999999944
 20
205.0000000000009
 30
0.0
 11
194.9999999999944
 21
205.0000000000009
 31
0.0
  0
CIRCLE
  5
39B7
330
4EA8
100
AcDbEntity
  8
FIX
100
AcDbCircle
 10
189.9999999999944
 20
-189.9999999999991
 30
0.0
 40
5.0
  0
CIRCLE
  5
39B8
330
4EA8
100
AcDbEntity
  8
FIX
100
AcDbCircle
 10
189.9999999999944
 20
190.0000000000009
 30
0.0
 40
5.0
  0
LINE
  5
39B9
330
4EA8
100
AcDbEntity
  8
DETAIL
100
AcDbLine
 10
204.9999999999946
 20
195.0000000000009
 30
0.0
 11
204.9999999999946
 21
-194.9999999999991
 31
0.0
  0
LINE
  5
39BA
330
4EA8
100
AcDbEntity
  8
DETAIL
100
AcDbLine
 10
169.5000000000163
 20
172.0000000000009
 30
0.0
 11
169.5000000000163
 21
-171.9999999999991
 31
0.0
  0
LINE
  5
39BB
330
4EA8
100
AcDbEntity
  8
DETAIL
100
AcDbLine
 10
155.000000000027
 20
171.9999999999991
 30
0.0
 11
155.000000000027
 21
-171.9999999999991
 31
0.0
  0
LINE
  5
39BC
330
4EA8
100
AcDbEntity
  8
DETAIL
100
AcDbLine
 10
153.5000000000271
 20
171.9999999999991
 30
0.0
 11
153.5000000000271
 21
-171.9999999999991
 31
0.0
  0
LINE
  5
39BD
330
4EA8
100
AcDbEntity
  8
DETAIL
100
AcDbLine
 10
169.5000000000163
 20
172.0000000000009
 30
0.0
 11
-169.4999999999836
 21
171.9999999999827
 31
0.0
  0
LINE
  5
39BE
330
4EA8
100
AcDbEntity
  8
DETAIL
100
AcDbLine
 10
-168.0000000000088
 20
204.9999999999827
 30
0.0
 11
167.9999999999909
 21
205.0
 31
0.0
  0
LINE
  5
39BF
330
4EA8
100
AcDbEntity
  8
DETAIL
100
AcDbLine
 10
153.5000000000271
 20
159.5038052083635
 30
0.0
 11
-153.4999999999691
 21
159.5038052083482
 31
0.0
  0
LINE
  5
39C0
330
4EA8
100
AcDbEntity
  8
DETAIL
100
AcDbLine
 10
-169.4999999999654
 20
-172.0
 30
0.0
 11
169.5000000000163
 21
-171.9999999999991
 31
0.0
  0
LINE
  5
39C1
330
4EA8
100
AcDbEntity
  8
DETAIL
100
AcDbLine
 10
167.9999999999944
 20
-204.9999999999991
 30
0.0
 11
-168.0000000000054
 21
-205.0
 31
0.0
  0
LINE
  5
39C2
330
4EA8
100
AcDbEntity
  8
DETAIL
100
AcDbLine
 10
-153.4999999999543
 20
-159.5038052083646
 30
0.0
 11
153.5000000000271
 21
-159.5038052083635
 31
0.0
  0
ARC
  5
39C3
330
4EA8
100
AcDbEntity
  8
DETAIL
100
AcDbCircle
 10
-194.9999999999869
 20
-195.0000000000227
 30
0.0
 40
10.0
100
AcDbArc
 50
180.0
 51
270.0
  0
ARC
  5
39C4
330
4EA8
100
AcDbEntity
  8
DETAIL
100
AcDbCircle
 10
-195.0000000000054
 20
194.9999999999772
 30
0.0
 40
10.00000000000002
100
AcDbArc
 50
90.0
 51
180.0
  0
LINE
  5
39C5
330
4EA8
100
AcDbEntity
  8
DETAIL
100
AcDbLine
 10
-167.9999999999871
 20
-205.0000000000208
 30
0.0
 11
-194.9999999999869
 21
-205.0000000000227
 31
0.0
  0
LINE
  5
39C6
330
4EA8
100
AcDbEntity
  8
DETAIL
100
AcDbLine
 10
-195.000000000009
 20
204.9999999999772
 30
0.0
 11
-168.0000000000088
 21
204.9999999999791
 31
0.0
  0
CIRCLE
  5
39C7
330
4EA8
100
AcDbEntity
  8
FIX
100
AcDbCircle
 10
-189.9999999999872
 20
-190.0000000000227
 30
0.0
 40
5.0
  0
CIRCLE
  5
39C8
330
4EA8
100
AcDbEntity
  8
FIX
100
AcDbCircle
 10
-190.0000000000054
 20
189.9999999999782
 30
0.0
 40
5.0
  0
LINE
  5
39C9
330
4EA8
100
AcDbEntity
  8
DETAIL
100
AcDbLine
 10
-204.9999999999873
 20
-195.0000000000227
 30
0.0
 11
-205.0000000000054
 21
194.9999999999772
 31
0.0
  0
LINE
  5
39CA
330
4EA8
100
AcDbEntity
  8
DETAIL
100
AcDbLine
 10
-153.4999999999691
 20
171.9999999999836
 30
0.0
 11
-153.4999999999543
 21
-172.0
 31
0.0
  0
LINE
  5
39CB
330
4EA8
100
AcDbEntity
  8
DETAIL
100
AcDbLine
 10
-154.999999999969
 20
171.9999999999836
 30
0.0
 11
-154.9999999999545
 21
-172.0
 31
0.0
  0
LINE
  5
39CC
330
4EA8
100
AcDbEntity
  8
DETAIL
100
AcDbLine
 10
-169.4999999999654
 20
-172.0
 30
0.0
 11
-169.4999999999836
 21
171.9999999999827
 31
0.0
  0
LINE
  5
39CF
330
4EA8
100
AcDbEntity
  8
DETAIL
100
AcDbLine
 10
153.5000000000271
 20
-119.410859630897
 30
0.0
 11
-153.4999999999566
 21
-119.410859630897
 31
0.0
  0
LINE
  5
3CEF
330
4EA8
100
AcDbEntity
  8
DETAIL
100
AcDbLine
 10
153.5000000000271
 20
-112.6742676478043
 30
0.0
 11
-153.4999999999569
 21
-112.6742676478043
 31
0.0
  0
LINE
  5
3CF2
330
4EA8
100
AcDbEntity
  8
DETAIL
100
AcDbLine
 10
153.5000000000271
 20
-112.5435340336826
 30
0.0
 11
-153.4999999999569
 21
-112.5435340336834
 31
0.0
  0
LINE
  5
3CF4
330
4EA8
100
AcDbEntity
  8
DETAIL
100
AcDbLine
 10
11.49000000001069
 20
-127.6079334740569
 30
0.0
 11
10.49000000001069
 21
-128.604128172149
 31
0.0
  0
LINE
  5
3CF5
330
4EA8
100
AcDbEntity
  8
DETAIL
100
AcDbLine
 10
2.510000000011132
 20
-128.604128172149
 30
0.0
 11
1.510000000011131
 21
-127.6079334740569
 31
0.0
  0
LINE
  5
3CF6
330
4EA8
100
AcDbEntity
  8
DETAIL
100
AcDbLine
 10
10.49000000001069
 20
-128.604128172149
 30
0.0
 11
2.510000000011132
 21
-128.604128172149
 31
0.0
  0
LINE
  5
3CF7
330
4EA8
100
AcDbEntity
  8
DETAIL
100
AcDbLine
 10
11.49000000001069
 20
-124.849852504195
 30
0.0
 11
11.49000000001069
 21
-127.6079334740569
 31
0.0
  0
LINE
  5
3CF8
330
4EA8
100
AcDbEntity
  8
DETAIL
100
AcDbLine
 10
1.510000000011131
 20
-127.6079334740569
 30
0.0
 11
1.510000000011131
 21
-123.7317261537972
 31
0.0
  0
LINE
  5
3CF9
330
4EA8
100
AcDbEntity
  8
DETAIL
100
AcDbLine
 10
1.500000000027284
 20
-123.3381618608008
 30
0.0
 11
1.500000000027284
 21
-119.410859630897
 31
0.0
  0
LINE
  5
3CFA
330
4EA8
100
AcDbEntity
  8
DETAIL
100
AcDbLine
 10
87.00000000002727
 20
-123.3381618608008
 30
0.0
 11
78.40000000002874
 21
-123.3381618608008
 31
0.0
  0
LINE
  5
3CFB
330
4EA8
100
AcDbEntity
  8
DETAIL
100
AcDbLine
 10
6.40000000002874
 20
-123.3381618608008
 30
0.0
 11
1.500000000027284
 21
-123.3381618608008
 31
0.0
  0
LINE
  5
3CFC
330
4EA8
100
AcDbEntity
  8
DETAIL
100
AcDbLine
 10
87.00000000002727
 20
-119.410859630897
 30
0.0
 11
87.00000000002727
 21
-123.3381618608008
 31
0.0
  0
LINE
  5
3CFD
330
4EA8
100
AcDbEntity
  8
DETAIL
100
AcDbLine
 10
6.40000000002874
 20
-123.3893016925913
 30
0.0
 11
6.40000000002874
 21
-119.410859630897
 31
0.0
  0
LINE
  5
3CFE
330
4EA8
100
AcDbEntity
  8
DETAIL
100
AcDbLine
 10
78.40000000002874
 20
-123.3893016925913
 30
0.0
 11
78.40000000002874
 21
-119.410859630897
 31
0.0
  0
LINE
  5
3CFF
330
4EA8
100
AcDbEntity
  8
DETAIL
100
AcDbLine
 10
78.40000000002874
 20
-123.3893016925913
 30
0.0
 11
78.40000000002874
 21
-124.849852504195
 31
0.0
  0
LINE
  5
3D00
330
4EA8
100
AcDbEntity
  8
DETAIL
100
AcDbLine
 10
6.40000000002874
 20
-123.3893016925913
 30
0.0
 11
6.40000000002874
 21
-124.849852504195
 31
0.0
  0
LINE
  5
3D01
330
4EA8
100
AcDbEntity
  8
DETAIL
100
AcDbLine
 10
78.40000000002874
 20
-124.849852504195
 30
0.0
 11
6.40000000002874
 21
-124.849852504195
 31
0.0
  0
LINE
  5
3D02
330
4EA8
100
AcDbEntity
  8
DETAIL
100
AcDbLine
 10
-4.099999999985809
 20
-119.7317261537981
 30
0.0
 11
-4.099999999985809
 21
-123.7317261537981
 31
0.0
  0
LINE
  5
3D03
330
4EA8
100
AcDbEntity
  8
DETAIL
100
AcDbLine
 10
6.400000000014188
 20
-123.7317261537981
 30
0.0
 11
0.5030973958328106
 21
-123.7317261537981
 31
0.0
  0
LINE
  5
3D04
330
4EA8
100
AcDbEntity
  8
DETAIL
100
AcDbLine
 10
-0.9969026041671895
 20
-123.7317261537981
 30
0.0
 11
-4.099999999985809
 21
-123.7317261537981
 31
0.0
  0
LINE
  5
3D05
330
4EA8
100
AcDbEntity
  8
DETAIL
100
AcDbLine
 10
1.50000000001273
 20
-119.7317261537981
 30
0.0
 11
0.5030973958328106
 21
-119.7317261537981
 31
0.0
  0
LINE
  5
3D06
330
4EA8
100
AcDbEntity
  8
DETAIL
100
AcDbLine
 10
-0.9969026041671895
 20
-119.7317261537981
 30
0.0
 11
-4.099999999985809
 21
-119.7317261537981
 31
0.0
  0
LINE
  5
3D07
330
4EA8
100
AcDbEntity
  8
DETAIL
100
AcDbLine
 10
28.75000000001274
 20
-125.8116444990555
 30
0.0
 11
27.78453411597912
 21
-124.849852504195
 31
0.0
  0
LINE
  5
3D08
330
4EA8
100
AcDbEntity
  8
DETAIL
100
AcDbLine
 10
61.75000000001272
 20
-125.8116444990555
 30
0.0
 11
28.75000000001274
 21
-125.8116444990555
 31
0.0
  0
LINE
  5
3D0B
330
4EA8
100
AcDbEntity
  8
DETAIL
100
AcDbLine
 10
153.5000000000271
 20
43.589140369103
 30
0.0
 11
-153.4999999999636
 21
43.589140369103
 31
0.0
  0
LINE
  5
402B
330
4EA8
100
AcDbEntity
  8
DETAIL
100
AcDbLine
 10
153.5000000000271
 20
50.32573235219658
 30
0.0
 11
-153.4999999999639
 21
50.32573235219569
 31
0.0
  0
LINE
  5
402E
330
4EA8
100
AcDbEntity
  8
DETAIL
100
AcDbLine
 10
153.5000000000271
 20
50.45646596631739
 30
0.0
 11
-153.4999999999639
 21
50.4564659663174
 31
0.0
  0
LINE
  5
4032
330
4EA8
100
AcDbEntity
  8
DETAIL
100
AcDbLine
 10
153.5000000000271
 20
125.089140369103
 30
0.0
 11
-153.4999999999671
 21
125.089140369103
 31
0.0
  0
LINE
  5
4353
330
4EA8
100
AcDbEntity
  8
DETAIL
100
AcDbLine
 10
153.5000000000271
 20
131.8257323521957
 30
0.0
 11
-153.4999999999674
 21
131.8257323521957
 31
0.0
  0
LINE
  5
4356
330
4EA8
100
AcDbEntity
  8
DETAIL
100
AcDbLine
 10
153.5000000000271
 20
131.9564659663174
 30
0.0
 11
-153.4999999999674
 21
131.9564659663174
 31
0.0
  0
LINE
  5
435A
330
4EA8
100
AcDbEntity
  8
DETAIL
100
AcDbLine
 10
153.5000000000271
 20
-37.91085963089699
 30
0.0
 11
-153.4999999999601
 21
-37.91085963089699
 31
0.0
  0
LINE
  5
467A
330
4EA8
100
AcDbEntity
  8
DETAIL
100
AcDbLine
 10
153.5000000000271
 20
-31.1742676478034
 30
0.0
 11
-153.4999999999604
 21
-31.17426764780431
 31
0.0
  0
LINE
  5
467D
330
4EA8
100
AcDbEntity
  8
DETAIL
100
AcDbLine
 10
153.5000000000271
 20
-31.04353403368259
 30
0.0
 11
-153.4999999999604
 21
-31.04353403368259
 31
0.0
  0
LINE
  5
4684
330
4EA8
100
AcDbEntity
  8
DETAIL
100
AcDbLine
 10
-0.9969026041599136
 20
-153.9969026041817
 30
0.0
 11
-0.9969026041599136
 21
-151.9969026041817
 31
0.0
  0
LINE
  5
4685
330
4EA8
100
AcDbEntity
  8
DETAIL
100
AcDbLine
 10
-0.9969026041599136
 20
-151.9969026041817
 30
0.0
 11
-2.49690260415991
 21
-151.9969026041817
 31
0.0
  0
LINE
  5
4686
330
4EA8
100
AcDbEntity
  8
DETAIL
100
AcDbLine
 10
-2.49690260415991
 20
-151.9969026041817
 30
0.0
 11
-2.49690260415991
 21
-153.9969026041817
 31
0.0
  0
LINE
  5
4687
330
4EA8
100
AcDbEntity
  8
DETAIL
100
AcDbLine
 10
-0.9969026041599136
 20
-159.5038052083646
 30
0.0
 11
-0.9969026041599136
 21
-153.9969026041817
 31
0.0
  0
LINE
  5
4688
330
4EA8
100
AcDbEntity
  8
DETAIL
100
AcDbLine
 10
-2.49690260415991
 20
-159.5038052083646
 30
0.0
 11
-2.49690260415991
 21
-153.9969026041817
 31
0.0
  0
LINE
  5
4689
330
4EA8
100
AcDbEntity
  8
DETAIL
100
AcDbLine
 10
0.5030973958437244
 20
-155.7921669555426
 30
0.0
 11
0.5030973958328106
 21
-119.410859630897
 31
0.0
  0
LINE
  5
468A
330
4EA8
100
AcDbEntity
  8
DETAIL
100
AcDbLine
 10
-0.9969026041671895
 20
-119.410859630897
 30
0.0
 11
-0.9969026041599136
 21
-151.9969026041817
 31
0.0
  0
LINE
  5
468B
330
4EA8
100
AcDbEntity
  8
DETAIL
100
AcDbLine
 10
-0.9969026041744657
 20
-155.7921669555426
 30
0.0
 11
0.5030973958437244
 21
-155.7921669555426
 31
0.0
  0
LINE
  5
468C
330
4EA8
100
AcDbEntity
  8
DETAIL
100
AcDbLine
 10
62.71546588404271
 20
-124.849852504195
 30
0.0
 11
61.75000000001272
 21
-125.8116444990555
 31
0.0
  0
TEXT
  5
468D
330
4EA8
100
AcDbEntity
  8
ETC
100
AcDbText
 10
391.0466591134264
 20
477.0324837561564
 30
0.0
 40
64.0
  1
システム部材
 41
0.9
100
AcDbText
  0
TEXT
  5
468E
330
4EA8
100
AcDbEntity
  8
ETC
100
AcDbText
 10
397.2546571134244
 20
577.9158097561568
 30
0.0
 40
64.0
  1
KD-30SC_2
 41
0.9
100
AcDbText
  0
LINE
  5
468F
330
4EA8
100
AcDbEntity
  8
BASIS
100
AcDbLine
 10
229.9999999999946
 20
0.0
 30
0.0
 11
-229.9999999999982
 21
0.0
 31
0.0
  0
LINE
  5
4690
330
4EA8
100
AcDbEntity
  8
BASIS
100
AcDbLine
 10
-0.000000000005457
 20
-229.9999999999994
 30
0.0
 11
0.000000000005457
 21
229.9999999999914
 31
0.0
  0
CIRCLE
  5
4691
330
4EA8
100
AcDbEntity
  8
ARRANGE
100
AcDbCircle
 10
0.000000000005457
 20
-0.0000000000109139
 30
0.0
 40
40.0
  0
POINT
  5
4692
330
4EA8
100
AcDbEntity
  8
ARRANGE
100
AcDbPoint
 10
0.000000000005457
 20
-0.0000000000109139
 30
0.0
 39
50.0
  0
LINE
  5
4693
330
4EA8
100
AcDbEntity
  8
NOTE
100
AcDbLine
 10
-202.5000000000054
 20
189.9999999999782
 30
0.0
 11
-177.5000000000054
 21
189.9999999999782
 31
0.0
  0
LINE
  5
4694
330
4EA8
100
AcDbEntity
  8
NOTE
100
AcDbLine
 10
-190.0000000000054
 20
177.4999999999782
 30
0.0
 11
-190.0000000000054
 21
202.4999999999782
 31
0.0
  0
LINE
  5
4695
330
4EA8
100
AcDbEntity
  8
NOTE
100
AcDbLine
 10
177.4999999999944
 20
190.0000000000009
 30
0.0
 11
202.4999999999944
 21
190.0000000000009
 31
0.0
  0
LINE
  5
4696
330
4EA8
100
AcDbEntity
  8
NOTE
100
AcDbLine
 10
189.9999999999944
 20
177.5000000000009
 30
0.0
 11
189.9999999999944
 21
202.5000000000009
 31
0.0
  0
LINE
  5
4697
330
4EA8
100
AcDbEntity
  8
NOTE
100
AcDbLine
 10
177.4999999999944
 20
-189.9999999999991
 30
0.0
 11
202.4999999999944
 21
-189.9999999999991
 31
0.0
  0
LINE
  5
4698
330
4EA8
100
AcDbEntity
  8
NOTE
100
AcDbLine
 10
189.9999999999944
 20
-202.4999999999991
 30
0.0
 11
189.9999999999944
 21
-177.4999999999991
 31
0.0
  0
LINE
  5
4699
330
4EA8
100
AcDbEntity
  8
NOTE
100
AcDbLine
 10
-202.4999999999873
 20
-190.0000000000227
 30
0.0
 11
-177.4999999999872
 21
-190.0000000000227
 31
0.0
  0
LINE
  5
469A
330
4EA8
100
AcDbEntity
  8
NOTE
100
AcDbLine
 10
-189.9999999999872
 20
-202.5000000000227
 30
0.0
 11
-189.9999999999872
 21
-177.5000000000227
 31
0.0
  0
TEXT
  5
469B
330
4EA8
100
AcDbEntity
  8
ETC
100
AcDbText
 10
397.2546571134244
 20
377.9158097561567
 30
0.0
 40
64.0
  1
KD-30SC
 41
0.9
100
AcDbText
  0
ARC
  5
469C
330
4EA8
100
AcDbEntity
  8
OUTLINE
100
AcDbCircle
 10
194.9999999999944
 20
-194.9999999999991
 30
0.0
 40
10.00000000000001
100
AcDbArc
 50
270.0
 51
0.0
  0
ARC
  5
469D
330
4EA8
100
AcDbEntity
  8
OUTLINE
100
AcDbCircle
 10
194.9999999999944
 20
195.0000000000009
 30
0.0
 40
10.0
100
AcDbArc
 50
0.0
 51
90.0
  0
LINE
  5
469E
330
4EA8
100
AcDbEntity
  8
OUTLINE
100
AcDbLine
 10
194.9999999999944
 20
-204.9999999999991
 30
0.0
 11
167.9999999999944
 21
-204.9999999999991
 31
0.0
  0
LINE
  5
469F
330
4EA8
100
AcDbEntity
  8
OUTLINE
100
AcDbLine
 10
167.9999999999944
 20
205.0000000000009
 30
0.0
 11
194.9999999999944
 21
205.0000000000009
 31
0.0
  0
LINE
  5
46A0
330
4EA8
100
AcDbEntity
  8
OUTLINE
100
AcDbLine
 10
204.9999999999946
 20
195.0000000000009
 30
0.0
 11
204.9999999999946
 21
-194.9999999999991
 31
0.0
  0
LINE
  5
46A1
330
4EA8
100
AcDbEntity
  8
OUTLINE
100
AcDbLine
 10
-168.0000000000088
 20
204.9999999999827
 30
0.0
 11
167.9999999999909
 21
205.0
 31
0.0
  0
LINE
  5
46A2
330
4EA8
100
AcDbEntity
  8
OUTLINE
100
AcDbLine
 10
167.9999999999944
 20
-204.9999999999991
 30
0.0
 11
-168.0000000000054
 21
-205.0
 31
0.0
  0
ARC
  5
46A3
330
4EA8
100
AcDbEntity
  8
OUTLINE
100
AcDbCircle
 10
-194.9999999999869
 20
-195.0000000000227
 30
0.0
 40
10.0
100
AcDbArc
 50
180.0
 51
270.0
  0
ARC
  5
46A4
330
4EA8
100
AcDbEntity
  8
OUTLINE
100
AcDbCircle
 10
-195.0000000000054
 20
194.9999999999772
 30
0.0
 40
10.00000000000002
100
AcDbArc
 50
90.0
 51
180.0
  0
LINE
  5
46A5
330
4EA8
100
AcDbEntity
  8
OUTLINE
100
AcDbLine
 10
-167.9999999999871
 20
-205.0000000000208
 30
0.0
 11
-194.9999999999869
 21
-205.0000000000227
 31
0.0
  0
LINE
  5
46A6
330
4EA8
100
AcDbEntity
  8
OUTLINE
100
AcDbLine
 10
-195.000000000009
 20
204.9999999999772
 30
0.0
 11
-168.0000000000088
 21
204.9999999999791
 31
0.0
  0
LINE
  5
46A7
330
4EA8
100
AcDbEntity
  8
OUTLINE
100
AcDbLine
 10
-204.9999999999873
 20
-195.0000000000227
 30
0.0
 11
-205.0000000000054
 21
194.9999999999772
 31
0.0
  0
LINE
  5
46A8
330
4EA8
100
AcDbEntity
  8
SIZE
100
AcDbLine
 10
-169.4999999999836
 20
191.9999999999827
 30
0.0
 11
-169.4999999999836
 21
313.7646414054917
 31
0.0
  0
LINE
  5
46A9
330
4EA8
100
AcDbEntity
  8
SIZE
100
AcDbLine
 10
169.5000000000163
 20
192.0000000000008
 30
0.0
 11
169.5000000000163
 21
313.7646414054917
 31
0.0
  0
LINE
  5
46AA
330
4EA8
100
AcDbEntity
  8
SIZE
100
AcDbLine
 10
-157.4999999999836
 20
293.7646414054917
 30
0.0
 11
157.5000000000164
 21
293.7646414054917
 31
0.0
  0
LINE
  5
46AB
330
4EA8
100
AcDbEntity
  8
SIZE
100
AcDbLine
 10
-205.0000000000054
 20
214.9999999999764
 30
0.0
 11
-205.0000000000054
 21
486.8083778849132
 31
0.0
  0
LINE
  5
46AC
330
4EA8
100
AcDbEntity
  8
SIZE
100
AcDbLine
 10
204.9999999999946
 20
215.0000000000009
 30
0.0
 11
204.9999999999946
 21
486.8083778849132
 31
0.0
  0
LINE
  5
46AD
330
4EA8
100
AcDbEntity
  8
SIZE
100
AcDbLine
 10
-193.0000000000054
 20
466.8083778849132
 30
0.0
 11
192.9999999999944
 21
466.8083778849132
 31
0.0
  0
LINE
  5
46AE
330
4EA8
100
AcDbEntity
  8
SIZE
100
AcDbLine
 10
-190.0000000000054
 20
222.4999999999782
 30
0.0
 11
-190.0000000000054
 21
401.5359919866577
 31
0.0
  0
LINE
  5
46AF
330
4EA8
100
AcDbEntity
  8
SIZE
100
AcDbLine
 10
189.9999999999944
 20
222.5000000000009
 30
0.0
 11
189.9999999999944
 21
401.5359919866577
 31
0.0
  0
LINE
  5
46B0
330
4EA8
100
AcDbEntity
  8
SIZE
100
AcDbLine
 10
-178.0000000000052
 20
381.5359919866578
 30
0.0
 11
177.9999999999944
 21
381.5359919866578
 31
0.0
  0
LINE
  5
46B1
330
4EA8
100
AcDbEntity
  8
SIZE
100
AcDbLine
 10
-189.4999999999836
 20
171.9999999999827
 30
0.0
 11
-305.3228534298414
 21
171.9999999999827
 31
0.0
  0
LINE
  5
46B2
330
4EA8
100
AcDbEntity
  8
SIZE
100
AcDbLine
 10
-189.4999999999654
 20
-172.0
 30
0.0
 11
-305.3228534298414
 21
-171.9999999999999
 31
0.0
  0
LINE
  5
46B3
330
4EA8
100
AcDbEntity
  8
SIZE
100
AcDbLine
 10
-285.3228534298414
 20
159.9999999999827
 30
0.0
 11
-285.3228534298416
 21
-159.9999999999998
 31
0.0
  0
LINE
  5
46B4
330
4EA8
100
AcDbEntity
  8
SIZE
100
AcDbLine
 10
-222.5000000000056
 20
189.9999999999782
 30
0.0
 11
-401.4668696009405
 21
189.9999999999782
 31
0.0
  0
LINE
  5
46B5
330
4EA8
100
AcDbEntity
  8
SIZE
100
AcDbLine
 10
-222.4999999999873
 20
-190.0000000000227
 30
0.0
 11
-401.4668696009405
 21
-190.0000000000227
 31
0.0
  0
LINE
  5
46B6
330
4EA8
100
AcDbEntity
  8
SIZE
100
AcDbLine
 10
-381.4668696009409
 20
177.9999999999781
 30
0.0
 11
-381.4668696009414
 21
-178.0000000000227
 31
0.0
  0
LINE
  5
46B7
330
4EA8
100
AcDbEntity
  8
SIZE
100
AcDbLine
 10
-214.9999999999873
 20
-205.0000000000218
 30
0.0
 11
-492.0352161146202
 21
-205.0000000000217
 31
0.0
  0
LINE
  5
46B8
330
4EA8
100
AcDbEntity
  8
SIZE
100
AcDbLine
 10
-215.000000000009
 20
204.9999999999772
 30
0.0
 11
-492.0352161146198
 21
204.9999999999772
 31
0.0
  0
LINE
  5
46B9
330
4EA8
100
AcDbEntity
  8
SIZE
100
AcDbLine
 10
-472.0352161146202
 20
-193.0000000000217
 30
0.0
 11
-472.0352161146202
 21
192.9999999999772
 31
0.0
  0
TEXT
  5
46BA
330
4EA8
100
AcDbEntity
  8
NOTE
100
AcDbText
 10
-778.2056591647723
 20
399.3745084260445
 30
0.0
 40
64.0
  1
4×φ10取付穴
 41
0.9
100
AcDbText
1001
ACAD
1000
ACAD_MTEXT_DEFINED_HEIGHT_BEGIN
1070
    46
1040
0.0
1000
ACAD_MTEXT_DEFINED_HEIGHT_END
  0
INSERT
  5
46BB
330
4EA8
100
AcDbEntity
  8
NOTE
100
AcDbBlockReference
  2
_OPEN30
 10
-190.0000000000054
 20
189.9999999999782
 30
0.0
 41
11.99999999999999
 42
12.0
 43
12.0
 50
293.2250017115462
1001
ACAD
1000
DSTYLE
1002
{
1070
   341
1005
0
1070
    41
1040
12.0
1070
    42
1040
20.0
1070
    43
1040
200.0
1070
    44
1040
20.0
1070
    73
1070
     0
1070
    74
1070
     0
1070
    77
1070
     1
1070
    78
1070
     8
1070
   140
1040
64.0
1070
   147
1040
10.0
1070
   172
1070
     1
1070
   174
1070
     1
1070
   275
1070
     0
1070
   284
1070
     0
1070
   285
1070
     0
1070
   286
1070
     0
1070
   342
1005
0
1002
}
  0
POLYLINE
  5
46BC
330
4EA8
100
AcDbEntity
  8
NOTE
100
AcDb2dPolyline
 66
     1
 10
0.0
 20
0.0
 30
0.0
1001
ACAD
1000
DSTYLE
1002
{
1070
   341
1005
0
1070
    41
1040
12.0
1070
    42
1040
20.0
1070
    43
1040
200.0
1070
    44
1040
20.0
1070
    73
1070
     0
1070
    74
1070
     0
1070
    77
1070
     1
1070
    78
1070
     8
1070
   140
1040
64.0
1070
   147
1040
10.0
1070
   172
1070
     1
1070
   174
1070
     1
1070
   275
1070
     0
1070
   284
1070
     0
1070
   285
1070
     0
1070
   286
1070
     0
1070
   342
1005
0
1002
}
  0
VERTEX
  5
46BD
330
46BC
100
AcDbEntity
  8
NOTE
100
AcDbVertex
100
AcDb2dVertex
 10
-194.732115375737
 20
201.0275602047904
 30
0.0
  0
VERTEX
  5
46BE
330
46BC
100
AcDbEntity
  8
NOTE
100
AcDbVertex
100
AcDb2dVertex
 10
-272.3656591647723
 20
381.9421216791317
 30
0.0
  0
VERTEX
  5
46BF
330
46BC
100
AcDbEntity
  8
NOTE
100
AcDbVertex
100
AcDb2dVertex
 10
-778.2056591647723
 20
381.9421216791317
 30
0.0
  0
SEQEND
  5
46C0
330
46BC
100
AcDbEntity
  8
NOTE
  0
TEXT
  5
46C1
330
4EA8
100
AcDbEntity
  8
SIZE
100
AcDbText
 10
-72.68571428569794
 20
303.7646414054917
 30
0.0
 40
64.0
  1
339
 41
0.9
100
AcDbText
  0
TEXT
  5
46C2
330
4EA8
100
AcDbEntity
  8
SIZE
100
AcDbText
 10
-68.57142857143414
 20
476.8083778849129
 30
0.0
 40
64.0
  1
410
 41
0.9
100
AcDbText
  0
TEXT
  5
46C3
330
4EA8
100
AcDbEntity
  8
SIZE
100
AcDbText
 10
-74.05714285714816
 20
391.5359919866578
 30
0.0
 40
64.0
  1
380
 41
0.9
100
AcDbText
  0
TEXT
  5
46C4
330
4EA8
100
AcDbEntity
  8
SIZE
100
AcDbText
 10
-295.3228534298414
 20
-75.42857142858003
 30
0.0
 40
64.0
  1
344
 50
90.0
 41
0.9
100
AcDbText
  0
TEXT
  5
46C5
330
4EA8
100
AcDbEntity
  8
SIZE
100
AcDbText
 10
-391.4668696009412
 20
-74.0571428571655
 30
0.0
 40
64.0
  1
380
 50
90.0
 41
0.9
100
AcDbText
  0
TEXT
  5
46C6
330
4EA8
100
AcDbEntity
  8
SIZE
100
AcDbText
 10
-482.03521611462
 20
-68.57142857145125
 30
0.0
 40
64.0
  1
410
 50
90.0
 41
0.9
100
AcDbText
  0
CIRCLE
  5
46C7
330
4EA8
100
AcDbEntity
  8
SIZE
100
AcDbCircle
 10
-169.4999999999836
 20
293.7646414054917
 30
0.0
 40
6.0
  0
LINE
  5
46C8
330
4EA8
100
AcDbEntity
  8
SIZE
100
AcDbLine
 10
-163.4999999999836
 20
293.7646414054917
 30
0.0
 11
-157.4999999999836
 21
293.7646414054917
 31
0.0
  0
CIRCLE
  5
46C9
330
4EA8
100
AcDbEntity
  8
SIZE
100
AcDbCircle
 10
-205.0000000000054
 20
466.8083778849132
 30
0.0
 40
6.0
  0
LINE
  5
46CA
330
4EA8
100
AcDbEntity
  8
SIZE
100
AcDbLine
 10
-199.0000000000054
 20
466.8083778849132
 30
0.0
 11
-193.0000000000054
 21
466.8083778849132
 31
0.0
  0
CIRCLE
  5
46CB
330
4EA8
100
AcDbEntity
  8
SIZE
100
AcDbCircle
 10
-190.0000000000054
 20
381.5359919866578
 30
0.0
 40
6.0
  0
LINE
  5
46CC
330
4EA8
100
AcDbEntity
  8
SIZE
100
AcDbLine
 10
-184.0000000000054
 20
381.5359919866578
 30
0.0
 11
-178.0000000000052
 21
381.5359919866578
 31
0.0
  0
CIRCLE
  5
46CD
330
4EA8
100
AcDbEntity
  8
SIZE
100
AcDbCircle
 10
169.5000000000163
 20
293.7646414054917
 30
0.0
 40
6.0
  0
LINE
  5
46CE
330
4EA8
100
AcDbEntity
  8
SIZE
100
AcDbLine
 10
163.5000000000163
 20
293.7646414054917
 30
0.0
 11
157.5000000000164
 21
293.7646414054917
 31
0.0
  0
CIRCLE
  5
46CF
330
4EA8
100
AcDbEntity
  8
SIZE
100
AcDbCircle
 10
204.9999999999946
 20
466.8083778849132
 30
0.0
 40
6.0
  0
LINE
  5
46D0
330
4EA8
100
AcDbEntity
  8
SIZE
100
AcDbLine
 10
198.9999999999944
 20
466.8083778849132
 30
0.0
 11
192.9999999999944
 21
466.8083778849132
 31
0.0
  0
CIRCLE
  5
46D1
330
4EA8
100
AcDbEntity
  8
SIZE
100
AcDbCircle
 10
189.9999999999944
 20
381.5359919866578
 30
0.0
 40
6.0
  0
LINE
  5
46D2
330
4EA8
100
AcDbEntity
  8
SIZE
100
AcDbLine
 10
183.9999999999944
 20
381.5359919866578
 30
0.0
 11
177.9999999999944
 21
381.5359919866578
 31
0.0
  0
CIRCLE
  5
46D3
330
4EA8
100
AcDbEntity
  8
SIZE
100
AcDbCircle
 10
-285.3228534298414
 20
171.9999999999827
 30
0.0
 40
6.0
  0
LINE
  5
46D4
330
4EA8
100
AcDbEntity
  8
SIZE
100
AcDbLine
 10
-285.3228534298414
 20
165.9999999999827
 30
0.0
 11
-285.3228534298414
 21
159.9999999999827
 31
0.0
  0
CIRCLE
  5
46D5
330
4EA8
100
AcDbEntity
  8
SIZE
100
AcDbCircle
 10
-381.4668696009409
 20
189.9999999999782
 30
0.0
 40
6.0
  0
LINE
  5
46D6
330
4EA8
100
AcDbEntity
  8
SIZE
100
AcDbLine
 10
-381.4668696009409
 20
183.9999999999782
 30
0.0
 11
-381.4668696009409
 21
177.9999999999781
 31
0.0
  0
CIRCLE
  5
46D7
330
4EA8
100
AcDbEntity
  8
SIZE
100
AcDbCircle
 10
-472.0352161146202
 20
204.9999999999772
 30
0.0
 40
6.0
  0
LINE
  5
46D8
330
4EA8
100
AcDbEntity
  8
SIZE
100
AcDbLine
 10
-472.0352161146202
 20
198.9999999999771
 30
0.0
 11
-472.0352161146202
 21
192.9999999999772
 31
0.0
  0
CIRCLE
  5
46D9
330
4EA8
100
AcDbEntity
  8
SIZE
100
AcDbCircle
 10
-285.3228534298416
 20
-171.9999999999999
 30
0.0
 40
6.0
  0
LINE
  5
46DA
330
4EA8
100
AcDbEntity
  8
SIZE
100
AcDbLine
 10
-285.3228534298416
 20
-165.9999999999998
 30
0.0
 11
-285.3228534298416
 21
-159.9999999999998
 31
0.0
  0
CIRCLE
  5
46DB
330
4EA8
100
AcDbEntity
  8
SIZE
100
AcDbCircle
 10
-381.4668696009414
 20
-190.0000000000227
 30
0.0
 40
6.0
  0
LINE
  5
46DC
330
4EA8
100
AcDbEntity
  8
SIZE
100
AcDbLine
 10
-381.4668696009414
 20
-184.0000000000227
 30
0.0
 11
-381.4668696009414
 21
-178.0000000000227
 31
0.0
  0
CIRCLE
  5
46DD
330
4EA8
100
AcDbEntity
  8
SIZE
100
AcDbCircle
 10
-472.0352161146202
 20
-205.0000000000217
 30
0.0
 40
6.0
  0
LINE
  5
46DE
330
4EA8
100
AcDbEntity
  8
SIZE
100
AcDbLine
 10
-472.0352161146202
 20
-199.0000000000217
 30
0.0
 11
-472.0352161146202
 21
-193.0000000000217
 31
0.0
  0
ENDSEC
  0
SECTION
  2
OBJECTS
  0
DICTIONARY
  5
4E40
330
0
100
AcDbDictionary
281
     1
  3
ACAD_2007HEADERVARS_RT
350
5085
  3
ACAD_COLOR
350
4E9E
  3
ACAD_GROUP
350
4E41
  3
ACAD_LAYOUT
350
4E9D
  3
ACAD_MATERIAL
350
4E44
  3
ACAD_MLEADERSTYLE
350
4EA1
  3
ACAD_MLINESTYLE
350
4E9A
  3
ACAD_PLOTSETTINGS
350
4E9C
  3
ACAD_PLOTSTYLENAME
350
4E42
  3
ACAD_SCALELIST
350
4E6E
  3
ACAD_TABLESTYLE
350
4E9F
  3
ACAD_VISUALSTYLE
350
4E5D
  3
ACDB_RECOMPOSE_DATA
350
5083
  3
AcDbVariableDictionary
350
507A
  3
AcmDictionary
350
502D
  3
AMG
350
4F7A
  3
DWGPROPS
350
5084
  3
MAPISURF_MODULE
350
4FFA
  0
DICTIONARY
  5
5055
330
4E90
100
AcDbDictionary
280
     1
281
     1
  3
ADSK_XREC_LAYER_RECONCILED
360
5056
  0
DICTIONARY
  5
5057
330
4EBF
100
AcDbDictionary
280
     1
281
     1
  3
ADSK_XREC_LAYER_RECONCILED
360
5058
  0
DICTIONARY
  5
5059
330
4EC0
100
AcDbDictionary
280
     1
281
     1
  3
ADSK_XREC_LAYER_RECONCILED
360
505A
  0
DICTIONARY
  5
505B
330
4EC1
100
AcDbDictionary
280
     1
281
     1
  3
ADSK_XREC_LAYER_RECONCILED
360
505C
  0
DICTIONARY
  5
505D
330
4EC2
100
AcDbDictionary
280
     1
281
     1
  3
ADSK_XREC_LAYER_RECONCILED
360
505E
  0
DICTIONARY
  5
505F
330
4EC3
100
AcDbDictionary
280
     1
281
     1
  3
ADSK_XREC_LAYER_RECONCILED
360
5060
  0
DICTIONARY
  5
5061
330
4EC5
100
AcDbDictionary
280
     1
281
     1
  3
ADSK_XREC_LAYER_RECONCILED
360
5062
  0
DICTIONARY
  5
5063
330
4EC6
100
AcDbDictionary
280
     1
281
     1
  3
ADSK_XREC_LAYER_RECONCILED
360
5064
  0
DICTIONARY
  5
5065
330
4EC7
100
AcDbDictionary
280
     1
281
     1
  3
ADSK_XREC_LAYER_RECONCILED
360
5066
  0
DICTIONARY
  5
5067
330
4EC8
100
AcDbDictionary
280
     1
281
     1
  3
ADSK_XREC_LAYER_RECONCILED
360
5068
  0
DICTIONARY
  5
5069
330
4EC9
100
AcDbDictionary
280
     1
281
     1
  3
ADSK_XREC_LAYER_RECONCILED
360
506A
  0
DICTIONARY
  5
506B
330
4EA8
100
AcDbDictionary
280
     1
281
     1
  3
ACAD_INDEX
360
506C
  0
DICTIONARY
  5
5085
102
{ACAD_REACTORS
330
4E40
102
}
330
4E40
100
AcDbDictionary
281
     1
  3
DIMARCSYM
350
5086
  3
DIMLTEX1
350
5088
  3
DIMLTEX2
350
5089
  3
DIMLTYPE
350
5087
  0
DICTIONARY
  5
4E9E
102
{ACAD_REACTORS
330
4E40
102
}
330
4E40
100
AcDbDictionary
281
     1
  0
DICTIONARY
  5
4E41
102
{ACAD_REACTORS
330
4E40
102
}
330
4E40
100
AcDbDictionary
281
     1
  0
DICTIONARY
  5
4E9D
102
{ACAD_REACTORS
330
4E40
102
}
330
4E40
100
AcDbDictionary
281
     1
  3
Model
350
4EAB
  3
レイアウト1
350
4EA7
  0
DICTIONARY
  5
4E44
102
{ACAD_REACTORS
330
4E40
102
}
330
4E40
100
AcDbDictionary
281
     1
  3
ByBlock
350
4E4D
  3
ByLayer
350
4E45
  3
Global
350
4E55
  0
DICTIONARY
  5
4EA1
102
{ACAD_REACTORS
330
4E40
102
}
330
4E40
100
AcDbDictionary
281
     1
  3
Standard
350
4EA2
  0
DICTIONARY
  5
4E9A
102
{ACAD_REACTORS
330
4E40
102
}
330
4E40
100
AcDbDictionary
281
     1
  3
Standard
350
4E9B
  0
DICTIONARY
  5
4E9C
102
{ACAD_REACTORS
330
4E40
102
}
330
4E40
100
AcDbDictionary
281
     1
  0
ACDBDICTIONARYWDFLT
  5
4E42
102
{ACAD_REACTORS
330
4E40
102
}
330
4E40
100
AcDbDictionary
281
     1
  3
Normal
350
4E43
100
AcDbDictionaryWithDefault
340
4E43
  0
DICTIONARY
  5
4E6E
102
{ACAD_REACTORS
330
4E40
102
}
330
4E40
100
AcDbDictionary
281
     1
  3
A0
350
4E6F
  3
A1
350
4E70
  3
A2
350
4E71
  3
A3
350
4E72
  3
A4
350
4E73
  3
A5
350
4E74
  3
A6
350
4E75
  3
A7
350
4E76
  3
A8
350
4E77
  3
A9
350
4E78
  3
B0
350
4E79
  3
B1
350
4E7A
  3
B2
350
4E7B
  3
B3
350
4E7C
  3
B4
350
4E7D
  3
B5
350
4E7E
  3
B6
350
4E7F
  3
B7
350
4E80
  3
B8
350
4E81
  3
B9
350
4E82
  3
C0
350
4E83
  3
C1
350
4E84
  3
C2
350
4E85
  3
C3
350
4E86
  3
C4
350
4E87
  3
C5
350
4E88
  3
C6
350
4E89
  3
C7
350
4E8A
  3
C8
350
4E8B
  3
C9
350
4E8C
  3
D0
350
4E8D
  3
D1
350
4E8E
  3
D2
350
4E8F
  0
DICTIONARY
  5
4E9F
102
{ACAD_REACTORS
330
4E40
102
}
330
4E40
100
AcDbDictionary
281
     1
  3
Standard
350
4EA0
  0
DICTIONARY
  5
4E5D
102
{ACAD_REACTORS
330
4E40
102
}
330
4E40
100
AcDbDictionary
281
     1
  3
2dWireframe
350
4E63
  3
3D Hidden
350
4E65
  3
3dWireframe
350
4E64
  3
Basic
350
4E62
  3
Brighten
350
4E69
  3
ColorChange
350
4E6D
  3
Conceptual
350
4E66
  3
Dim
350
4E68
  3
Facepattern
350
4E6C
  3
Flat
350
4E5E
  3
FlatWithEdges
350
4E5F
  3
Gouraud
350
4E60
  3
GouraudWithEdges
350
4E61
  3
Linepattern
350
4E6B
  3
Realistic
350
4E67
  3
Thicken
350
4E6A
  0
XRECORD
  5
5083
102
{ACAD_REACTORS
330
4E40
102
}
330
4E40
100
AcDbXrecord
280
     1
 90
        1
330
4EA0
  0
DICTIONARY
  5
507A
102
{ACAD_REACTORS
330
4E40
102
}
330
4E40
100
AcDbDictionary
281
     1
  3
CANNOSCALE
350
507D
  3
CMLEADERSTYLE
350
507C
  3
CTABLESTYLE
350
507B
  3
DIMASSOC
350
5080
  3
INDEXCTL
350
507F
  3
SORTENTS
350
507E
  0
DICTIONARY
  5
502D
102
{ACAD_REACTORS
330
4E40
102
}
330
4E40
100
AcDbDictionary
281
     1
  3
AcmStdDictionary
350
503B
  0
DICTIONARY
  5
4F7A
102
{ACAD_REACTORS
330
4E40
102
}
330
4E40
100
AcDbDictionary
281
     1
  3
AcMgSettings
350
4F7B
  0
XRECORD
  5
5084
102
{ACAD_REACTORS
330
4E40
102
}
330
4E40
100
AcDbXrecord
280
     1
  1
DWGPROPS COOKIE
  2

  3

  4

  6

  7

  8
A090053
  9

300
AmdtFileType=84
301
=
302
=
303
=
304
=
305
=
306
=
307
=
308
=
309
=
 40
1.043521296296296
 41
2452321.396199653
 42
2456213.497928137
  1

 90
        1
  0
XRECORD
  5
5056
102
{ACAD_REACTORS
330
5055
102
}
330
5055
100
AcDbXrecord
280
     1
290
     1
  0
XRECORD
  5
5058
102
{ACAD_REACTORS
330
5057
102
}
330
5057
100
AcDbXrecord
280
     1
290
     1
  0
XRECORD
  5
505A
102
{ACAD_REACTORS
330
5059
102
}
330
5059
100
AcDbXrecord
280
     1
290
     1
  0
XRECORD
  5
505C
102
{ACAD_REACTORS
330
505B
102
}
330
505B
100
AcDbXrecord
280
     1
290
     1
  0
XRECORD
  5
505E
102
{ACAD_REACTORS
330
505D
102
}
330
505D
100
AcDbXrecord
280
     1
290
     1
  0
XRECORD
  5
5060
102
{ACAD_REACTORS
330
505F
102
}
330
505F
100
AcDbXrecord
280
     1
290
     1
  0
XRECORD
  5
5062
102
{ACAD_REACTORS
330
5061
102
}
330
5061
100
AcDbXrecord
280
     1
290
     1
  0
XRECORD
  5
5064
102
{ACAD_REACTORS
330
5063
102
}
330
5063
100
AcDbXrecord
280
     1
290
     1
  0
XRECORD
  5
5066
102
{ACAD_REACTORS
330
5065
102
}
330
5065
100
AcDbXrecord
280
     1
290
     1
  0
XRECORD
  5
5068
102
{ACAD_REACTORS
330
5067
102
}
330
5067
100
AcDbXrecord
280
     1
290
     1
  0
XRECORD
  5
506A
102
{ACAD_REACTORS
330
5069
102
}
330
5069
100
AcDbXrecord
280
     1
290
     1
  0
DICTIONARY
  5
506C
102
{ACAD_REACTORS
330
506B
102
}
330
506B
100
AcDbDictionary
281
     1
  3
*A1
350
506D
  0
XRECORD
  5
5086
102
{ACAD_REACTORS
330
5085
102
}
330
5085
100
AcDbXrecord
280
     1
 70
     1
  0
XRECORD
  5
5088
102
{ACAD_REACTORS
330
5085
102
}
330
5085
100
AcDbXrecord
280
     1
340
4E96
  0
XRECORD
  5
5089
102
{ACAD_REACTORS
330
5085
102
}
330
5085
100
AcDbXrecord
280
     1
340
4E96
  0
XRECORD
  5
5087
102
{ACAD_REACTORS
330
5085
102
}
330
5085
100
AcDbXrecord
280
     1
340
4E96
  0
LAYOUT
  5
4EAB
102
{ACAD_XDICTIONARY
360
5090
102
}
102
{ACAD_REACTORS
330
4E9D
102
}
330
4E9D
100
AcDbPlotSettings
  1

  2
自動 EPSON LP-9600S (W2450527 上)
  4

  6

 40
0.0
 41
0.0
 42
0.0
 43
0.0
 44
0.0
 45
0.0
 46
0.0
 47
0.0
 48
0.0
 49
0.0
140
0.0
141
0.0
142
1.0
143
1.0
 70
  1712
 72
     0
 73
     0
 74
     0
  7

 75
     0
147
1.0
148
0.0
149
0.0
100
AcDbLayout
  1
Model
 70
     1
 71
     0
 10
0.0
 20
0.0
 11
12.0
 21
9.0
 12
0.0
 22
0.0
 32
0.0
 14
0.0
 24
0.0
 34
0.0
 15
0.0
 25
0.0
 35
0.0
146
0.0
 13
0.0
 23
0.0
 33
0.0
 16
1.0
 26
0.0
 36
0.0
 17
0.0
 27
1.0
 37
0.0
 76
     0
330
4EA8
331
4EAC
  0
LAYOUT
  5
4EA7
102
{ACAD_XDICTIONARY
360
508E
102
}
102
{ACAD_REACTORS
330
4E9D
102
}
330
4E9D
100
AcDbPlotSettings
  1

  2
自動 EPSON LP-9600S (W2450527 上)
  4

  6

 40
0.0
 41
0.0
 42
0.0
 43
0.0
 44
0.0
 45
0.0
 46
0.0
 47
0.0
 48
0.0
 49
0.0
140
0.0
141
0.0
142
1.0
143
1.0
 70
   688
 72
     0
 73
     0
 74
     5
  7

 75
    16
147
1.0
148
0.0
149
0.0
100
AcDbLayout
  1
レイアウト1
 70
     1
 71
     1
 10
0.0
 20
0.0
 11
12.0
 21
9.0
 12
0.0
 22
0.0
 32
0.0
 14
1.000000000000000E+20
 24
1.000000000000000E+20
 34
1.000000000000000E+20
 15
-1.000000000000000E+20
 25
-1.000000000000000E+20
 35
-1.000000000000000E+20
146
0.0
 13
0.0
 23
0.0
 33
0.0
 16
1.0
 26
0.0
 36
0.0
 17
0.0
 27
1.0
 37
0.0
 76
     0
330
4EA4
  0
MATERIAL
  5
4E4D
102
{ACAD_XDICTIONARY
360
4E4E
102
}
102
{ACAD_REACTORS
330
4E44
102
}
330
4E44
100
AcDbMaterial
  1
ByBlock
 72
     0
 43
0.0208333333333333
 43
0.0
 43
0.0
 43
0.0
 43
0.0
 43
0.0208333333333333
 43
0.0
 43
0.0
 43
0.0
 43
0.0
 43
1.0
 43
0.0
 43
0.0
 43
0.0
 43
0.0
 43
1.0
 77
     0
 47
0.0208333333333333
 47
0.0
 47
0.0
 47
0.0
 47
0.0
 47
0.0208333333333333
 47
0.0
 47
0.0
 47
0.0
 47
0.0
 47
1.0
 47
0.0
 47
0.0
 47
0.0
 47
0.0
 47
1.0
171
     0
 49
0.0208333333333333
 49
0.0
 49
0.0
 49
0.0
 49
0.0
 49
0.0208333333333333
 49
0.0
 49
0.0
 49
0.0
 49
0.0
 49
1.0
 49
0.0
 49
0.0
 49
0.0
 49
0.0
 49
1.0
175
     0
142
0.0208333333333333
142
0.0
142
0.0
142
0.0
142
0.0
142
0.0208333333333333
142
0.0
142
0.0
142
0.0
142
0.0
142
1.0
142
0.0
142
0.0
142
0.0
142
0.0
142
1.0
179
     0
144
0.0208333333333333
144
0.0
144
0.0
144
0.0
144
0.0
144
0.0208333333333333
144
0.0
144
0.0
144
0.0
144
0.0
144
1.0
144
0.0
144
0.0
144
0.0
144
0.0
144
1.0
147
0.0208333333333333
147
0.0
147
0.0
147
0.0
147
0.0
147
0.0208333333333333
147
0.0
147
0.0
147
0.0
147
0.0
147
1.0
147
0.0
147
0.0
147
0.0
147
0.0
147
1.0
  0
MATERIAL
  5
4E45
102
{ACAD_XDICTIONARY
360
4E46
102
}
102
{ACAD_REACTORS
330
4E44
102
}
330
4E44
100
AcDbMaterial
  1
ByLayer
 72
     0
 43
0.0208333333333333
 43
0.0
 43
0.0
 43
0.0
 43
0.0
 43
0.0208333333333333
 43
0.0
 43
0.0
 43
0.0
 43
0.0
 43
1.0
 43
0.0
 43
0.0
 43
0.0
 43
0.0
 43
1.0
 77
     0
 47
0.0208333333333333
 47
0.0
 47
0.0
 47
0.0
 47
0.0
 47
0.0208333333333333
 47
0.0
 47
0.0
 47
0.0
 47
0.0
 47
1.0
 47
0.0
 47
0.0
 47
0.0
 47
0.0
 47
1.0
171
     0
 49
0.0208333333333333
 49
0.0
 49
0.0
 49
0.0
 49
0.0
 49
0.0208333333333333
 49
0.0
 49
0.0
 49
0.0
 49
0.0
 49
1.0
 49
0.0
 49
0.0
 49
0.0
 49
0.0
 49
1.0
175
     0
142
0.0208333333333333
142
0.0
142
0.0
142
0.0
142
0.0
142
0.0208333333333333
142
0.0
142
0.0
142
0.0
142
0.0
142
1.0
142
0.0
142
0.0
142
0.0
142
0.0
142
1.0
179
     0
144
0.0208333333333333
144
0.0
144
0.0
144
0.0
144
0.0
144
0.0208333333333333
144
0.0
144
0.0
144
0.0
144
0.0
144
1.0
144
0.0
144
0.0
144
0.0
144
0.0
144
1.0
147
0.0208333333333333
147
0.0
147
0.0
147
0.0
147
0.0
147
0.0208333333333333
147
0.0
147
0.0
147
0.0
147
0.0
147
1.0
147
0.0
147
0.0
147
0.0
147
0.0
147
1.0
  0
MATERIAL
  5
4E55
102
{ACAD_XDICTIONARY
360
4E56
102
}
102
{ACAD_REACTORS
330
4E44
102
}
330
4E44
100
AcDbMaterial
  1
Global
 72
     0
 43
0.0208333333333333
 43
0.0
 43
0.0
 43
0.0
 43
0.0
 43
0.0208333333333333
 43
0.0
 43
0.0
 43
0.0
 43
0.0
 43
1.0
 43
0.0
 43
0.0
 43
0.0
 43
0.0
 43
1.0
 77
     0
 47
0.0208333333333333
 47
0.0
 47
0.0
 47
0.0
 47
0.0
 47
0.0208333333333333
 47
0.0
 47
0.0
 47
0.0
 47
0.0
 47
1.0
 47
0.0
 47
0.0
 47
0.0
 47
0.0
 47
1.0
171
     0
 49
0.0208333333333333
 49
0.0
 49
0.0
 49
0.0
 49
0.0
 49
0.0208333333333333
 49
0.0
 49
0.0
 49
0.0
 49
0.0
 49
1.0
 49
0.0
 49
0.0
 49
0.0
 49
0.0
 49
1.0
175
     0
142
0.0208333333333333
142
0.0
142
0.0
142
0.0
142
0.0
142
0.0208333333333333
142
0.0
142
0.0
142
0.0
142
0.0
142
1.0
142
0.0
142
0.0
142
0.0
142
0.0
142
1.0
179
     0
144
0.0208333333333333
144
0.0
144
0.0
144
0.0
144
0.0
144
0.0208333333333333
144
0.0
144
0.0
144
0.0
144
0.0
144
1.0
144
0.0
144
0.0
144
0.0
144
0.0
144
1.0
147
0.0208333333333333
147
0.0
147
0.0
147
0.0
147
0.0
147
0.0208333333333333
147
0.0
147
0.0
147
0.0
147
0.0
147
1.0
147
0.0
147
0.0
147
0.0
147
0.0
147
1.0
  0
MLEADERSTYLE
  5
4EA2
102
{ACAD_REACTORS
330
4EA1
102
}
330
4EA1
100
AcDbMLeaderStyle
170
     2
171
     1
172
     0
 90
        2
 40
0.0
 41
0.0
173
     1
 91
-1056964608
340
4E96
 92
       -2
290
     1
 42
0.09
291
     1
 43
0.36
  3
Standard
 44
0.18
300

342
4E91
174
     1
178
     6
175
     1
176
     0
 93
-1056964608
 45
0.18
292
     0
297
     0
 46
0.18
 94
-1056964608
 47
1.0
 49
1.0
140
1.0
293
     1
141
0.0
294
     1
177
     0
142
1.0
295
     0
296
     0
143
0.125
1001
ACAD_MLEADERVER
1070
     2
  0
MLINESTYLE
  5
4E9B
102
{ACAD_REACTORS
330
4E9A
102
}
330
4E9A
100
AcDbMlineStyle
  2
STANDARD
 70
     0
  3

 62
   256
 51
90.0
 52
90.0
 71
     2
 49
0.5
 62
   256
  6
BYLAYER
 49
-0.5
 62
   256
  6
BYLAYER
  0
ACDBPLACEHOLDER
  5
4E43
102
{ACAD_REACTORS
330
4E42
102
}
330
4E42
  0
SCALE
  5
4E6F
102
{ACAD_REACTORS
330
4E6E
102
}
330
4E6E
100
AcDbScale
 70
     0
300
1:1
140
1.0
141
1.0
290
     1
  0
SCALE
  5
4E70
102
{ACAD_REACTORS
330
4E6E
102
}
330
4E6E
100
AcDbScale
 70
     0
300
1:2
140
1.0
141
2.0
290
     0
  0
SCALE
  5
4E71
102
{ACAD_REACTORS
330
4E6E
102
}
330
4E6E
100
AcDbScale
 70
     0
300
1:4
140
1.0
141
4.0
290
     0
  0
SCALE
  5
4E72
102
{ACAD_REACTORS
330
4E6E
102
}
330
4E6E
100
AcDbScale
 70
     0
300
1:5
140
1.0
141
5.0
290
     0
  0
SCALE
  5
4E73
102
{ACAD_REACTORS
330
4E6E
102
}
330
4E6E
100
AcDbScale
 70
     0
300
1:8
140
1.0
141
8.0
290
     0
  0
SCALE
  5
4E74
102
{ACAD_REACTORS
330
4E6E
102
}
330
4E6E
100
AcDbScale
 70
     0
300
1:10
140
1.0
141
10.0
290
     0
  0
SCALE
  5
4E75
102
{ACAD_REACTORS
330
4E6E
102
}
330
4E6E
100
AcDbScale
 70
     0
300
1:16
140
1.0
141
16.0
290
     0
  0
SCALE
  5
4E76
102
{ACAD_REACTORS
330
4E6E
102
}
330
4E6E
100
AcDbScale
 70
     0
300
1:20
140
1.0
141
20.0
290
     0
  0
SCALE
  5
4E77
102
{ACAD_REACTORS
330
4E6E
102
}
330
4E6E
100
AcDbScale
 70
     0
300
1:30
140
1.0
141
30.0
290
     0
  0
SCALE
  5
4E78
102
{ACAD_REACTORS
330
4E6E
102
}
330
4E6E
100
AcDbScale
 70
     0
300
1:40
140
1.0
141
40.0
290
     0
  0
SCALE
  5
4E79
102
{ACAD_REACTORS
330
4E6E
102
}
330
4E6E
100
AcDbScale
 70
     0
300
1:50
140
1.0
141
50.0
290
     0
  0
SCALE
  5
4E7A
102
{ACAD_REACTORS
330
4E6E
102
}
330
4E6E
100
AcDbScale
 70
     0
300
1:100
140
1.0
141
100.0
290
     0
  0
SCALE
  5
4E7B
102
{ACAD_REACTORS
330
4E6E
102
}
330
4E6E
100
AcDbScale
 70
     0
300
2:1
140
2.0
141
1.0
290
     0
  0
SCALE
  5
4E7C
102
{ACAD_REACTORS
330
4E6E
102
}
330
4E6E
100
AcDbScale
 70
     0
300
4:1
140
4.0
141
1.0
290
     0
  0
SCALE
  5
4E7D
102
{ACAD_REACTORS
330
4E6E
102
}
330
4E6E
100
AcDbScale
 70
     0
300
8:1
140
8.0
141
1.0
290
     0
  0
SCALE
  5
4E7E
102
{ACAD_REACTORS
330
4E6E
102
}
330
4E6E
100
AcDbScale
 70
     0
300
10:1
140
10.0
141
1.0
290
     0
  0
SCALE
  5
4E7F
102
{ACAD_REACTORS
330
4E6E
102
}
330
4E6E
100
AcDbScale
 70
     0
300
100:1
140
100.0
141
1.0
290
     0
  0
SCALE
  5
4E80
102
{ACAD_REACTORS
330
4E6E
102
}
330
4E6E
100
AcDbScale
 70
     0
300
1/128" = 1'-0"
140
0.0078125
141
12.0
290
     0
  0
SCALE
  5
4E81
102
{ACAD_REACTORS
330
4E6E
102
}
330
4E6E
100
AcDbScale
 70
     0
300
1/64" = 1'-0"
140
0.015625
141
12.0
290
     0
  0
SCALE
  5
4E82
102
{ACAD_REACTORS
330
4E6E
102
}
330
4E6E
100
AcDbScale
 70
     0
300
1/32" = 1'-0"
140
0.03125
141
12.0
290
     0
  0
SCALE
  5
4E83
102
{ACAD_REACTORS
330
4E6E
102
}
330
4E6E
100
AcDbScale
 70
     0
300
1/16" = 1'-0"
140
0.0625
141
12.0
290
     0
  0
SCALE
  5
4E84
102
{ACAD_REACTORS
330
4E6E
102
}
330
4E6E
100
AcDbScale
 70
     0
300
3/32" = 1'-0"
140
0.09375
141
12.0
290
     0
  0
SCALE
  5
4E85
102
{ACAD_REACTORS
330
4E6E
102
}
330
4E6E
100
AcDbScale
 70
     0
300
1/8" = 1'-0"
140
0.125
141
12.0
290
     0
  0
SCALE
  5
4E86
102
{ACAD_REACTORS
330
4E6E
102
}
330
4E6E
100
AcDbScale
 70
     0
300
3/16" = 1'-0"
140
0.1875
141
12.0
290
     0
  0
SCALE
  5
4E87
102
{ACAD_REACTORS
330
4E6E
102
}
330
4E6E
100
AcDbScale
 70
     0
300
1/4" = 1'-0"
140
0.25
141
12.0
290
     0
  0
SCALE
  5
4E88
102
{ACAD_REACTORS
330
4E6E
102
}
330
4E6E
100
AcDbScale
 70
     0
300
3/8" = 1'-0"
140
0.375
141
12.0
290
     0
  0
SCALE
  5
4E89
102
{ACAD_REACTORS
330
4E6E
102
}
330
4E6E
100
AcDbScale
 70
     0
300
1/2" = 1'-0"
140
0.5
141
12.0
290
     0
  0
SCALE
  5
4E8A
102
{ACAD_REACTORS
330
4E6E
102
}
330
4E6E
100
AcDbScale
 70
     0
300
3/4" = 1'-0"
140
0.75
141
12.0
290
     0
  0
SCALE
  5
4E8B
102
{ACAD_REACTORS
330
4E6E
102
}
330
4E6E
100
AcDbScale
 70
     0
300
1" = 1'-0"
140
1.0
141
12.0
290
     0
  0
SCALE
  5
4E8C
102
{ACAD_REACTORS
330
4E6E
102
}
330
4E6E
100
AcDbScale
 70
     0
300
1-1/2" = 1'-0"
140
1.5
141
12.0
290
     0
  0
SCALE
  5
4E8D
102
{ACAD_REACTORS
330
4E6E
102
}
330
4E6E
100
AcDbScale
 70
     0
300
3" = 1'-0"
140
3.0
141
12.0
290
     0
  0
SCALE
  5
4E8E
102
{ACAD_REACTORS
330
4E6E
102
}
330
4E6E
100
AcDbScale
 70
     0
300
6" = 1'-0"
140
6.0
141
12.0
290
     0
  0
SCALE
  5
4E8F
102
{ACAD_REACTORS
330
4E6E
102
}
330
4E6E
100
AcDbScale
 70
     0
300
1'-0" = 1'-0"
140
12.0
141
12.0
290
     0
  0
TABLESTYLE
  5
4EA0
102
{ACAD_XDICTIONARY
360
5081
102
}
102
{ACAD_REACTORS
330
4E9F
102
}
330
4E9F
100
AcDbTableStyle
  3
Standard
 70
     0
 71
     0
 40
0.06
 41
0.06
280
     0
281
     0
  7
STANDARD
140
0.18
170
     2
 62
     0
 63
     7
283
     0
274
    -2
284
     1
 64
     0
275
    -2
285
     1
 65
     0
276
    -2
286
     1
 66
     0
277
    -2
287
     1
 67
     0
278
    -2
288
     1
 68
     0
279
    -2
289
     1
 69
     0
  7
STANDARD
140
0.25
170
     5
 62
     0
 63
     7
283
     0
274
    -2
284
     1
 64
     0
275
    -2
285
     1
 65
     0
276
    -2
286
     1
 66
     0
277
    -2
287
     1
 67
     0
278
    -2
288
     1
 68
     0
279
    -2
289
     1
 69
     0
  7
STANDARD
140
0.18
170
     5
 62
     0
 63
     7
283
     0
274
    -2
284
     1
 64
     0
275
    -2
285
     1
 65
     0
276
    -2
286
     1
 66
     0
277
    -2
287
     1
 67
     0
278
    -2
288
     1
 68
     0
279
    -2
289
     1
 69
     0
  0
VISUALSTYLE
  5
4E63
102
{ACAD_REACTORS
330
4E5D
102
}
330
4E5D
100
AcDbVisualStyle
  2
2dWireframe
 70
     4
 71
     0
 72
     2
 73
     0
 90
        0
 40
-0.6
 41
-30.0
 62
     5
 63
     7
 74
     1
 91
        4
 64
     7
 65
   257
 75
     1
175
     1
 42
1.0
 92
        0
 66
   257
 43
1.0
 76
     1
 77
     6
 78
     2
 67
     7
 79
     5
170
     0
171
     0
290
     0
174
     0
 93
        1
 44
0.0
173
     0
291
     0
 45
0.0
1001
ACAD
1000
AcDbSavedByObjectVersion
1070
     0
  0
VISUALSTYLE
  5
4E65
102
{ACAD_REACTORS
330
4E5D
102
}
330
4E5D
100
AcDbVisualStyle
  2
3D Hidden
 70
     6
 71
     1
 72
     2
 73
     2
 90
        0
 40
-0.6
 41
-30.0
 62
     5
 63
     7
 74
     2
 91
        2
 64
     7
 65
   257
 75
     2
175
     1
 42
40.0
 92
        0
 66
   257
 43
1.0
 76
     1
 77
     6
 78
     2
 67
     7
 79
     3
170
     0
171
     0
290
     0
174
     0
 93
        1
 44
0.0
173
     0
291
     0
 45
0.0
1001
ACAD
1000
AcDbSavedByObjectVersion
1070
     0
  0
VISUALSTYLE
  5
4E64
102
{ACAD_REACTORS
330
4E5D
102
}
330
4E5D
100
AcDbVisualStyle
  2
3dWireframe
 70
     5
 71
     0
 72
     2
 73
     0
 90
        0
 40
-0.6
 41
-30.0
 62
     5
 63
     7
 74
     1
 91
        4
 64
     7
 65
   257
 75
     1
175
     1
 42
1.0
 92
        0
 66
   257
 43
1.0
 76
     1
 77
     6
 78
     2
 67
     7
 79
     5
170
     0
171
     0
290
     0
174
     0
 93
        1
 44
0.0
173
     0
291
     0
 45
0.0
1001
ACAD
1000
AcDbSavedByObjectVersion
1070
     0
  0
VISUALSTYLE
  5
4E62
102
{ACAD_REACTORS
330
4E5D
102
}
330
4E5D
100
AcDbVisualStyle
  2
Basic
 70
     7
 71
     1
 72
     0
 73
     1
 90
        0
 40
-0.6
 41
-30.0
 62
     5
 63
     7
 74
     0
 91
        4
 64
     7
 65
   257
 75
     1
175
     1
 42
1.0
 92
        8
 66
     7
 43
1.0
 76
     1
 77
     6
 78
     2
 67
     7
 79
     5
170
     0
171
     0
290
     0
174
     0
 93
        1
 44
0.0
173
     0
291
     1
 45
0.0
1001
ACAD
1000
AcDbSavedByObjectVersion
1070
     0
  0
VISUALSTYLE
  5
4E69
102
{ACAD_REACTORS
330
4E5D
102
}
330
4E5D
100
AcDbVisualStyle
  2
Brighten
 70
    12
 71
     2
 72
     2
 73
     0
 90
        0
 40
-0.6
 41
-30.0
 62
     5
 63
     7
 74
     1
 91
        4
 64
     7
 65
   257
 75
     1
175
     1
 42
1.0
 92
        8
 66
     7
 43
1.0
 76
     1
 77
     6
 78
     2
 67
     7
 79
     5
170
     0
171
     0
290
     0
174
     0
 93
        1
 44
50.0
173
     0
291
     1
 45
0.0
1001
ACAD
1000
AcDbSavedByObjectVersion
1070
     0
  0
VISUALSTYLE
  5
4E6D
102
{ACAD_REACTORS
330
4E5D
102
}
330
4E5D
100
AcDbVisualStyle
  2
ColorChange
 70
    16
 71
     2
 72
     2
 73
     3
 90
        0
 40
-0.6
 41
-30.0
 62
     5
 63
     8
 74
     1
 91
        4
 64
     7
 65
   257
 75
     1
175
     1
 42
1.0
 92
        8
 66
     8
 43
1.0
 76
     1
 77
     6
 78
     2
 67
     7
 79
     5
170
     0
171
     0
290
     0
174
     0
 93
        1
 44
0.0
173
     0
291
     1
 45
0.0
1001
ACAD
1000
AcDbSavedByObjectVersion
1070
     0
  0
VISUALSTYLE
  5
4E66
102
{ACAD_REACTORS
330
4E5D
102
}
330
4E5D
100
AcDbVisualStyle
  2
Conceptual
 70
     9
 71
     3
 72
     2
 73
     0
 90
        0
 40
-0.6
 41
-30.0
 62
     5
 63
     7
 74
     2
 91
        2
 64
     7
 65
   257
 75
     1
175
     1
 42
40.0
 92
        8
 66
     7
 43
1.0
 76
     1
 77
     6
 78
     2
 67
     7
 79
     3
170
     0
171
     0
290
     0
174
     0
 93
        1
 44
0.0
173
     0
291
     0
 45
0.0
1001
ACAD
1000
AcDbSavedByObjectVersion
1070
     0
  0
VISUALSTYLE
  5
4E68
102
{ACAD_REACTORS
330
4E5D
102
}
330
4E5D
100
AcDbVisualStyle
  2
Dim
 70
    11
 71
     2
 72
     2
 73
     0
 90
        0
 40
-0.6
 41
-30.0
 62
     5
 63
     7
 74
     1
 91
        4
 64
     7
 65
   257
 75
     1
175
     1
 42
1.0
 92
        8
 66
     7
 43
1.0
 76
     1
 77
     6
 78
     2
 67
     7
 79
     5
170
     0
171
     0
290
     0
174
     0
 93
        1
 44
-50.0
173
     0
291
     1
 45
0.0
1001
ACAD
1000
AcDbSavedByObjectVersion
1070
     0
  0
VISUALSTYLE
  5
4E6C
102
{ACAD_REACTORS
330
4E5D
102
}
330
4E5D
100
AcDbVisualStyle
  2
Facepattern
 70
    15
 71
     2
 72
     2
 73
     0
 90
        0
 40
-0.6
 41
-30.0
 62
     5
 63
     7
 74
     1
 91
        4
 64
     7
 65
   257
 75
     1
175
     1
 42
1.0
 92
        8
 66
     7
 43
1.0
 76
     1
 77
     6
 78
     2
 67
     7
 79
     5
170
     0
171
     0
290
     0
174
     0
 93
        1
 44
0.0
173
     0
291
     1
 45
0.0
1001
ACAD
1000
AcDbSavedByObjectVersion
1070
     0
  0
VISUALSTYLE
  5
4E5E
102
{ACAD_REACTORS
330
4E5D
102
}
330
4E5D
100
AcDbVisualStyle
  2
Flat
 70
     0
 71
     2
 72
     1
 73
     1
 90
        2
 40
-0.6
 41
30.0
 62
     5
 63
     7
 74
     0
 91
        4
 64
     7
 65
   257
 75
     1
175
     1
 42
1.0
 92
        8
 66
     7
 43
1.0
 76
     1
 77
     6
 78
     2
 67
     7
 79
     5
170
     0
171
     0
290
     0
174
     0
 93
       13
 44
0.0
173
     0
291
     1
 45
0.0
1001
ACAD
1000
AcDbSavedByObjectVersion
1070
     0
  0
VISUALSTYLE
  5
4E5F
102
{ACAD_REACTORS
330
4E5D
102
}
330
4E5D
100
AcDbVisualStyle
  2
FlatWithEdges
 70
     1
 71
     2
 72
     1
 73
     1
 90
        2
 40
-0.6
 41
30.0
 62
     5
 63
     7
 74
     1
 91
        4
 64
     7
 65
   257
 75
     1
175
     1
 42
1.0
 92
        0
 66
   257
 43
1.0
 76
     1
 77
     6
 78
     2
 67
     7
 79
     5
170
     0
171
     0
290
     0
174
     0
 93
       13
 44
0.0
173
     0
291
     1
 45
0.0
1001
ACAD
1000
AcDbSavedByObjectVersion
1070
     0
  0
VISUALSTYLE
  5
4E60
102
{ACAD_REACTORS
330
4E5D
102
}
330
4E5D
100
AcDbVisualStyle
  2
Gouraud
 70
     2
 71
     2
 72
     2
 73
     1
 90
        2
 40
-0.6
 41
30.0
 62
     5
 63
     7
 74
     0
 91
        4
 64
     7
 65
   257
 75
     1
175
     1
 42
1.0
 92
        0
 66
     7
 43
1.0
 76
     1
 77
     6
 78
     2
 67
     7
 79
     5
170
     0
171
     0
290
     0
174
     0
 93
       13
 44
0.0
173
     0
291
     1
 45
0.0
1001
ACAD
1000
AcDbSavedByObjectVersion
1070
     0
  0
VISUALSTYLE
  5
4E61
102
{ACAD_REACTORS
330
4E5D
102
}
330
4E5D
100
AcDbVisualStyle
  2
GouraudWithEdges
 70
     3
 71
     2
 72
     2
 73
     1
 90
        2
 40
-0.6
 41
30.0
 62
     5
 63
     7
 74
     1
 91
        4
 64
     7
 65
   257
 75
     1
175
     1
 42
1.0
 92
        0
 66
   257
 43
1.0
 76
     1
 77
     6
 78
     2
 67
     7
 79
     5
170
     0
171
     0
290
     0
174
     0
 93
       13
 44
0.0
173
     0
291
     1
 45
0.0
1001
ACAD
1000
AcDbSavedByObjectVersion
1070
     0
  0
VISUALSTYLE
  5
4E6B
102
{ACAD_REACTORS
330
4E5D
102
}
330
4E5D
100
AcDbVisualStyle
  2
Linepattern
 70
    14
 71
     2
 72
     2
 73
     0
 90
        0
 40
-0.6
 41
-30.0
 62
     5
 63
     7
 74
     1
 91
        4
 64
     7
 65
   257
 75
     7
175
     7
 42
1.0
 92
        8
 66
     7
 43
1.0
 76
     1
 77
     6
 78
     2
 67
     7
 79
     5
170
     0
171
     0
290
     0
174
     0
 93
        1
 44
0.0
173
     0
291
     1
 45
0.0
1001
ACAD
1000
AcDbSavedByObjectVersion
1070
     0
  0
VISUALSTYLE
  5
4E67
102
{ACAD_REACTORS
330
4E5D
102
}
330
4E5D
100
AcDbVisualStyle
  2
Realistic
 70
     8
 71
     2
 72
     2
 73
     0
 90
        0
 40
-0.6
 41
-30.0
 62
     5
 63
     7
 74
     1
 91
        0
 64
     7
 65
   257
 75
     1
175
     1
 42
1.0
 92
        8
 66
     8
 43
1.0
 76
     1
 77
     6
 78
     2
 67
     7
 79
     5
170
     0
171
     0
290
     0
174
     0
 93
       13
 44
0.0
173
     0
291
     0
 45
0.0
1001
ACAD
1000
AcDbSavedByObjectVersion
1070
     0
  0
VISUALSTYLE
  5
4E6A
102
{ACAD_REACTORS
330
4E5D
102
}
330
4E5D
100
AcDbVisualStyle
  2
Thicken
 70
    13
 71
     2
 72
     2
 73
     0
 90
        0
 40
-0.6
 41
-30.0
 62
     5
 63
     7
 74
     1
 91
        4
 64
     7
 65
   257
 75
     1
175
     1
 42
1.0
 92
       12
 66
     7
 43
1.0
 76
     1
 77
     6
 78
     2
 67
     7
 79
     5
170
     0
171
     0
290
     0
174
     0
 93
        1
 44
0.0
173
     0
291
     1
 45
0.0
1001
ACAD
1000
AcDbSavedByObjectVersion
1070
     0
  0
DICTIONARYVAR
  5
507D
102
{ACAD_REACTORS
330
507A
102
}
330
507A
100
DictionaryVariables
280
     0
  1
1:1
  0
DICTIONARYVAR
  5
507C
102
{ACAD_REACTORS
330
507A
102
}
330
507A
100
DictionaryVariables
280
     0
  1
STANDARD
  0
DICTIONARYVAR
  5
507B
102
{ACAD_REACTORS
330
507A
102
}
330
507A
100
DictionaryVariables
280
     0
  1
STANDARD
  0
DICTIONARYVAR
  5
5080
102
{ACAD_REACTORS
330
507A
102
}
330
507A
100
DictionaryVariables
280
     0
  1
1
  0
DICTIONARYVAR
  5
507F
102
{ACAD_REACTORS
330
507A
102
}
330
507A
100
DictionaryVariables
280
     0
  1
1
  0
DICTIONARYVAR
  5
507E
102
{ACAD_REACTORS
330
507A
102
}
330
507A
100
DictionaryVariables
280
     0
  1
127
  0
DICTIONARY
  5
503B
102
{ACAD_REACTORS
330
502D
102
}
330
502D
100
AcDbDictionary
281
     1
  0
DICTIONARY
  5
4F7B
102
{ACAD_REACTORS
330
4F7A
102
}
330
4F7A
100
AcDbDictionary
281
     1
  3
DWGSETTINGS
350
4F7C
  3
TRANSSETTINGS
350
4F7D
  0
LAYER_INDEX
  5
506D
102
{ACAD_REACTORS
330
506C
102
}
330
506C
100
AcDbIndex
 40
2456213.497928137
100
AcDbLayerIndex
  8
0
360
506E
 90
        0
  8
OUTLINE
360
506F
 90
       18
  8
SIZE
360
5070
 90
       48
  8
BASIS
360
5071
 90
        2
  8
DETAIL
360
5072
 90
       64
  8
ARRANGE
360
5073
 90
        2
  8
DEFPOINTS
360
5074
 90
        0
  8
ETC
360
5075
 90
        3
  8
FIX
360
5076
 90
        4
  8
NOTE
360
5077
 90
       11
  8
SERVICESPACE
360
5078
 90
        0
  8
SYMBOLLINE
360
5079
 90
        0
  0
DICTIONARY
  5
5090
330
4EAB
100
AcDbDictionary
280
     1
281
     1
  3
ACAD_XREC_ROUNDTRIP
360
5091
  0
DICTIONARY
  5
508E
330
4EA7
100
AcDbDictionary
280
     1
281
     1
  3
ACAD_XREC_ROUNDTRIP
360
508F
  0
DICTIONARY
  5
4E4E
330
4E4D
100
AcDbDictionary
280
     1
281
     1
  3
ACAD_XREC_ROUNDTRIP
360
508B
  3
BUMPTILE
360
4E50
  3
DIFFUSETILE
360
4E4F
  3
OPACITYTILE
360
4E53
  3
REFLECTIONTILE
360
4E52
  3
REFRACTIONTILE
360
4E54
  3
SPECULARTILE
360
4E51
  0
DICTIONARY
  5
4E46
330
4E45
100
AcDbDictionary
280
     1
281
     1
  3
ACAD_XREC_ROUNDTRIP
360
508A
  3
BUMPTILE
360
4E48
  3
DIFFUSETILE
360
4E47
  3
OPACITYTILE
360
4E4B
  3
REFLECTIONTILE
360
4E4A
  3
REFRACTIONTILE
360
4E4C
  3
SPECULARTILE
360
4E49
  0
DICTIONARY
  5
4E56
330
4E55
100
AcDbDictionary
280
     1
281
     1
  3
ACAD_XREC_ROUNDTRIP
360
508C
  3
BUMPTILE
360
4E58
  3
DIFFUSETILE
360
4E57
  3
OPACITYTILE
360
4E5B
  3
REFLECTIONTILE
360
4E5A
  3
REFRACTIONTILE
360
4E5C
  3
SPECULARTILE
360
4E59
  0
DICTIONARY
  5
5081
330
4EA0
100
AcDbDictionary
280
     1
281
     1
  3
ACAD_ROUNDTRIP_2008_TABLESTYLE_CELLSTYLEMAP
360
5082
  3
ACAD_XREC_ROUNDTRIP
360
508D
  0
IDBUFFER
  5
506E
330
0
100
AcDbIdBuffer
  0
IDBUFFER
  5
506F
330
0
100
AcDbIdBuffer
330
46A6
330
46A7
330
953
330
954
330
955
330
956
330
957
330
958
330
469C
330
469D
330
469E
330
469F
330
46A0
330
46A1
330
46A2
330
46A3
330
46A4
330
46A5
  0
IDBUFFER
  5
5070
330
0
100
AcDbIdBuffer
330
46B8
330
46B9
330
46C1
330
46C2
330
46C3
330
46C4
330
46C5
330
46C6
330
46C7
330
46C8
330
46C9
330
46CA
330
46CB
330
46CC
330
46CD
330
46CE
330
46CF
330
46D0
330
46D1
330
46D2
330
46D3
330
46D4
330
46D5
330
46D6
330
46D7
330
46D8
330
46D9
330
46DA
330
46DB
330
46DC
330
46DD
330
46DE
330
46A8
330
46A9
330
46AA
330
46AB
330
46AC
330
46AD
330
46AE
330
46AF
330
46B0
330
46B1
330
46B2
330
46B3
330
46B4
330
46B5
330
46B6
330
46B7
  0
IDBUFFER
  5
5071
330
0
100
AcDbIdBuffer
330
468F
330
4690
  0
IDBUFFER
  5
5072
330
0
100
AcDbIdBuffer
330
402E
330
4032
330
4353
330
4356
330
435A
330
467A
330
467D
330
4684
330
4685
330
4686
330
4687
330
4688
330
4689
330
468A
330
468B
330
468C
330
39B3
330
39B4
330
39B5
330
39B6
330
39B9
330
39BA
330
39BB
330
39BC
330
39BD
330
39BE
330
39BF
330
39C0
330
39C1
330
39C2
330
39C3
330
39C4
330
39C5
330
39C6
330
39C9
330
39CA
330
39CB
330
39CC
330
39CF
330
3CEF
330
3CF2
330
3CF4
330
3CF5
330
3CF6
330
3CF7
330
3CF8
330
3CF9
330
3CFA
330
3CFB
330
3CFC
330
3CFD
330
3CFE
330
3CFF
330
3D00
330
3D01
330
3D02
330
3D03
330
3D04
330
3D05
330
3D06
330
3D07
330
3D08
330
3D0B
330
402B
  0
IDBUFFER
  5
5073
330
0
100
AcDbIdBuffer
330
4691
330
4692
  0
IDBUFFER
  5
5074
330
0
100
AcDbIdBuffer
  0
IDBUFFER
  5
5075
330
0
100
AcDbIdBuffer
330
468D
330
468E
330
469B
  0
IDBUFFER
  5
5076
330
0
100
AcDbIdBuffer
330
39B7
330
39B8
330
39C7
330
39C8
  0
IDBUFFER
  5
5077
330
0
100
AcDbIdBuffer
330
4693
330
4694
330
4695
330
4696
330
4697
330
4698
330
4699
330
469A
330
46BA
330
46BB
330
46BC
  0
IDBUFFER
  5
5078
330
0
100
AcDbIdBuffer
  0
IDBUFFER
  5
5079
330
0
100
AcDbIdBuffer
  0
XRECORD
  5
5091
102
{ACAD_REACTORS
330
5090
102
}
330
5090
100
AcDbXrecord
280
     1
102
SHADEPLOT
 70
     0
102
SHADEPLOTRESLEVEL
 70
     2
102
SHADEPLOTCUSTOMDPI
 70
   300
  0
XRECORD
  5
508F
102
{ACAD_REACTORS
330
508E
102
}
330
508E
100
AcDbXrecord
280
     1
102
SHADEPLOT
 70
     0
102
SHADEPLOTRESLEVEL
 70
     2
102
SHADEPLOTCUSTOMDPI
 70
   300
  0
XRECORD
  5
508B
102
{ACAD_REACTORS
330
4E4E
102
}
330
4E4E
100
AcDbXrecord
280
     1
102
MATERIAL
148
0.0
149
0.0
149
0.0
 93
        0
 94
      127
282
     0
 72
     0
 77
     0
171
     0
175
     0
179
     0
273
     0
  0
XRECORD
  5
4E50
102
{ACAD_REACTORS
330
4E4E
102
}
330
4E4E
100
AcDbXrecord
280
     1
270
     1
271
     1
  0
XRECORD
  5
4E4F
102
{ACAD_REACTORS
330
4E4E
102
}
330
4E4E
100
AcDbXrecord
280
     1
270
     1
271
     1
  0
XRECORD
  5
4E53
102
{ACAD_REACTORS
330
4E4E
102
}
330
4E4E
100
AcDbXrecord
280
     1
270
     1
271
     1
  0
XRECORD
  5
4E52
102
{ACAD_REACTORS
330
4E4E
102
}
330
4E4E
100
AcDbXrecord
280
     1
270
     1
271
     1
  0
XRECORD
  5
4E54
102
{ACAD_REACTORS
330
4E4E
102
}
330
4E4E
100
AcDbXrecord
280
     1
270
     1
271
     1
  0
XRECORD
  5
4E51
102
{ACAD_REACTORS
330
4E4E
102
}
330
4E4E
100
AcDbXrecord
280
     1
270
     1
271
     1
  0
XRECORD
  5
508A
102
{ACAD_REACTORS
330
4E46
102
}
330
4E46
100
AcDbXrecord
280
     1
102
MATERIAL
148
0.0
149
0.0
149
0.0
 93
        0
 94
      127
282
     0
 72
     0
 77
     0
171
     0
175
     0
179
     0
273
     0
  0
XRECORD
  5
4E48
102
{ACAD_REACTORS
330
4E46
102
}
330
4E46
100
AcDbXrecord
280
     1
270
     1
271
     1
  0
XRECORD
  5
4E47
102
{ACAD_REACTORS
330
4E46
102
}
330
4E46
100
AcDbXrecord
280
     1
270
     1
271
     1
  0
XRECORD
  5
4E4B
102
{ACAD_REACTORS
330
4E46
102
}
330
4E46
100
AcDbXrecord
280
     1
270
     1
271
     1
  0
XRECORD
  5
4E4A
102
{ACAD_REACTORS
330
4E46
102
}
330
4E46
100
AcDbXrecord
280
     1
270
     1
271
     1
  0
XRECORD
  5
4E4C
102
{ACAD_REACTORS
330
4E46
102
}
330
4E46
100
AcDbXrecord
280
     1
270
     1
271
     1
  0
XRECORD
  5
4E49
102
{ACAD_REACTORS
330
4E46
102
}
330
4E46
100
AcDbXrecord
280
     1
270
     1
271
     1
  0
XRECORD
  5
508C
102
{ACAD_REACTORS
330
4E56
102
}
330
4E56
100
AcDbXrecord
280
     1
102
MATERIAL
148
0.0
149
0.0
149
0.0
 93
        0
 94
      127
282
     0
 72
     0
 77
     0
171
     0
175
     0
179
     0
273
     0
  0
XRECORD
  5
4E58
102
{ACAD_REACTORS
330
4E56
102
}
330
4E56
100
AcDbXrecord
280
     1
270
     1
271
     1
  0
XRECORD
  5
4E57
102
{ACAD_REACTORS
330
4E56
102
}
330
4E56
100
AcDbXrecord
280
     1
270
     1
271
     1
  0
XRECORD
  5
4E5B
102
{ACAD_REACTORS
330
4E56
102
}
330
4E56
100
AcDbXrecord
280
     1
270
     1
271
     1
  0
XRECORD
  5
4E5A
102
{ACAD_REACTORS
330
4E56
102
}
330
4E56
100
AcDbXrecord
280
     1
270
     1
271
     1
  0
XRECORD
  5
4E5C
102
{ACAD_REACTORS
330
4E56
102
}
330
4E56
100
AcDbXrecord
280
     1
270
     1
271
     1
  0
XRECORD
  5
4E59
102
{ACAD_REACTORS
330
4E56
102
}
330
4E56
100
AcDbXrecord
280
     1
270
     1
271
     1
  0
CELLSTYLEMAP
  5
5082
102
{ACAD_REACTORS
330
5081
102
}
330
5081
100
AcDbCellStyleMap
 90
        3
300
CELLSTYLE
  1
TABLEFORMAT_BEGIN
 90
        5
170
     1
 91
        0
 92
    32768
 62
   257
 93
        1
300
CONTENTFORMAT
  1
CONTENTFORMAT_BEGIN
 90
        0
 91
        0
 92
      512
 93
        0
300

 40
0.0
140
1.0
 94
        5
 62
     0
340
4E91
144
0.25
309
CONTENTFORMAT_END
171
     0
 94
        0
309
TABLEFORMAT_END
  1
CELLSTYLE_BEGIN
 90
        1
 91
        1
300
_TITLE
309
CELLSTYLE_END
300
CELLSTYLE
  1
TABLEFORMAT_BEGIN
 90
        5
170
     1
 91
        0
 92
        0
 62
   257
 93
        1
300
CONTENTFORMAT
  1
CONTENTFORMAT_BEGIN
 90
        0
 91
        0
 92
      512
 93
        0
300

 40
0.0
140
1.0
 94
        5
 62
     0
340
4E91
144
0.18
309
CONTENTFORMAT_END
171
     0
 94
        0
309
TABLEFORMAT_END
  1
CELLSTYLE_BEGIN
 90
        2
 91
        1
300
_HEADER
309
CELLSTYLE_END
300
CELLSTYLE
  1
TABLEFORMAT_BEGIN
 90
        5
170
     1
 91
        0
 92
        0
 62
   257
 93
        1
300
CONTENTFORMAT
  1
CONTENTFORMAT_BEGIN
 90
        0
 91
        0
 92
      512
 93
        0
300

 40
0.0
140
1.0
 94
        2
 62
     0
340
4E91
144
0.18
309
CONTENTFORMAT_END
171
     0
 94
        0
309
TABLEFORMAT_END
  1
CELLSTYLE_BEGIN
 90
        3
 91
        2
300
_DATA
309
CELLSTYLE_END
  0
XRECORD
  5
508D
102
{ACAD_REACTORS
330
5081
102
}
330
5081
100
AcDbXrecord
280
     1
102
ACAD_ROUNDTRIP_PRE2007_TABLESTYLE
 90
      512
 91
        0
  1

 92
      512
 93
        0
  2

 94
      512
 95
        0
  3

  0
ENDSEC
  0
EOF
