  0
SECTION
  2
HEADER
  9
$ACADVER
  1
AC1009
  9
$DWGCODEPAGE
  3
dos932
  9
$INSBASE
 10
0.0
 20
0.0
 30
0.0
  9
$EXTMIN
 10
-362.9106339075247
 20
-474.6503467659889
 30
0.0
  9
$EXTMAX
 10
751.09177217204353
 20
660.13549989022454
 30
50.0
  9
$LIMMIN
 10
-2970.0
 20
-2100.0
  9
$LIMMAX
 10
2970.0
 20
2100.0
  9
$ORTHOMODE
 70
     0
  9
$REGENMODE
 70
     1
  9
$FILLMODE
 70
     1
  9
$QTEXTMODE
 70
     0
  9
$MIRRTEXT
 70
     0
  9
$LTSCALE
 40
20.0
  9
$ATTMODE
 70
     1
  9
$TEXTSIZE
 40
64.0
  9
$TRACEWID
 40
0.05
  9
$TEXTSTYLE
  7
STANDARD
  9
$CLAYER
  8
ARRANGE
  9
$CELTYPE
  6
CONTINUOUS
  9
$CECOLOR
 62
     7
  9
$DIMSCALE
 40
1.0
  9
$DIMASZ
 40
12.0
  9
$DIMEXO
 40
20.0
  9
$DIMDLI
 40
200.0
  9
$DIMRND
 40
0.0
  9
$DIMDLE
 40
0.0
  9
$DIMEXE
 40
20.0
  9
$DIMTP
 40
0.0
  9
$DIMTM
 40
0.0
  9
$DIMTXT
 40
64.0
  9
$DIMCEN
 40
0.09
  9
$DIMTSZ
 40
0.0
  9
$DIMTOL
 70
     0
  9
$DIMLIM
 70
     0
  9
$DIMTIH
 70
     0
  9
$DIMTOH
 70
     0
  9
$DIMSE1
 70
     0
  9
$DIMSE2
 70
     0
  9
$DIMTAD
 70
     1
  9
$DIMZIN
 70
     8
  9
$DIMBLK
  1

  9
$DIMASO
 70
     1
  9
$DIMSHO
 70
     0
  9
$DIMPOST
  1

  9
$DIMAPOST
  1

  9
$DIMALT
 70
     0
  9
$DIMALTD
 70
     2
  9
$DIMALTF
 40
25.399999999999999
  9
$DIMLFAC
 40
1.0
  9
$DIMTOFL
 70
     1
  9
$DIMTVP
 40
0.0
  9
$DIMTIX
 70
     1
  9
$DIMSOXD
 70
     0
  9
$DIMSAH
 70
     0
  9
$DIMBLK1
  1

  9
$DIMBLK2
  1

  9
$DIMSTYLE
  2
STANDARD
  9
$DIMCLRD
 70
     7
  9
$DIMCLRE
 70
     7
  9
$DIMCLRT
 70
     7
  9
$DIMTFAC
 40
1.0
  9
$DIMGAP
 40
25.0
  9
$LUNITS
 70
     2
  9
$LUPREC
 70
     4
  9
$SKETCHINC
 40
0.1
  9
$FILLETRAD
 40
3.0
  9
$AUNITS
 70
     1
  9
$AUPREC
 70
     3
  9
$MENU
  1
ACAD
  9
$ELEVATION
 40
0.0
  9
$PELEVATION
 40
0.0
  9
$THICKNESS
 40
50.0
  9
$LIMCHECK
 70
     0
  9
$CHAMFERA
 40
0.0
  9
$CHAMFERB
 40
0.0
  9
$SKPOLY
 70
     0
  9
$TDCREATE
 40
2453019.62301037
  9
$TDUPDATE
 40
2457772.488976956
  9
$TDINDWG
 40
1.7233106829
  9
$TDUSRTIMER
 40
1.7233106829
  9
$USRTIMER
 70
     1
  9
$ANGBASE
 50
0.0
  9
$ANGDIR
 70
     0
  9
$PDMODE
 70
     3
  9
$PDSIZE
 40
-2.0
  9
$PLINEWID
 40
0.0
  9
$SPLFRAME
 70
     0
  9
$SPLINETYPE
 70
     6
  9
$SPLINESEGS
 70
     8
  9
$SURFTAB1
 70
     6
  9
$SURFTAB2
 70
     6
  9
$SURFTYPE
 70
     6
  9
$SURFU
 70
     6
  9
$SURFV
 70
     6
  9
$UCSNAME
  2

  9
$UCSORG
 10
0.0
 20
0.0
 30
0.0
  9
$UCSXDIR
 10
1.0
 20
0.0
 30
0.0
  9
$UCSYDIR
 10
0.0
 20
1.0
 30
0.0
  9
$PUCSNAME
  2

  9
$PUCSORG
 10
0.0
 20
0.0
 30
0.0
  9
$PUCSXDIR
 10
1.0
 20
0.0
 30
0.0
  9
$PUCSYDIR
 10
0.0
 20
1.0
 30
0.0
  9
$USERI1
 70
     0
  9
$USERI2
 70
     0
  9
$USERI3
 70
     0
  9
$USERI4
 70
     0
  9
$USERI5
 70
     0
  9
$USERR1
 40
20.0
  9
$USERR2
 40
0.0
  9
$USERR3
 40
0.0
  9
$USERR4
 40
0.0
  9
$USERR5
 40
0.0
  9
$WORLDVIEW
 70
     1
  9
$SHADEDGE
 70
     3
  9
$SHADEDIF
 70
    70
  9
$TILEMODE
 70
     1
  9
$MAXACTVP
 70
    48
  9
$PINSBASE
 10
0.0
 20
0.0
 30
0.0
  9
$PLIMCHECK
 70
     0
  9
$PEXTMIN
 10
-100000000000000000000.0
 20
-100000000000000000000.0
 30
-100000000000000000000.0
  9
$PEXTMAX
 10
100000000000000000000.0
 20
100000000000000000000.0
 30
100000000000000000000.0
  9
$PLIMMIN
 10
0.0
 20
0.0
  9
$PLIMMAX
 10
12.0
 20
9.0
  9
$UNITMODE
 70
     0
  9
$VISRETAIN
 70
     0
  9
$PLINEGEN
 70
     0
  9
$PSLTSCALE
 70
     0
  9
$TREEDEPTH
 70
  3020
  9
$ATTDIA
 70
     0
  9
$ATTREQ
 70
     1
  9
$BLIPMODE
 70
     1
  9
$COORDS
 70
     1
  9
$DRAGMODE
 70
     2
  9
$OSMODE
 70
     0
  9
$HANDLING
 70
     0
  9
$HANDSEED
  5
F319
  0
ENDSEC
  0
SECTION
  2
TABLES
  0
TABLE
  2
LTYPE
 70
     3
  0
LTYPE
  2
CONTINUOUS
 70
     0
  3
実線
 72
    65
 73
     0
 40
0.0
  0
LTYPE
  2
DASHDOT
 70
     0
  3
____ _ ____ _ ____ _ ____ _ ____ _ ____ _ ____
 72
    65
 73
     4
 40
5.5
 49
4.0
 49
-0.6
 49
0.3
 49
-0.6
  0
LTYPE
  2
CENTER
 70
     0
  3
Center ____ _ ____ _ ____ _ ____ _ ____ _ ____
 72
    65
 73
     4
 40
1.0
 49
0.5
 49
-0.25
 49
0.0
 49
-0.25
  0
ENDTAB
  0
TABLE
  2
LAYER
 70
    12
  0
LAYER
  2
0
 70
     0
 62
     7
  6
CONTINUOUS
  0
LAYER
  2
OUTLINE
 70
     0
 62
     3
  6
CONTINUOUS
  0
LAYER
  2
DETAIL
 70
     0
 62
     5
  6
CONTINUOUS
  0
LAYER
  2
SIZE
 70
     0
 62
    30
  6
CONTINUOUS
  0
LAYER
  2
ARRANGE
 70
     0
 62
     1
  6
CONTINUOUS
  0
LAYER
  2
DEFPOINTS
 70
     0
 62
     7
  6
CONTINUOUS
  0
LAYER
  2
ETC
 70
     0
 62
    61
  6
CONTINUOUS
  0
LAYER
  2
NOTE
 70
     0
 62
     4
  6
CONTINUOUS
  0
LAYER
  2
BASIS
 70
    64
 62
     6
  6
DASHDOT
  0
LAYER
  2
FIX
 70
    64
 62
    11
  6
CONTINUOUS
  0
LAYER
  2
SERVICESPACE
 70
    64
 62
     2
  6
DASHDOT
  0
LAYER
  2
SYMBOLLINE
 70
    64
 62
    15
  6
CONTINUOUS
  0
ENDTAB
  0
TABLE
  2
STYLE
 70
     1
  0
STYLE
  2
STANDARD
 70
     0
 40
64.0
 41
0.9
 50
0.0
 71
     0
 42
64.0
  3
SIMPLEX.shx
  4
BIGFONT.shx
  0
ENDTAB
  0
TABLE
  2
APPID
 70
    15
  0
APPID
  2
ACAD
 70
     0
  0
APPID
  2
AUTOCAD_POSTSCRIPT_FIGURE
 70
     0
  0
APPID
  2
ACAD_EXEMPT_FROM_CAD_STANDARDS
 70
     0
  0
APPID
  2
ACAD_PSEXT
 70
     0
  0
APPID
  2
ACAUTHENVIRON
 70
     0
  0
APPID
  2
GENIUS_GENOENT_13
 70
     0
  0
APPID
  2
GENIUS_GENCFG_13
 70
     0
  0
APPID
  2
GENIUS_GENCFG0_13
 70
     0
  0
APPID
  2
GENIUS_GENCFG1_13
 70
     0
  0
APPID
  2
GENIUS_GENCFG2_13
 70
     0
  0
APPID
  2
GENIUS_GENCFG3_13
 70
     0
  0
APPID
  2
GENIUS_GENCFG4_13
 70
     0
  0
APPID
  2
GENIUS_GEVCFG0_13
 70
     0
  0
APPID
  2
CONTENTBLOCKICON
 70
     0
  0
APPID
  2
CONTENTBLOCKDESCRIPTION
 70
     0
  0
ENDTAB
  0
TABLE
  2
DIMSTYLE
 70
     1
  0
DIMSTYLE
  2
STANDARD
 70
     0
  3

  4

  5
_ORIGIN
  6

  7

 40
1.0
 41
12.0
 42
20.0
 43
200.0
 44
20.0
 45
0.0
 46
0.0
 47
0.0
 48
0.0
140
64.0
141
0.09
142
0.0
143
25.399999999999999
144
1.0
145
0.0
146
1.0
147
25.0
 71
     0
 72
     0
 73
     0
 74
     0
 75
     0
 76
     0
 77
     1
 78
     8
170
     0
171
     2
172
     1
173
     0
174
     1
175
     0
176
     7
177
     7
178
     7
  0
ENDTAB
  0
TABLE
  2
VIEW
 70
     1
  0
VIEW
  2
ALL
 70
     0
 40
4282.6198079999986
 10
0.0
 20
41.309904000000003
 41
5940.0
 11
0.0
 21
0.0
 31
1.0
 12
0.0
 22
0.0
 32
0.0
 42
50.0
 43
0.0
 44
0.0
 50
0.0
 71
     0
  0
ENDTAB
  0
TABLE
  2
UCS
 70
     0
  0
ENDTAB
  0
TABLE
  2
VPORT
 70
     1
  0
VPORT
  2
*ACTIVE
 70
     0
 10
0.0
 20
0.0
 11
1.0
 21
1.0
 12
74.711099004511425
 22
-10.98980083300293
 13
0.0
 23
0.0
 14
1.0
 24
1.0
 15
0.0
 25
0.0
 16
0.0
 26
0.0
 36
1.0
 17
0.0
 27
0.0
 37
0.0
 40
358.01967628638232
 41
1.3120759837177749
 42
50.0
 43
0.0
 44
0.0
 50
0.0
 51
0.0
 71
     0
 72
  1000
 73
     1
 74
     3
 75
     0
 76
     0
 77
     0
 78
     0
  0
ENDTAB
  0
ENDSEC
  0
SECTION
  2
BLOCKS
  0
BLOCK
  8
0
  2
_ORIGIN
 70
     0
 10
0.0
 20
0.0
 30
0.0
  3
_ORIGIN
  1

  0
CIRCLE
  8
0
  6
CONTINUOUS
 62
     7
 10
0.0
 20
0.0
 30
0.0
 40
0.5
  0
LINE
  8
0
  6
CONTINUOUS
 62
     7
 10
0.0
 20
0.0
 30
0.0
 11
-1.0
 21
0.0
 31
0.0
  0
ENDBLK
  8
0
  0
ENDSEC
  0
SECTION
  2
ENTITIES
  0
TEXT
  8
ETC
  6
CONTINUOUS
 62
    61
 10
355.91776617204408
 20
596.13549989022454
 30
0.0
 40
64.0
  1
KH-4A_5
 41
0.9
  0
TEXT
  8
ETC
  6
CONTINUOUS
 62
    61
 10
351.73177217204369
 20
478.18018987539341
 30
0.0
 40
64.0
  1
システム部材
 41
0.9
  0
CIRCLE
  8
ARRANGE
  6
CONTINUOUS
 62
     1
 10
0.0
 20
0.0
 30
0.0
 40
40.0
  0
TEXT
  8
ETC
  6
CONTINUOUS
 62
    61
 10
402.43317042059971
 20
370.03141698916812
 30
0.0
 40
40.0
  1
KH-4A
 50
0.0
 41
0.9
 51
0.0
  7
STANDARD
 71
     0
 11
0.0
 21
0.0
 31
0.0
210
0.0
220
0.0
230
1.0
  0
POINT
  8
ARRANGE
  6
CONTINUOUS
 62
     1
 10
0.0
 20
0.0
 30
0.0
 39
50.0
 50
180.0
  0
LINE
  8
NOTE
  6
CONTINUOUS
 62
     4
 39
50.0
 10
243.26255709851881
 20
219.1403843824161
 30
0.0
 11
705.03513210928259
 21
219.1403843824161
 31
0.0
  0
TEXT
  8
NOTE
  6
CONTINUOUS
 62
     4
 10
277.35926204268412
 20
242.88849193504831
 30
0.0
 40
40.0
  1
2ヶ所×12×52長穴
 41
0.9
  0
LINE
  8
NOTE
  6
CONTINUOUS
 62
     4
 39
50.0
 10
130.0
 20
132.5
 30
0.0
 11
243.26255709851881
 21
219.1403843824161
 31
0.0
  0
LINE
  8
NOTE
  6
CONTINUOUS
 62
     4
 39
50.0
 10
130.0
 20
132.5
 30
0.0
 11
145.61818321186681
 21
161.28917519054241
 31
0.0
  0
LINE
  8
NOTE
  6
CONTINUOUS
 62
     4
 39
50.0
 10
130.0
 20
132.5
 30
0.0
 11
158.71414332055201
 21
142.63344621908041
 31
0.0
  0
LINE
  8
DETAIL
  6
CONTINUOUS
 62
     5
 10
10.000001907348629
 20
-44.999999537399837
 30
0.0
 11
10.000001907348629
 21
-29.999999537399841
 31
0.0
  0
ARC
  8
DETAIL
  6
CONTINUOUS
 62
     5
 10
9.6053476333618164
 20
-107.4999995373998
 30
0.0
 40
10.39464569091796
 50
338.85282340999782
 51
21.147103279151668
  0
LINE
  8
DETAIL
  6
CONTINUOUS
 62
     5
 10
13.5
 20
-114.9999995373998
 30
0.0
 11
13.5
 21
-99.999999537399844
 31
0.0
  0
LINE
  8
DETAIL
  6
CONTINUOUS
 62
     5
 10
13.49999904632568
 20
-100.0000004910742
 30
0.0
 11
19.30000019073486
 21
-100.0000004910742
 31
0.0
  0
LINE
  8
DETAIL
  6
CONTINUOUS
 62
     5
 10
19.30000421350087
 20
-99.999997121335582
 30
0.0
 11
20.000004328941031
 21
-101.2499976141557
 31
0.0
  0
LINE
  8
DETAIL
  6
CONTINUOUS
 62
     5
 10
20.0
 20
-101.2499995373998
 30
0.0
 11
20.0
 21
-113.7499995373998
 31
0.0
  0
LINE
  8
DETAIL
  6
CONTINUOUS
 62
     5
 10
20.000004328941031
 20
-113.7500014606439
 30
0.0
 11
19.30000421350087
 21
-115.00000195346411
 31
0.0
  0
LINE
  8
DETAIL
  6
CONTINUOUS
 62
     5
 10
19.30000019073486
 20
-114.9999985837255
 30
0.0
 11
13.50000095367432
 21
-114.9999985837255
 31
0.0
  0
LINE
  8
DETAIL
  6
CONTINUOUS
 62
     5
 10
13.50000095367432
 20
-111.2499985837255
 30
0.0
 11
19.30000019073486
 21
-111.2499985837255
 31
0.0
  0
LINE
  8
DETAIL
  6
CONTINUOUS
 62
     5
 10
13.49999904632568
 20
-103.7500004910742
 30
0.0
 11
19.30000019073486
 21
-103.7500004910742
 31
0.0
  0
ARC
  8
DETAIL
  6
CONTINUOUS
 62
     5
 10
17.13884162902832
 20
-113.1249985837255
 30
0.0
 40
2.8611583709716739
 50
0.0000179860890445
 51
40.944587588458361
  0
ARC
  8
DETAIL
  6
CONTINUOUS
 62
     5
 10
17.13884162902832
 20
-101.8750004910742
 30
0.0
 40
2.8611583709716779
 50
319.05549277997471
 51
0.0000179860890445
  0
LINE
  8
DETAIL
  6
CONTINUOUS
 62
     5
 10
13.5
 20
-114.9999995373998
 30
0.0
 11
13.5
 21
-115.199999346665
 31
0.0
  0
LINE
  8
DETAIL
  6
CONTINUOUS
 62
     5
 10
13.5
 20
-115.199999346665
 30
0.0
 11
10.0
 21
-115.199999346665
 31
0.0
  0
LINE
  8
DETAIL
  6
CONTINUOUS
 62
     5
 10
11.50000095367432
 20
-115.19999839299069
 30
0.0
 11
11.50000095367432
 21
-99.800000681809024
 31
0.0
  0
LINE
  8
DETAIL
  6
CONTINUOUS
 62
     5
 10
10.0
 20
-99.799999728134708
 30
0.0
 11
13.5
 21
-99.799999728134708
 31
0.0
  0
LINE
  8
DETAIL
  6
CONTINUOUS
 62
     5
 10
13.5
 20
-99.799999728134708
 30
0.0
 11
13.5
 21
-99.999999537399844
 31
0.0
  0
LINE
  8
DETAIL
  6
CONTINUOUS
 62
     5
 10
11.5
 20
-107.5
 30
0.0
 11
13.499999115037101
 21
-107.9999998401984
 31
0.0
  0
LINE
  8
DETAIL
  6
CONTINUOUS
 62
     5
 10
11.50000002891284
 20
-106.99999955433979
 30
0.0
 11
13.49999971539637
 21
-107.4999995373998
 31
0.0
  0
LINE
  8
DETAIL
  6
CONTINUOUS
 62
     5
 10
20.0
 20
-111.75
 30
0.0
 11
23.0
 21
-111.75
 31
0.0
  0
LINE
  8
DETAIL
  6
CONTINUOUS
 62
     5
 10
20.0
 20
-110.75
 30
0.0
 11
23.0
 21
-110.75
 31
0.0
  0
LINE
  8
DETAIL
  6
CONTINUOUS
 62
     5
 10
20.0
 20
-104.25
 30
0.0
 11
23.0
 21
-104.25
 31
0.0
  0
LINE
  8
DETAIL
  6
CONTINUOUS
 62
     5
 10
20.0
 20
-103.25
 30
0.0
 11
23.0
 21
-103.25
 31
0.0
  0
LINE
  8
DETAIL
  6
CONTINUOUS
 62
     5
 10
12.0
 20
132.5
 30
0.0
 11
90.0
 21
132.5
 31
0.0
  0
LINE
  8
DETAIL
  6
CONTINUOUS
 62
     5
 10
0.0
 20
120.5
 30
0.0
 11
0.0
 21
17.5
 31
0.0
  0
CIRCLE
  8
DETAIL
  6
CONTINUOUS
 62
     5
 10
6.0
 20
88.5
 30
0.0
 40
1.5
  0
CIRCLE
  8
DETAIL
  6
CONTINUOUS
 62
     5
 10
6.0
 20
-83.5
 30
0.0
 40
1.5
  0
LINE
  8
OUTLINE
  6
CONTINUOUS
 62
     3
 10
0.0
 20
-127.5
 30
0.0
 11
0.0
 21
127.5
 31
0.0
  0
LINE
  8
OUTLINE
  6
CONTINUOUS
 62
     3
 10
5.0
 20
132.5
 30
0.0
 11
170.0
 21
132.5
 31
0.0
  0
LINE
  8
OUTLINE
  6
CONTINUOUS
 62
     3
 10
170.0
 20
122.5
 30
0.0
 11
170.0
 21
132.5
 31
0.0
  0
ARC
  8
OUTLINE
  6
CONTINUOUS
 62
     3
 10
5.0
 20
127.5
 30
0.0
 40
5.0
 50
90.0
 51
180.0
  0
LINE
  8
OUTLINE
  6
CONTINUOUS
 62
     3
 10
100.8748866352589
 20
122.5
 30
0.0
 11
170.0
 21
122.5
 31
0.0
  0
LINE
  8
OUTLINE
  6
CONTINUOUS
 62
     3
 10
0.0
 20
-127.5
 30
0.0
 11
10.0
 21
-127.5
 31
0.0
  0
LINE
  8
OUTLINE
  6
CONTINUOUS
 62
     3
 10
10.0
 20
-127.5
 30
0.0
 11
10.0
 21
-103.25
 31
0.0
  0
LINE
  8
OUTLINE
  6
CONTINUOUS
 62
     3
 10
10.0
 20
-33.25
 30
0.0
 11
10.0
 21
31.625113364740741
 31
0.0
  0
LINE
  8
DETAIL
  6
CONTINUOUS
 62
     5
 10
23.0
 20
-111.75
 30
0.0
 11
23.0
 21
-103.25
 31
0.0
  0
LINE
  8
OUTLINE
  6
CONTINUOUS
 62
     3
 10
10.0
 20
-103.25
 30
0.0
 11
10.0
 21
-33.25
 31
0.0
  0
LINE
  8
OUTLINE
  6
CONTINUOUS
 62
     3
 10
37.282057027493472
 20
111.4411344794122
 30
0.0
 11
99.138404858589638
 21
122.3480775301221
 31
0.0
  0
LINE
  8
OUTLINE
  6
CONTINUOUS
 62
     3
 10
10.15192246987772
 20
33.361595141410127
 30
0.0
 11
21.05886552058746
 21
95.217942972506648
 31
0.0
  0
ARC
  8
DETAIL
  6
CONTINUOUS
 62
     5
 10
100.8748866352589
 20
112.5
 30
0.0
 40
9.9999999999999947
 50
90.0
 51
100.0000000000052
  0
ARC
  8
OUTLINE
  6
CONTINUOUS
 62
     3
 10
40.755020580832017
 20
91.744979419167976
 30
0.0
 40
20.000000000000011
 50
100.0000000000052
 51
170.00000000000449
  0
ARC
  8
DETAIL
  6
CONTINUOUS
 62
     5
 10
20.0
 20
31.625113364740741
 30
0.0
 40
10.0
 50
170.00000000000449
 51
180.0
  0
LINE
  8
NOTE
  6
DASHDOT
 62
     4
 39
50.0
 10
6.0
 20
93.965830130269467
 30
0.0
 11
6.0
 21
83.244143470902316
 31
0.0
  0
LINE
  8
NOTE
  6
CENTER
 62
     4
 10
27.19983525361522
 20
-37.5
 30
0.0
 11
-6.0
 21
-37.5
 31
0.0
  0
LINE
  8
NOTE
  6
CENTER
 62
     4
 10
27.19983525361522
 20
-107.5
 30
0.0
 11
-6.0
 21
-107.5
 31
0.0
  0
LINE
  8
NOTE
  6
CENTER
 62
     4
 10
18.0
 20
-83.5
 30
0.0
 11
-6.0
 21
-83.5
 31
0.0
  0
LINE
  8
NOTE
  6
CENTER
 62
     4
 10
18.0
 20
88.5
 30
0.0
 11
-6.0
 21
88.5
 31
0.0
  0
LINE
  8
NOTE
  6
DASHDOT
 62
     4
 39
50.0
 10
6.0
 20
-78.139156670316424
 30
0.0
 11
6.0
 21
-88.860843329683576
 31
0.0
  0
LINE
  8
NOTE
  6
CENTER
 62
     4
 10
50.0
 20
120.5
 30
0.0
 11
50.0
 21
144.5
 31
0.0
  0
LINE
  8
NOTE
  6
CENTER
 62
     4
 10
130.0
 20
120.5
 30
0.0
 11
130.0
 21
144.5
 31
0.0
  0
LINE
  8
SIZE
  6
CONTINUOUS
 62
    30
 10
30.0
 20
-127.5
 30
0.0
 11
324.07452944873148
 21
-127.5000000000001
 31
0.0
  0
LINE
  8
SIZE
  6
CONTINUOUS
 62
    30
 10
37.999999999999993
 20
-83.500000000000014
 30
0.0
 11
324.07452944873148
 21
-83.500000000000085
 31
0.0
  0
LINE
  8
SIZE
  6
CONTINUOUS
 62
    30
 10
304.07452944873148
 20
-71.500000000000085
 30
0.0
 11
304.07452944873148
 21
-59.500000000000092
 31
0.0
  0
LINE
  8
SIZE
  6
CONTINUOUS
 62
    30
 10
304.07452944873143
 20
-139.50000000000011
 30
0.0
 11
304.07452944873143
 21
-377.0428571428576
 31
0.0
  0
LINE
  8
SIZE
  6
CONTINUOUS
 62
    30
 10
304.07452944873148
 20
-83.500000000000085
 30
0.0
 11
304.07452944873148
 21
-127.5000000000001
 31
0.0
  0
CIRCLE
  8
SIZE
  6
CONTINUOUS
 62
    30
 10
304.07452944873148
 20
-83.500000000000085
 30
0.0
 40
6.0
  0
LINE
  8
SIZE
  6
CONTINUOUS
 62
    30
 10
304.07452944873148
 20
-83.500000000000085
 30
0.0
 11
304.07452944873148
 21
-71.500000000000085
 31
0.0
  0
CIRCLE
  8
SIZE
  6
CONTINUOUS
 62
    30
 10
304.07452944873148
 20
-127.5000000000001
 30
0.0
 40
6.0
  0
LINE
  8
SIZE
  6
CONTINUOUS
 62
    30
 10
304.07452944873148
 20
-127.5000000000001
 30
0.0
 11
304.07452944873148
 21
-139.50000000000011
 31
0.0
  0
TEXT
  8
SIZE
  6
CONTINUOUS
 62
    30
 10
279.07452944873148
 20
-359.02342857142889
 30
0.0
 40
64.0
  1
42.5
 50
90.0
 41
0.9
 51
0.0
  7
STANDARD
 71
     0
 72
     1
 11
279.07452944873148
 21
-264.27142857142888
 31
0.0
210
0.0
220
0.0
230
1.0
  0
POINT
  8
DEFPOINTS
  6
CONTINUOUS
 62
    30
 10
10.0
 20
-127.5
 30
0.0
  0
POINT
  8
DEFPOINTS
  6
CONTINUOUS
 62
    30
 10
18.0
 20
-83.5
 30
0.0
  0
POINT
  8
DEFPOINTS
  6
CONTINUOUS
 62
    30
 10
304.07452944873148
 20
-83.500000000000085
 30
0.0
  0
LINE
  8
SIZE
  6
CONTINUOUS
 62
    30
 10
37.999999999999993
 20
-83.500000000000014
 30
0.0
 11
324.07452944873148
 21
-83.500000000000085
 31
0.0
  0
LINE
  8
SIZE
  6
CONTINUOUS
 62
    30
 10
38.0
 20
88.499999999999986
 30
0.0
 11
324.07452944873148
 21
88.499999999999915
 31
0.0
  0
LINE
  8
SIZE
  6
CONTINUOUS
 62
    30
 10
304.07452944873148
 20
-95.500000000000085
 30
0.0
 11
304.07452944873148
 21
-107.5000000000001
 31
0.0
  0
LINE
  8
SIZE
  6
CONTINUOUS
 62
    30
 10
304.07452944873148
 20
100.4999999999999
 30
0.0
 11
304.07452944873148
 21
112.4999999999999
 31
0.0
  0
LINE
  8
SIZE
  6
CONTINUOUS
 62
    30
 10
304.07452944873148
 20
-83.500000000000085
 30
0.0
 11
304.07452944873148
 21
88.499999999999915
 31
0.0
  0
CIRCLE
  8
SIZE
  6
CONTINUOUS
 62
    30
 10
304.07452944873148
 20
-83.500000000000085
 30
0.0
 40
6.0
  0
LINE
  8
SIZE
  6
CONTINUOUS
 62
    30
 10
304.07452944873148
 20
-83.500000000000085
 30
0.0
 11
304.07452944873148
 21
-95.500000000000085
 31
0.0
  0
CIRCLE
  8
SIZE
  6
CONTINUOUS
 62
    30
 10
304.07452944873148
 20
88.499999999999915
 30
0.0
 40
6.0
  0
LINE
  8
SIZE
  6
CONTINUOUS
 62
    30
 10
304.07452944873148
 20
88.499999999999915
 30
0.0
 11
304.07452944873148
 21
100.49999999999991
 31
0.0
  0
TEXT
  8
SIZE
  6
CONTINUOUS
 62
    30
 10
279.07452944873148
 20
-72.092000000000041
 30
0.0
 40
64.0
  1
172
 50
90.0
 41
0.9
 51
0.0
  7
STANDARD
 71
     0
 72
     1
 11
279.07452944873148
 21
2.499999999999972
 31
0.0
210
0.0
220
0.0
230
1.0
  0
POINT
  8
DEFPOINTS
  6
CONTINUOUS
 62
    30
 10
18.0
 20
-83.5
 30
0.0
  0
POINT
  8
DEFPOINTS
  6
CONTINUOUS
 62
    30
 10
18.0
 20
88.5
 30
0.0
  0
POINT
  8
DEFPOINTS
  6
CONTINUOUS
 62
    30
 10
304.07452944873148
 20
88.499999999999915
 30
0.0
  0
LINE
  8
SIZE
  6
CONTINUOUS
 62
    30
 10
170.0
 20
152.5
 30
0.0
 11
170.0
 21
346.60886771900249
 31
0.0
  0
LINE
  8
SIZE
  6
CONTINUOUS
 62
    30
 10
0.0000000000000012
 20
147.5
 30
0.0
 11
0.0000000000000134
 21
346.60886771900249
 31
0.0
  0
LINE
  8
SIZE
  6
CONTINUOUS
 62
    30
 10
182.0
 20
326.60886771900249
 30
0.0
 11
194.0
 21
326.60886771900249
 31
0.0
  0
LINE
  8
SIZE
  6
CONTINUOUS
 62
    30
 10
-11.999999999999989
 20
326.60886771900249
 30
0.0
 11
-23.999999999999989
 21
326.60886771900249
 31
0.0
  0
LINE
  8
SIZE
  6
CONTINUOUS
 62
    30
 10
170.0
 20
326.60886771900249
 30
0.0
 11
0.0000000000000122
 21
326.60886771900249
 31
0.0
  0
CIRCLE
  8
SIZE
  6
CONTINUOUS
 62
    30
 10
170.0
 20
326.60886771900249
 30
0.0
 40
6.0
  0
LINE
  8
SIZE
  6
CONTINUOUS
 62
    30
 10
170.0
 20
326.60886771900249
 30
0.0
 11
182.0
 21
326.60886771900249
 31
0.0
  0
CIRCLE
  8
SIZE
  6
CONTINUOUS
 62
    30
 10
0.0000000000000122
 20
326.60886771900249
 30
0.0
 40
6.0
  0
LINE
  8
SIZE
  6
CONTINUOUS
 62
    30
 10
0.0000000000000122
 20
326.60886771900249
 30
0.0
 11
-11.999999999999988
 21
326.60886771900249
 31
0.0
  0
TEXT
  8
SIZE
  6
CONTINUOUS
 62
    30
 10
9.8319999999999936
 20
351.60886771900249
 30
0.0
 40
64.0
  1
170
 50
0.0
 41
0.9
 51
0.0
  7
STANDARD
 71
     0
 72
     1
 11
85.0
 21
351.60886771900249
 31
0.0
210
0.0
220
0.0
230
1.0
  0
POINT
  8
DEFPOINTS
  6
CONTINUOUS
 62
    30
 10
170.0
 20
132.5
 30
0.0
  0
POINT
  8
DEFPOINTS
  6
CONTINUOUS
 62
    30
 10
0.0
 20
127.5
 30
0.0
  0
POINT
  8
DEFPOINTS
  6
CONTINUOUS
 62
    30
 10
0.0000000000000122
 20
326.60886771900249
 30
0.0
  0
LINE
  8
SIZE
  6
CONTINUOUS
 62
    30
 10
0.0000000000000012
 20
147.5
 30
0.0
 11
0.0000000000000054
 21
216.16417377024729
 31
0.0
  0
LINE
  8
SIZE
  6
CONTINUOUS
 62
    30
 10
50.0
 20
164.5
 30
0.0
 11
50.000000000000007
 21
216.16417377024729
 31
0.0
  0
LINE
  8
SIZE
  6
CONTINUOUS
 62
    30
 10
62.0
 20
196.16417377024729
 30
0.0
 11
74.0
 21
196.16417377024729
 31
0.0
  0
LINE
  8
SIZE
  6
CONTINUOUS
 62
    30
 10
-12.0
 20
196.16417377024729
 30
0.0
 11
-167.25714285714281
 21
196.16417377024729
 31
0.0
  0
LINE
  8
SIZE
  6
CONTINUOUS
 62
    30
 10
50.0
 20
196.16417377024729
 30
0.0
 11
0.0000000000000042
 21
196.16417377024729
 31
0.0
  0
CIRCLE
  8
SIZE
  6
CONTINUOUS
 62
    30
 10
50.0
 20
196.16417377024729
 30
0.0
 40
6.0
  0
LINE
  8
SIZE
  6
CONTINUOUS
 62
    30
 10
50.0
 20
196.16417377024729
 30
0.0
 11
62.0
 21
196.16417377024729
 31
0.0
  0
CIRCLE
  8
SIZE
  6
CONTINUOUS
 62
    30
 10
0.0000000000000042
 20
196.16417377024729
 30
0.0
 40
6.0
  0
LINE
  8
SIZE
  6
CONTINUOUS
 62
    30
 10
0.0000000000000042
 20
196.16417377024729
 30
0.0
 11
-11.999999999999996
 21
196.16417377024729
 31
0.0
  0
TEXT
  8
SIZE
  6
CONTINUOUS
 62
    30
 10
-149.77257142857141
 20
221.16417377024732
 30
0.0
 40
64.0
  1
50
 50
0.0
 41
0.9
 51
0.0
  7
STANDARD
 71
     0
 72
     1
 11
-95.628571428571405
 21
221.16417377024732
 31
0.0
210
0.0
220
0.0
230
1.0
  0
POINT
  8
DEFPOINTS
  6
CONTINUOUS
 62
    30
 10
0.0
 20
127.5
 30
0.0
  0
POINT
  8
DEFPOINTS
  6
CONTINUOUS
 62
    30
 10
50.0
 20
144.5
 30
0.0
  0
POINT
  8
DEFPOINTS
  6
CONTINUOUS
 62
    30
 10
50.0
 20
196.16417377024729
 30
0.0
  0
LINE
  8
SIZE
  6
CONTINUOUS
 62
    30
 10
50.0
 20
164.5
 30
0.0
 11
50.000000000000007
 21
216.16417377024729
 31
0.0
  0
LINE
  8
SIZE
  6
CONTINUOUS
 62
    30
 10
130.0
 20
164.5
 30
0.0
 11
130.0
 21
216.16417377024729
 31
0.0
  0
LINE
  8
SIZE
  6
CONTINUOUS
 62
    30
 10
38.0
 20
196.16417377024729
 30
0.0
 11
26.0
 21
196.16417377024729
 31
0.0
  0
LINE
  8
SIZE
  6
CONTINUOUS
 62
    30
 10
142.0
 20
196.16417377024729
 30
0.0
 11
154.0
 21
196.16417377024729
 31
0.0
  0
LINE
  8
SIZE
  6
CONTINUOUS
 62
    30
 10
50.0
 20
196.16417377024729
 30
0.0
 11
130.0
 21
196.16417377024729
 31
0.0
  0
CIRCLE
  8
SIZE
  6
CONTINUOUS
 62
    30
 10
50.0
 20
196.16417377024729
 30
0.0
 40
6.0
  0
LINE
  8
SIZE
  6
CONTINUOUS
 62
    30
 10
50.0
 20
196.16417377024729
 30
0.0
 11
38.0
 21
196.16417377024729
 31
0.0
  0
CIRCLE
  8
SIZE
  6
CONTINUOUS
 62
    30
 10
130.0
 20
196.16417377024729
 30
0.0
 40
6.0
  0
LINE
  8
SIZE
  6
CONTINUOUS
 62
    30
 10
130.0
 20
196.16417377024729
 30
0.0
 11
142.0
 21
196.16417377024729
 31
0.0
  0
TEXT
  8
SIZE
  6
CONTINUOUS
 62
    30
 10
35.856000000000002
 20
221.16417377024732
 30
0.0
 40
64.0
  1
80
 50
0.0
 41
0.9
 51
0.0
  7
STANDARD
 71
     0
 72
     1
 11
90.0
 21
221.16417377024732
 31
0.0
210
0.0
220
0.0
230
1.0
  0
POINT
  8
DEFPOINTS
  6
CONTINUOUS
 62
    30
 10
50.0
 20
144.5
 30
0.0
  0
POINT
  8
DEFPOINTS
  6
CONTINUOUS
 62
    30
 10
130.0
 20
144.5
 30
0.0
  0
POINT
  8
DEFPOINTS
  6
CONTINUOUS
 62
    30
 10
130.0
 20
196.16417377024729
 30
0.0
  0
LINE
  8
SIZE
  6
CONTINUOUS
 62
    30
 10
-15.0
 20
132.5
 30
0.0
 11
-293.91063390752458
 21
132.50000000000011
 31
0.0
  0
LINE
  8
SIZE
  6
CONTINUOUS
 62
    30
 10
-20.0
 20
-127.5
 30
0.0
 11
-293.9106339075247
 21
-127.4999999999999
 31
0.0
  0
LINE
  8
SIZE
  6
CONTINUOUS
 62
    30
 10
-273.9106339075247
 20
120.5000000000001
 30
0.0
 11
-273.9106339075247
 21
-115.4999999999999
 31
0.0
  0
CIRCLE
  8
SIZE
  6
CONTINUOUS
 62
    30
 10
-273.91063390752458
 20
132.50000000000011
 30
0.0
 40
6.0
  0
LINE
  8
SIZE
  6
CONTINUOUS
 62
    30
 10
-273.91063390752458
 20
132.50000000000011
 30
0.0
 11
-273.91063390752458
 21
120.50000000000011
 31
0.0
  0
CIRCLE
  8
SIZE
  6
CONTINUOUS
 62
    30
 10
-273.9106339075247
 20
-127.4999999999999
 30
0.0
 40
6.0
  0
LINE
  8
SIZE
  6
CONTINUOUS
 62
    30
 10
-273.9106339075247
 20
-127.4999999999999
 30
0.0
 11
-273.9106339075247
 21
-115.4999999999999
 31
0.0
  0
TEXT
  8
SIZE
  6
CONTINUOUS
 62
    30
 10
-298.9106339075247
 20
-77.851999999999933
 30
0.0
 40
64.0
  1
258
 50
90.0
 41
0.9
 51
0.0
  7
STANDARD
 71
     0
 72
     1
 11
-298.9106339075247
 21
2.5000000000000431
 31
0.0
210
0.0
220
0.0
230
1.0
  0
POINT
  8
DEFPOINTS
  6
CONTINUOUS
 62
    30
 10
5.0
 20
132.5
 30
0.0
  0
POINT
  8
DEFPOINTS
  6
CONTINUOUS
 62
    30
 10
0.0
 20
-127.5
 30
0.0
  0
POINT
  8
DEFPOINTS
  6
CONTINUOUS
 62
    30
 10
-273.9106339075247
 20
-127.4999999999999
 30
0.0
  0
LINE
  8
SIZE
  6
CONTINUOUS
 62
    30
 10
-15.0
 20
132.5
 30
0.0
 11
-160.9646186216946
 21
132.5
 31
0.0
  0
LINE
  8
SIZE
  6
CONTINUOUS
 62
    30
 10
-26.0
 20
-37.499999999999993
 30
0.0
 11
-160.9646186216946
 21
-37.499999999999957
 31
0.0
  0
LINE
  8
SIZE
  6
CONTINUOUS
 62
    30
 10
-140.9646186216946
 20
144.5
 30
0.0
 11
-140.9646186216946
 21
156.5
 31
0.0
  0
LINE
  8
SIZE
  6
CONTINUOUS
 62
    30
 10
-140.9646186216946
 20
-49.499999999999957
 30
0.0
 11
-140.9646186216946
 21
-61.499999999999957
 31
0.0
  0
LINE
  8
SIZE
  6
CONTINUOUS
 62
    30
 10
-140.9646186216946
 20
132.5
 30
0.0
 11
-140.9646186216946
 21
-37.499999999999957
 31
0.0
  0
CIRCLE
  8
SIZE
  6
CONTINUOUS
 62
    30
 10
-140.9646186216946
 20
132.5
 30
0.0
 40
6.0
  0
LINE
  8
SIZE
  6
CONTINUOUS
 62
    30
 10
-140.9646186216946
 20
132.5
 30
0.0
 11
-140.9646186216946
 21
144.5
 31
0.0
  0
CIRCLE
  8
SIZE
  6
CONTINUOUS
 62
    30
 10
-140.9646186216946
 20
-37.499999999999957
 30
0.0
 40
6.0
  0
LINE
  8
SIZE
  6
CONTINUOUS
 62
    30
 10
-140.9646186216946
 20
-37.499999999999957
 30
0.0
 11
-140.9646186216946
 21
-49.499999999999957
 31
0.0
  0
TEXT
  8
SIZE
  6
CONTINUOUS
 62
    30
 10
-165.9646186216946
 20
-27.668000000000028
 30
0.0
 40
64.0
  1
170
 50
90.0
 41
0.9
 51
0.0
  7
STANDARD
 71
     0
 72
     1
 11
-165.9646186216946
 21
47.499999999999979
 31
0.0
210
0.0
220
0.0
230
1.0
  0
POINT
  8
DEFPOINTS
  6
CONTINUOUS
 62
    30
 10
5.0
 20
132.5
 30
0.0
  0
POINT
  8
DEFPOINTS
  6
CONTINUOUS
 62
    30
 10
-6.0
 20
-37.5
 30
0.0
  0
POINT
  8
DEFPOINTS
  6
CONTINUOUS
 62
    30
 10
-140.9646186216946
 20
-37.499999999999957
 30
0.0
  0
LINE
  8
SIZE
  6
CONTINUOUS
 62
    30
 10
-26.0
 20
-37.499999999999993
 30
0.0
 11
-160.9646186216946
 21
-37.499999999999957
 31
0.0
  0
LINE
  8
SIZE
  6
CONTINUOUS
 62
    30
 10
-26.0
 20
-107.5
 30
0.0
 11
-160.96461862169471
 21
-107.4999999999999
 31
0.0
  0
LINE
  8
SIZE
  6
CONTINUOUS
 62
    30
 10
-140.9646186216946
 20
-25.499999999999961
 30
0.0
 11
-140.9646186216946
 21
-13.499999999999959
 31
0.0
  0
LINE
  8
SIZE
  6
CONTINUOUS
 62
    30
 10
-140.96461862169471
 20
-119.5
 30
0.0
 11
-140.96461862169471
 21
-274.75714285714321
 31
0.0
  0
LINE
  8
SIZE
  6
CONTINUOUS
 62
    30
 10
-140.9646186216946
 20
-37.499999999999957
 30
0.0
 11
-140.96461862169471
 21
-107.5
 31
0.0
  0
CIRCLE
  8
SIZE
  6
CONTINUOUS
 62
    30
 10
-140.9646186216946
 20
-37.499999999999957
 30
0.0
 40
6.0
  0
LINE
  8
SIZE
  6
CONTINUOUS
 62
    30
 10
-140.9646186216946
 20
-37.499999999999957
 30
0.0
 11
-140.9646186216946
 21
-25.499999999999957
 31
0.0
  0
CIRCLE
  8
SIZE
  6
CONTINUOUS
 62
    30
 10
-140.96461862169471
 20
-107.5
 30
0.0
 40
6.0
  0
LINE
  8
SIZE
  6
CONTINUOUS
 62
    30
 10
-140.96461862169471
 20
-107.5
 30
0.0
 11
-140.96461862169471
 21
-119.5
 31
0.0
  0
TEXT
  8
SIZE
  6
CONTINUOUS
 62
    30
 10
-165.9646186216946
 20
-257.27257142857172
 30
0.0
 40
64.0
  1
70
 50
90.0
 41
0.9
 51
0.0
  7
STANDARD
 71
     0
 72
     1
 11
-165.9646186216946
 21
-203.12857142857169
 31
0.0
210
0.0
220
0.0
230
1.0
  0
POINT
  8
DEFPOINTS
  6
CONTINUOUS
 62
    30
 10
-6.0
 20
-37.5
 30
0.0
  0
POINT
  8
DEFPOINTS
  6
CONTINUOUS
 62
    30
 10
-6.0
 20
-107.5
 30
0.0
  0
POINT
  8
DEFPOINTS
  6
CONTINUOUS
 62
    30
 10
-140.96461862169471
 20
-107.5
 30
0.0
  0
LINE
  8
NOTE
  6
CONTINUOUS
 62
     4
 39
50.0
 10
243.26255709851881
 20
-474.6503467659889
 30
0.0
 11
547.38730344642272
 21
-474.6503467659889
 31
0.0
  0
TEXT
  8
NOTE
  6
CONTINUOUS
 62
     4
 10
270.35873201785131
 20
-450.90223921335678
 30
0.0
 40
40.0
  1
4ヶ所×φ3.5
 41
0.9
  0
LINE
  8
NOTE
  6
CONTINUOUS
 62
     4
 39
50.0
 10
7.5
 20
-83.5
 30
0.0
 11
243.26255709851881
 21
-474.6503467659889
 31
0.0
  0
LINE
  8
NOTE
  6
CONTINUOUS
 62
     4
 39
50.0
 10
7.5
 20
-83.5
 30
0.0
 11
26.185097119119291
 21
-97.240435356892078
 31
0.0
  0
LINE
  8
NOTE
  6
CONTINUOUS
 62
     4
 39
50.0
 10
7.5
 20
-83.5
 30
0.0
 11
11.50000095367432
 21
-107.4999995373998
 31
0.0
  0
ARC
  8
DETAIL
  6
CONTINUOUS
 62
     5
 10
9.6053476333618164
 20
-37.499999537399837
 30
0.0
 40
10.39464569091796
 50
338.85282340999748
 51
21.14710327915197
  0
LINE
  8
DETAIL
  6
CONTINUOUS
 62
     5
 10
13.5
 20
-44.999999537399837
 30
0.0
 11
13.5
 21
-29.999999537399841
 31
0.0
  0
LINE
  8
DETAIL
  6
CONTINUOUS
 62
     5
 10
13.49999904632568
 20
-30.000000491074161
 30
0.0
 11
19.30000019073486
 21
-30.000000491074161
 31
0.0
  0
LINE
  8
DETAIL
  6
CONTINUOUS
 62
     5
 10
19.30000421350087
 20
-29.999997121335578
 30
0.0
 11
20.000004328941031
 21
-31.249997614155749
 31
0.0
  0
LINE
  8
DETAIL
  6
CONTINUOUS
 62
     5
 10
20.0
 20
-31.249999537399841
 30
0.0
 11
20.0
 21
-43.749999537399837
 31
0.0
  0
LINE
  8
DETAIL
  6
CONTINUOUS
 62
     5
 10
20.000004328941031
 20
-43.750001460643936
 30
0.0
 11
19.30000421350087
 21
-45.000001953464107
 31
0.0
  0
LINE
  8
DETAIL
  6
CONTINUOUS
 62
     5
 10
19.30000019073486
 20
-44.999998583725528
 30
0.0
 11
13.50000095367432
 21
-44.999998583725528
 31
0.0
  0
LINE
  8
DETAIL
  6
CONTINUOUS
 62
     5
 10
13.50000095367432
 20
-41.249998583725528
 30
0.0
 11
19.30000019073486
 21
-41.249998583725528
 31
0.0
  0
LINE
  8
DETAIL
  6
CONTINUOUS
 62
     5
 10
13.49999904632568
 20
-33.750000491074161
 30
0.0
 11
19.30000019073486
 21
-33.750000491074161
 31
0.0
  0
ARC
  8
DETAIL
  6
CONTINUOUS
 62
     5
 10
17.13884162902832
 20
-43.124998583725528
 30
0.0
 40
2.8611583709716739
 50
0.0000179860890374
 51
40.944587588458639
  0
ARC
  8
DETAIL
  6
CONTINUOUS
 62
     5
 10
17.13884162902832
 20
-31.875000491074161
 30
0.0
 40
2.8611583709716779
 50
319.05549277997437
 51
0.0000179860890374
  0
LINE
  8
DETAIL
  6
CONTINUOUS
 62
     5
 10
13.5
 20
-44.999999537399837
 30
0.0
 11
13.5
 21
-45.199999346664981
 31
0.0
  0
LINE
  8
DETAIL
  6
CONTINUOUS
 62
     5
 10
13.5
 20
-45.199999346664981
 30
0.0
 11
10.0
 21
-45.199999346664981
 31
0.0
  0
LINE
  8
DETAIL
  6
CONTINUOUS
 62
     5
 10
11.50000095367432
 20
-45.199998392990658
 30
0.0
 11
11.50000095367432
 21
-29.800000681809021
 31
0.0
  0
LINE
  8
DETAIL
  6
CONTINUOUS
 62
     5
 10
10.0
 20
-29.799999728134711
 30
0.0
 11
13.5
 21
-29.799999728134711
 31
0.0
  0
LINE
  8
DETAIL
  6
CONTINUOUS
 62
     5
 10
13.5
 20
-29.799999728134711
 30
0.0
 11
13.5
 21
-29.999999537399841
 31
0.0
  0
LINE
  8
DETAIL
  6
CONTINUOUS
 62
     5
 10
11.5
 20
-37.5
 30
0.0
 11
13.499999115037101
 21
-37.99999984019837
 31
0.0
  0
LINE
  8
DETAIL
  6
CONTINUOUS
 62
     5
 10
11.50000002891284
 20
-36.999999554339752
 30
0.0
 11
13.49999971539637
 21
-37.499999537399837
 31
0.0
  0
LINE
  8
DETAIL
  6
CONTINUOUS
 62
     5
 10
20.0
 20
-41.75
 30
0.0
 11
23.0
 21
-41.75
 31
0.0
  0
LINE
  8
DETAIL
  6
CONTINUOUS
 62
     5
 10
20.0
 20
-40.75
 30
0.0
 11
23.0
 21
-40.75
 31
0.0
  0
LINE
  8
DETAIL
  6
CONTINUOUS
 62
     5
 10
20.0
 20
-34.25
 30
0.0
 11
23.0
 21
-34.25
 31
0.0
  0
LINE
  8
DETAIL
  6
CONTINUOUS
 62
     5
 10
20.0
 20
-33.25
 30
0.0
 11
23.0
 21
-33.25
 31
0.0
  0
LINE
  8
DETAIL
  6
CONTINUOUS
 62
     5
 10
23.0
 20
-41.75
 30
0.0
 11
23.0
 21
-33.25
 31
0.0
  0
ENDSEC
  0
EOF
