  0
SECTION
  2
HEADER
  9
$ACADVER
  1
AC1009
  9
$INSBASE
 10
0.0
 20
0.0
 30
0.0
  9
$EXTMIN
 10
-1083.0688244698899
 20
-734.16136052012735
 30
-0.0015258207003583
  9
$EXTMAX
 10
1759.826676873286
 20
1183.268749543078
 30
0.0000000349246037
  9
$LIMMIN
 10
-4200.0
 20
-2970.0
  9
$LIMMAX
 10
4200.0
 20
2970.0
  9
$ORTHOMODE
 70
     1
  9
$REGENMODE
 70
     0
  9
$FILLMODE
 70
     1
  9
$QTEXTMODE
 70
     0
  9
$MIRRTEXT
 70
     0
  9
$DRAGMODE
 70
     2
  9
$LTSCALE
 40
20.0
  9
$OSMODE
 70
    45
  9
$ATTMODE
 70
     1
  9
$TEXTSIZE
 40
64.0
  9
$TRACEWID
 40
0.05
  9
$TEXTSTYLE
  7
STANDARD
  9
$CLAYER
  8
FIX
  9
$CELTYPE
  6
CONTINUOUS
  9
$CECOLOR
 62
    11
  9
$DIMSCALE
 40
1.0
  9
$DIMASZ
 40
40.0
  9
$DIMEXO
 40
20.0
  9
$DIMDLI
 40
200.0
  9
$DIMRND
 40
0.0
  9
$DIMDLE
 40
0.0
  9
$DIMEXE
 40
30.0
  9
$DIMTP
 40
0.0
  9
$DIMTM
 40
0.0
  9
$DIMTXT
 40
64.0
  9
$DIMCEN
 40
0.09
  9
$DIMTSZ
 40
0.0
  9
$DIMTOL
 70
     0
  9
$DIMLIM
 70
     0
  9
$DIMTIH
 70
     0
  9
$DIMTOH
 70
     0
  9
$DIMSE1
 70
     0
  9
$DIMSE2
 70
     0
  9
$DIMTAD
 70
     1
  9
$DIMZIN
 70
     8
  9
$DIMBLK
  1
NONE
  9
$DIMASO
 70
     1
  9
$DIMSHO
 70
     0
  9
$DIMPOST
  1

  9
$DIMAPOST
  1

  9
$DIMALT
 70
     0
  9
$DIMALTD
 70
     2
  9
$DIMALTF
 40
25.399999999999999
  9
$DIMLFAC
 40
1.0
  9
$DIMTOFL
 70
     1
  9
$DIMTVP
 40
0.0
  9
$DIMTIX
 70
     1
  9
$DIMSOXD
 70
     0
  9
$DIMSAH
 70
     0
  9
$DIMBLK1
  1

  9
$DIMBLK2
  1

  9
$DIMSTYLE
  2
STANDARD
  9
$DIMCLRD
 70
   256
  9
$DIMCLRE
 70
   256
  9
$DIMCLRT
 70
   256
  9
$DIMTFAC
 40
1.0
  9
$DIMGAP
 40
30.0
  9
$LUNITS
 70
     2
  9
$LUPREC
 70
     4
  9
$SKETCHINC
 40
0.1
  9
$FILLETRAD
 40
3.0
  9
$AUNITS
 70
     1
  9
$AUPREC
 70
     3
  9
$MENU
  1
ACAD
  9
$ELEVATION
 40
0.0
  9
$PELEVATION
 40
0.0
  9
$THICKNESS
 40
0.0
  9
$LIMCHECK
 70
     1
  9
$BLIPMODE
 70
     0
  9
$CHAMFERA
 40
0.0
  9
$CHAMFERB
 40
0.0
  9
$SKPOLY
 70
     0
  9
$TDCREATE
 40
2451639.7712615752
  9
$TDUPDATE
 40
2455044.4828921761
  9
$TDINDWG
 40
0.0553984144
  9
$TDUSRTIMER
 40
0.0553931713
  9
$USRTIMER
 70
     1
  9
$ANGBASE
 50
0.0
  9
$ANGDIR
 70
     0
  9
$PDMODE
 70
     3
  9
$PDSIZE
 40
-2.0
  9
$PLINEWID
 40
0.0
  9
$COORDS
 70
     0
  9
$SPLFRAME
 70
     0
  9
$SPLINETYPE
 70
     6
  9
$SPLINESEGS
 70
     8
  9
$ATTDIA
 70
     0
  9
$ATTREQ
 70
     1
  9
$HANDLING
 70
     1
  9
$HANDSEED
  5
698
  9
$SURFTAB1
 70
     6
  9
$SURFTAB2
 70
     6
  9
$SURFTYPE
 70
     6
  9
$SURFU
 70
     6
  9
$SURFV
 70
     6
  9
$UCSNAME
  2

  9
$UCSORG
 10
0.0
 20
0.0
 30
0.0
  9
$UCSXDIR
 10
1.0
 20
0.0
 30
0.0
  9
$UCSYDIR
 10
0.0
 20
1.0
 30
0.0
  9
$PUCSNAME
  2

  9
$PUCSORG
 10
0.0
 20
0.0
 30
0.0
  9
$PUCSXDIR
 10
1.0
 20
0.0
 30
0.0
  9
$PUCSYDIR
 10
0.0
 20
1.0
 30
0.0
  9
$USERI1
 70
     0
  9
$USERI2
 70
     0
  9
$USERI3
 70
     0
  9
$USERI4
 70
     0
  9
$USERI5
 70
     0
  9
$USERR1
 40
20.0
  9
$USERR2
 40
0.0
  9
$USERR3
 40
0.0
  9
$USERR4
 40
0.0
  9
$USERR5
 40
0.0
  9
$WORLDVIEW
 70
     1
  9
$SHADEDGE
 70
     3
  9
$SHADEDIF
 70
    70
  9
$TILEMODE
 70
     1
  9
$MAXACTVP
 70
    48
  9
$PLIMCHECK
 70
     0
  9
$PEXTMIN
 10
1.0000000000000000E+020
 20
1.0000000000000000E+020
 30
1.0000000000000000E+020
  9
$PEXTMAX
 10
-1.0000000000000000E+020
 20
-1.0000000000000000E+020
 30
-1.0000000000000000E+020
  9
$PLIMMIN
 10
0.0
 20
0.0
  9
$PLIMMAX
 10
12.0
 20
9.0
  9
$UNITMODE
 70
     0
  9
$VISRETAIN
 70
     1
  9
$PLINEGEN
 70
     0
  9
$PSLTSCALE
 70
     1
  0
ENDSEC
  0
SECTION
  2
TABLES
  0
TABLE
  2
VPORT
 70
     1
  0
VPORT
  2
*ACTIVE
 70
     0
 10
0.0
 20
0.0
 11
1.0
 21
1.0
 12
381.7841818175732
 22
225.80841688263129
 13
0.0
 23
0.0
 14
400.0
 24
400.0
 15
400.0
 25
400.0
 16
0.0
 26
0.0
 36
1.0
 17
0.0
 27
0.0
 37
0.0
 40
2166.932466954263
 41
1.6900269541778969
 42
50.0
 43
0.0
 44
0.0
 50
0.0
 51
0.0
 71
     0
 72
   500
 73
     1
 74
     0
 75
     0
 76
     0
 77
     0
 78
     1
  0
ENDTAB
  0
TABLE
  2
LTYPE
 70
     8
  0
LTYPE
  2
CONTINUOUS
 70
     0
  3
実線
 72
    65
 73
     0
 40
0.0
  0
LTYPE
  2
DASHED
 70
     0
  3
_ _ _ _ _ _ _ _ _ _ _ _ _ _ _ _ _ _ _ _ _ _ _
 72
    65
 73
     2
 40
2.0
 49
1.1999999999999991
 49
-0.8
  0
LTYPE
  2
DASHDOT
 70
     0
  3
____ _ ____ _ ____ _ ____ _ ____ _ ____ _ ____
 72
    65
 73
     4
 40
5.5
 49
4.0
 49
-0.6
 49
0.3
 49
-0.6
  0
LTYPE
  2
CONTINOUS
 70
     0
  3
Solid line
 72
    65
 73
     0
 40
0.0
  0
LTYPE
  2
DOT
 70
     0
  3
...............................................
 72
    65
 73
     2
 40
0.8
 49
0.5
 49
-0.3
  0
LTYPE
  2
DASHDOT1
 70
     0
  3
____ _ ____ _ ____ _ ____ _ ____ _ ____ _ ____
 72
    65
 73
     4
 40
2.0
 49
1.5
 49
-0.2
 49
0.1
 49
-0.2
  0
LTYPE
  2
DIVIDE
 70
     0
  3
_____ _ _ _____ _ _ _____ _ _ _____ _ _ ____
 72
    65
 73
     6
 40
6.4000000000000004
 49
4.0
 49
-0.6
 49
0.3
 49
-0.6
 49
0.3
 49
-0.6
  0
LTYPE
  2
DIVIDE1
 70
     0
  3
_____ _ _ _____ _ _ _____ _ _ _____ _ _ ____
 72
    65
 73
     6
 40
3.2000000000000002
 49
2.0
 49
-0.3
 49
0.15
 49
-0.3
 49
0.15
 49
-0.3
  0
ENDTAB
  0
TABLE
  2
LAYER
 70
    12
  0
LAYER
  2
0
 70
     0
 62
     7
  6
CONTINUOUS
  0
LAYER
  2
FIX
 70
     0
 62
    11
  6
CONTINUOUS
  0
LAYER
  2
DETAIL
 70
     0
 62
     5
  6
CONTINUOUS
  0
LAYER
  2
SIZE
 70
     0
 62
    30
  6
CONTINUOUS
  0
LAYER
  2
OUTLINE
 70
     0
 62
     3
  6
CONTINUOUS
  0
LAYER
  2
BASIS
 70
     0
 62
     6
  6
DASHDOT
  0
LAYER
  2
NOTE
 70
     0
 62
     4
  6
CONTINUOUS
  0
LAYER
  2
ARRANGE
 70
     0
 62
     1
  6
CONTINUOUS
  0
LAYER
  2
DEFPOINTS
 70
     0
 62
     7
  6
CONTINUOUS
  0
LAYER
  2
ETC
 70
     0
 62
    61
  6
CONTINUOUS
  0
LAYER
  2
SERVICESPACE
 70
     0
 62
     2
  6
DASHDOT
  0
LAYER
  2
SYMBOLLINE
 70
     0
 62
    15
  6
CONTINUOUS
  0
ENDTAB
  0
TABLE
  2
STYLE
 70
     2
  0
STYLE
  2
STANDARD
 70
     0
 40
0.0
 41
0.9
 50
0.0
 71
     0
 42
64.0
  3
SIMPLEX
  4
BIGFONT
  0
STYLE
  2
ANNOTATIVE
 70
     0
 40
0.0
 41
1.0
 50
0.0
 71
     0
 42
0.2
  3
txt
  4

  0
ENDTAB
  0
TABLE
  2
VIEW
 70
     1
  0
VIEW
  2
ALL
 70
     0
 40
6374.9789810000002
 10
0.0
 20
58.11501599999999
 41
8842.1052629999976
 11
0.0
 21
0.0
 31
1.0
 12
0.0
 22
0.0
 32
0.0
 42
50.0
 43
0.0
 44
0.0
 50
0.0
 71
     0
  0
ENDTAB
  0
TABLE
  2
UCS
 70
     0
  0
ENDTAB
  0
TABLE
  2
APPID
 70
     3
  0
APPID
  2
ACAD
 70
     0
  0
APPID
  2
ACADANNOTATIVE
 70
     0
  0
APPID
  2
ACAD_MLEADERVER
 70
     0
  0
ENDTAB
  0
TABLE
  2
DIMSTYLE
 70
     2
  0
DIMSTYLE
  2
STANDARD
 70
     0
  3

  4

  5

  6

  7

 40
1.0
 41
0.18
 42
0.0625
 43
0.38
 44
0.18
 45
0.0
 46
0.0
 47
0.0
 48
0.0
140
0.18
141
0.09
142
0.0
143
25.399999999999999
144
1.0
145
0.0
146
1.0
147
0.09
 71
     0
 72
     0
 73
     1
 74
     1
 75
     0
 76
     0
 77
     0
 78
     0
170
     0
171
     2
172
     0
173
     0
174
     0
175
     0
176
     0
177
     0
178
     0
  0
DIMSTYLE
  2
ANNOTATIVE
 70
     0
  3

  4

  5

  6

  7

 40
1.0
 41
0.18
 42
0.0625
 43
0.38
 44
0.18
 45
0.0
 46
0.0
 47
0.0
 48
0.0
140
0.18
141
0.09
142
0.0
143
25.399999999999999
144
1.0
145
0.0
146
1.0
147
0.09
 71
     0
 72
     0
 73
     1
 74
     1
 75
     0
 76
     0
 77
     0
 78
     0
170
     0
171
     2
172
     0
173
     0
174
     0
175
     0
176
     0
177
     0
178
     0
  0
ENDTAB
  0
ENDSEC
  0
SECTION
  2
BLOCKS
  0
BLOCK
  8
0
  2
$MODEL_SPACE
 70
     0
 10
0.0
 20
0.0
 30
0.0
  3
$MODEL_SPACE
  1

  0
ENDBLK
  5
63F
  8
0
  0
BLOCK
 67
     1
  8
0
  2
$PAPER_SPACE
 70
     0
 10
0.0
 20
0.0
 30
0.0
  3
$PAPER_SPACE
  1

  0
ENDBLK
  5
63B
 67
     1
  8
0
  0
BLOCK
  8
0
 62
    30
  2
_NONE
 70
     0
 10
0.0
 20
0.0
 30
0.0
  3
_NONE
  1

  0
ENDBLK
  5
418
  8
0
 62
    30
  0
BLOCK
  8
0
 62
    30
  2
_OPEN30
 70
     0
 10
0.0
 20
0.0
 30
0.0
  3
_OPEN30
  1

  0
LINE
  5
41B
  8
0
  6
BYBLOCK
 62
     0
 10
-1.0
 20
0.26794919
 30
0.0
 11
0.0
 21
0.0
 31
0.0
  0
LINE
  5
41C
  8
0
  6
BYBLOCK
 62
     0
 10
0.0
 20
0.0
 30
0.0
 11
-1.0
 21
-0.26794919
 31
0.0
  0
LINE
  5
41D
  8
0
  6
BYBLOCK
 62
     0
 10
0.0
 20
0.0
 30
0.0
 11
-1.0
 21
0.0
 31
0.0
  0
ENDBLK
  5
41E
  8
0
 62
    30
  0
ENDSEC
  0
SECTION
  2
ENTITIES
  0
TEXT
  5
43F
  8
ETC
  6
CONTINUOUS
 62
    61
 10
1122.4358516898169
 20
984.00989499999991
 30
0.0
 40
64.0
  1
ロスナイ
 41
0.9
  0
LINE
  5
440
  8
DETAIL
  6
CONTINOUS
 62
     5
 10
-476.99999999999989
 20
454.0
 30
0.0
 11
-476.99999999999989
 21
-454.0
 31
0.0
  0
LINE
  5
441
  8
DETAIL
  6
CONTINOUS
 62
     5
 10
-476.99999999999989
 20
-454.0
 30
0.0
 11
476.99999999999977
 21
-454.0
 31
0.0
  0
LINE
  5
442
  8
DETAIL
  6
CONTINOUS
 62
     5
 10
-476.99999999999989
 20
454.0
 30
0.0
 11
476.99999999999977
 21
454.0
 31
0.0
  0
LINE
  5
443
  8
DETAIL
  6
CONTINOUS
 62
     5
 10
476.99999999999977
 20
454.0
 30
0.0
 11
476.99999999999977
 21
-454.0
 31
0.0
  0
LINE
  5
444
  8
BASIS
  6
DASHDOT
 62
     6
 10
0.0
 20
536.13516800000002
 30
0.0
 11
0.0
 21
-542.38863499999991
 31
0.0
  0
LINE
  5
445
  8
BASIS
  6
DASHDOT
 62
     6
 10
-593.60812099999998
 20
0.0
 30
0.0
 11
591.66176299999984
 21
0.0
 31
0.0
  0
TEXT
  5
446
  8
NOTE
  6
CONTINUOUS
 62
     4
 10
297.47961900000001
 20
378.281679
 30
0.0
 40
64.0
  1
EA
 41
0.9
  0
TEXT
  5
447
  8
NOTE
  6
CONTINUOUS
 62
     4
 10
-403.17842699999972
 20
367.37303700000001
 30
0.0
 40
64.0
  1
OA
 41
0.9
  0
TEXT
  5
448
  8
NOTE
  6
CONTINUOUS
 62
     4
 10
297.34330899999992
 20
-438.54648499999979
 30
0.0
 40
64.0
  1
RA
 41
0.9
  0
TEXT
  5
449
  8
NOTE
  6
CONTINUOUS
 62
     4
 10
-395.18407499999989
 20
-437.59773899999999
 30
0.0
 40
64.0
  1
SA
 41
0.9
  0
LINE
  5
44A
  8
SERVICESPACE
  6
DASHDOT
 62
     2
 10
-476.99999999999989
 20
-454.0
 30
0.0
 11
-1077.0
 21
-454.0
 31
0.0
  0
LINE
  5
44B
  8
SERVICESPACE
  6
DASHDOT
 62
     2
 10
-476.99999999999989
 20
454.0
 30
0.0
 11
-1077.0
 21
454.0
 31
0.0
  0
LINE
  5
44C
  8
SERVICESPACE
  6
DASHDOT
 62
     2
 10
-1077.0
 20
-444.0
 30
0.0
 11
-1077.0
 21
444.0
 31
0.0
  0
LINE
  5
44D
  8
DETAIL
  6
CONTINOUS
 62
     5
 10
-592.0
 20
-230.0
 30
0.0
 11
-592.0
 21
-410.0
 31
0.0
  0
LINE
  5
44E
  8
DETAIL
  6
CONTINUOUS
 62
     5
 10
-476.99999999999989
 20
-230.0
 30
0.0
 11
-592.0
 21
-230.0
 31
0.0
  0
TEXT
  5
44F
  8
NOTE
  6
CONTINUOUS
 62
     4
 10
-1047.4259999999999
 20
1123.358999999999
 30
0.0
 40
64.0
  1
メンテスペース
 41
0.9
  0
LINE
  5
450
  8
SERVICESPACE
  6
DASHDOT
 62
     2
 10
-627.0
 20
-225.0
 30
0.0
 11
-1077.0
 21
-225.0
 31
0.0
  0
LINE
  5
451
  8
SERVICESPACE
  6
DASHDOT
 62
     2
 10
-627.0
 20
225.0
 30
0.0
 11
-1077.0
 21
225.0
 31
0.0
  0
LINE
  5
452
  8
SERVICESPACE
  6
DASHDOT
 62
     2
 10
-627.0
 20
-225.0
 30
0.0
 11
-627.0
 21
225.0
 31
0.0
  0
LINE
  5
453
  8
SIZE
  6
CONTINUOUS
 62
    30
 10
-625.0
 20
839.15897599999983
 30
0.0
 11
-945.43825300000003
 21
839.15897599999983
 31
0.0
  0
LINE
  5
454
  8
BASIS
  6
DASHDOT
 62
     6
 10
346.0
 20
561.48150399999986
 30
0.0
 11
346.0
 21
388.12159499999967
 31
0.0
  0
LINE
  5
455
  8
BASIS
  6
DASHDOT
 62
     6
 10
346.0
 20
-385.01731299999989
 30
0.0
 11
346.0
 21
-581.83301200000005
 31
0.0
  0
LINE
  5
456
  8
BASIS
  6
DASHDOT
 62
     6
 10
-345.99999999999972
 20
-397.60108999999989
 30
0.0
 11
-345.99999999999972
 21
-571.95567300000005
 31
0.0
  0
LINE
  5
457
  8
BASIS
  6
DASHDOT
 62
     6
 10
-345.99999999999972
 20
566.18854699999963
 30
0.0
 11
-345.99999999999972
 21
384.686193
 31
0.0
  0
LINE
  5
458
  8
DETAIL
  6
CONTINUOUS
 62
     5
 10
-442.0
 20
533.0
 30
0.0
 11
-250.0
 21
533.0
 31
0.0
  0
LINE
  5
459
  8
DETAIL
  6
CONTINUOUS
 62
     5
 10
-250.0
 20
533.0
 30
0.0
 11
-242.0
 21
454.0
 31
0.0
  0
TEXT
  5
45A
  8
ETC
  6
CONTINUOUS
 62
    61
 10
1129.252426689817
 20
1079.1020000000001
 30
0.0
 40
64.0
  1
LGH-65RS5_1
 41
0.9
  0
CIRCLE
  5
45B
  8
ARRANGE
  6
CONTINUOUS
 62
     1
 10
0.0
 20
0.0
 30
0.0
 40
40.0
  0
POINT
  5
45C
  8
ARRANGE
  6
CONTINUOUS
 62
     1
 10
0.0
 20
0.0
 30
0.0
  0
LINE
  5
45D
  8
DETAIL
  6
CONTINUOUS
 62
     5
 10
250.0
 20
533.0
 30
0.0
 11
242.0
 21
454.0
 31
0.0
  0
LINE
  5
45E
  8
DETAIL
  6
CONTINUOUS
 62
     5
 10
442.0
 20
533.0
 30
0.0
 11
250.0
 21
533.0
 31
0.0
  0
LINE
  5
45F
  8
DETAIL
  6
CONTINUOUS
 62
     5
 10
-250.0
 20
-533.0
 30
0.0
 11
-242.0
 21
-454.0
 31
0.0
  0
LINE
  5
460
  8
DETAIL
  6
CONTINUOUS
 62
     5
 10
-442.0
 20
-533.0
 30
0.0
 11
-250.0
 21
-533.0
 31
0.0
  0
LINE
  5
461
  8
DETAIL
  6
CONTINUOUS
 62
     5
 10
442.0
 20
-533.0
 30
0.0
 11
250.0
 21
-533.0
 31
0.0
  0
LINE
  5
462
  8
DETAIL
  6
CONTINUOUS
 62
     5
 10
250.0
 20
-533.0
 30
0.0
 11
242.0
 21
-454.0
 31
0.0
  0
TEXT
  5
463
  8
NOTE
  6
DASHDOT
 62
     4
 10
-947.78147399999989
 20
125.501071
 30
0.0
 40
64.0
  1
点検口
 41
0.9
  0
LINE
  5
464
  8
SERVICESPACE
  6
DASHDOT
 62
     2
 10
-1077.0
 20
-225.0
 30
0.0
 11
-627.0
 21
225.0
 31
0.0
  0
LINE
  5
465
  8
SERVICESPACE
  6
DASHDOT
 62
     2
 10
-627.0
 20
-225.0
 30
0.0
 11
-1077.0
 21
225.0
 31
0.0
  0
LINE
  5
466
  8
DETAIL
  6
CONTINOUS
 62
     5
 10
-492.49999999999989
 20
200.0
 30
0.0
 11
-492.49999999999989
 21
-200.0
 31
0.0
  0
LINE
  5
467
  8
DETAIL
  6
CONTINUOUS
 62
     5
 10
-492.49999999999989
 20
-200.0
 30
0.0
 11
-476.99999999999989
 21
-200.0
 31
0.0
  0
LINE
  5
468
  8
DETAIL
  6
CONTINUOUS
 62
     5
 10
-492.49999999999989
 20
200.0
 30
0.0
 11
-476.99999999999989
 21
200.0
 31
0.0
  0
LINE
  5
469
  8
DETAIL
  6
CONTINUOUS
 62
     5
 10
-492.49999999999989
 20
-230.0
 30
0.0
 11
-476.99999999999989
 21
-230.0
 31
0.0
  0
LINE
  5
46B
  8
NOTE
  6
CONTINUOUS
 62
     4
 10
-500.49999999999989
 20
-467.49999999999989
 30
0.0
 11
-500.49999999999989
 21
-427.5
 31
0.0
  0
LINE
  5
46C
  8
NOTE
  6
CONTINUOUS
 62
     4
 10
-520.5
 20
-447.5
 30
0.0
 11
-480.49999999999989
 21
-447.5
 31
0.0
  0
LINE
  5
46D
  8
DETAIL
  6
CONTINUOUS
 62
     5
 10
-476.99999999999989
 20
-410.0
 30
0.0
 11
-592.0
 21
-410.0
 31
0.0
  0
LINE
  5
46E
  8
NOTE
  6
CONTINUOUS
 62
     4
 10
-520.5
 20
447.5
 30
0.0
 11
-480.49999999999989
 21
447.5
 31
0.0
  0
LINE
  5
46F
  8
NOTE
  6
CONTINUOUS
 62
     4
 10
-500.49999999999989
 20
427.5
 30
0.0
 11
-500.49999999999989
 21
467.49999999999989
 31
0.0
  0
LINE
  5
472
  8
NOTE
  6
CONTINUOUS
 62
     4
 10
500.49999999999989
 20
467.49999999999989
 30
0.0
 11
500.49999999999989
 21
427.5
 31
0.0
  0
LINE
  5
473
  8
NOTE
  6
CONTINUOUS
 62
     4
 10
520.5
 20
447.5
 30
0.0
 11
480.49999999999977
 21
447.5
 31
0.0
  0
LINE
  5
474
  8
NOTE
  6
CONTINUOUS
 62
     4
 10
500.49999999999989
 20
447.5
 30
0.0
 11
608.93240899999989
 21
778.99019799999985
 31
0.0
  0
LINE
  5
475
  8
NOTE
  6
CONTINUOUS
 62
     4
 10
520.5
 20
-447.5
 30
0.0
 11
480.49999999999977
 21
-447.5
 31
0.0
  0
LINE
  5
476
  8
NOTE
  6
CONTINUOUS
 62
     4
 10
500.49999999999989
 20
-427.5
 30
0.0
 11
500.49999999999989
 21
-467.49999999999989
 31
0.0
  0
TEXT
  5
478
  8
NOTE
  6
CONTINUOUS
 62
     4
 10
618.72544900000003
 20
803.21089199999983
 30
0.0
 40
64.0
  1
AH 4-φ13×30
 41
0.9
  0
LINE
  5
479
  8
NOTE
  6
CONTINUOUS
 62
     4
 10
608.93240899999989
 20
778.99019799999985
 30
0.0
 11
1238.0070000000001
 21
778.99019799999985
 31
0.0
  0
LINE
  5
47A
  8
DETAIL
  6
DASHED
 62
     5
 10
-556.0
 20
417.0
 30
0.0
 11
-476.99999999999989
 21
425.0
 31
0.0
  0
LINE
  5
47B
  8
DETAIL
  6
DASHED
 62
     5
 10
-556.0
 20
225.0
 30
0.0
 11
-476.99999999999989
 21
217.0
 31
0.0
  0
LINE
  5
47C
  8
DETAIL
  6
DASHED
 62
     5
 10
-556.0
 20
225.0
 30
0.0
 11
-556.0
 21
417.0
 31
0.0
  0
LINE
  5
47D
  8
BASIS
  6
DASHDOT
 62
     6
 10
-589.18854699999974
 20
321.0
 30
0.0
 11
-407.68619299999978
 21
321.0
 31
0.0
  0
LINE
  5
47E
  8
DETAIL
  6
DASHED
 62
     5
 10
556.0
 20
225.0
 30
0.0
 11
476.99999999999977
 21
217.0
 31
0.0
  0
LINE
  5
47F
  8
DETAIL
  6
DASHED
 62
     5
 10
556.0
 20
225.0
 30
0.0
 11
556.0
 21
417.0
 31
0.0
  0
LINE
  5
480
  8
DETAIL
  6
DASHED
 62
     5
 10
556.0
 20
417.0
 30
0.0
 11
476.99999999999977
 21
425.0
 31
0.0
  0
LINE
  5
481
  8
BASIS
  6
DASHDOT
 62
     6
 10
589.18854699999997
 20
321.0
 30
0.0
 11
407.68619299999978
 21
321.0
 31
0.0
  0
LINE
  5
482
  8
SIZE
  6
CONTINUOUS
 62
    30
 10
1060.042076089492
 20
-537.0
 30
0.0
 11
1060.042076089492
 21
-658.18044099999997
 31
0.0
  0
LINE
  5
483
  8
SIZE
  6
CONTINUOUS
 62
    30
 10
1060.042076089492
 20
537.0
 30
0.0
 11
1060.042076089492
 21
654.39565999999957
 31
0.0
  0
LINE
  5
484
  8
SIZE
  6
CONTINUOUS
 62
    30
 10
744.38126399999965
 20
454.0
 30
0.0
 11
744.38126399999965
 21
687.73138100000017
 31
0.0
  0
LINE
  5
485
  8
SIZE
  6
CONTINUOUS
 62
    30
 10
-740.14374699999985
 20
454.0
 30
0.0
 11
-740.14374699999985
 21
634.24935099999959
 31
0.0
  0
LINE
  5
486
  8
SIZE
  6
CONTINUOUS
 62
    30
 10
244.0
 20
716.23592499999995
 30
0.0
 11
14.037585000000011
 21
716.23592499999995
 31
0.0
  0
LINE
  5
487
  8
SIZE
  6
CONTINUOUS
 62
    30
 10
250.0
 20
590.95204099999978
 30
0.0
 11
14.037585000000011
 21
590.95204099999978
 31
0.0
  0
LINE
  5
488
  8
NOTE
  6
CONTINUOUS
 62
     4
 10
-713.69927900000005
 20
-405.44081199999988
 30
0.0
 11
-592.0
 21
-258.67704700000002
 31
0.0
  0
LINE
  5
489
  8
NOTE
  6
CONTINUOUS
 62
     4
 10
-836.72294099999976
 20
-405.44081199999988
 30
0.0
 11
-713.69927900000005
 21
-405.44081199999988
 31
0.0
  0
TEXT
  5
48A
  8
NOTE
  6
CONTINUOUS
 62
     4
 10
-820.86502099999996
 20
-384.56411500000002
 30
0.0
 40
64.0
  1
CL
 41
0.9
  0
LINE
  5
48B
  8
NOTE
  6
CONTINUOUS
 62
     4
 10
-522.0
 20
-410.0
 30
0.0
 11
-751.11215199999992
 21
-687.52954599999998
 31
0.0
  0
TEXT
  5
48C
  8
NOTE
  6
CONTINUOUS
 62
     4
 10
-977.84467299999994
 20
-660.98546399999998
 30
0.0
 40
64.0
  1
2-EL
 41
0.9
  0
LINE
  5
48D
  8
NOTE
  6
CONTINUOUS
 62
     4
 10
-992.71319800000003
 20
-687.52954599999998
 30
0.0
 11
-751.11215199999992
 21
-687.52954599999998
 31
0.0
  0
LINE
  5
48E
  8
SIZE
  6
BYBLOCK
 62
    30
 10
442.0
 20
553.0
 30
0.0
 11
442.0
 21
620.95204100000001
 31
0.0
  0
LINE
  5
48F
  8
SIZE
  6
BYBLOCK
 62
    30
 10
250.0
 20
553.0
 30
0.0
 11
250.0
 21
620.95204100000001
 31
0.0
  0
LINE
  5
490
  8
SIZE
  6
BYBLOCK
 62
    30
 10
247.99999999999989
 20
590.95204099999978
 30
0.0
 11
246.0
 21
590.95204099999978
 31
0.0
  0
LINE
  5
491
  8
SIZE
  6
BYBLOCK
 62
    30
 10
444.00000000000011
 20
590.95204099999978
 30
0.0
 11
446.0
 21
590.95204099999978
 31
0.0
  0
LINE
  5
492
  8
SIZE
  6
BYBLOCK
 62
    30
 10
250.0
 20
590.95204099999978
 30
0.0
 11
442.0
 21
590.95204099999978
 31
0.0
  0
TEXT
  5
493
  8
SIZE
  6
BYBLOCK
 62
    30
 10
6.0408620000000042
 20
622.95204100000001
 30
0.0
 40
64.0
  1
φ192
 41
0.9
  0
LINE
  5
494
  8
SIZE
  6
BYBLOCK
 62
    30
 10
450.0
 20
474.0
 30
0.0
 11
450.0
 21
746.23592499999984
 31
0.0
  0
LINE
  5
495
  8
SIZE
  6
BYBLOCK
 62
    30
 10
242.0
 20
474.0
 30
0.0
 11
242.0
 21
746.23592499999984
 31
0.0
  0
LINE
  5
496
  8
SIZE
  6
BYBLOCK
 62
    30
 10
448.00000000000011
 20
716.23592499999995
 30
0.0
 11
346.0
 21
716.23592499999995
 31
0.0
  0
LINE
  5
497
  8
SIZE
  6
BYBLOCK
 62
    30
 10
244.0
 20
716.23592499999995
 30
0.0
 11
346.0
 21
716.23592499999995
 31
0.0
  0
TEXT
  5
498
  8
SIZE
  6
BYBLOCK
 62
    30
 10
3.2209469999999949
 20
748.23592499999984
 30
0.0
 40
64.0
  1
φ208
 41
0.9
  0
LINE
  5
499
  8
SIZE
  6
BYBLOCK
 62
    30
 10
-496.99999999999989
 20
454.0
 30
0.0
 11
-770.14374699999996
 21
454.0
 31
0.0
  0
LINE
  5
49A
  8
SIZE
  6
BYBLOCK
 62
    30
 10
-609.18854699999997
 20
321.0
 30
0.0
 11
-770.14374699999996
 21
321.0
 31
0.0
  0
LINE
  5
49C
  8
SIZE
  6
BYBLOCK
 62
    30
 10
-740.14374699999985
 20
456.0
 30
0.0
 11
-740.14374699999985
 21
458.0
 31
0.0
  0
LINE
  5
49D
  8
SIZE
  6
BYBLOCK
 62
    30
 10
-740.14374699999985
 20
321.0
 30
0.0
 11
-740.14374699999985
 21
454.0
 31
0.0
  0
TEXT
  5
49E
  8
SIZE
  6
BYBLOCK
 62
    30
 10
-772.14374699999985
 20
484.17113399999988
 30
0.0
 40
64.0
  1
133
 50
90.0
 41
0.9
  0
LINE
  5
49F
  8
SIZE
  6
BYBLOCK
 62
    30
 10
496.99999999999977
 20
454.0
 30
0.0
 11
774.38126399999987
 21
454.0
 31
0.0
  0
LINE
  5
4A0
  8
SIZE
  6
BYBLOCK
 62
    30
 10
609.18854699999974
 20
321.0
 30
0.0
 11
774.38126399999987
 21
321.0
 31
0.0
  0
LINE
  5
4A2
  8
SIZE
  6
BYBLOCK
 62
    30
 10
744.38126399999965
 20
456.0
 30
0.0
 11
744.38126399999965
 21
458.0
 31
0.0
  0
LINE
  5
4A3
  8
SIZE
  6
BYBLOCK
 62
    30
 10
744.38126399999965
 20
321.0
 30
0.0
 11
744.38126399999965
 21
454.0
 31
0.0
  0
TEXT
  5
4A4
  8
SIZE
  6
BYBLOCK
 62
    30
 10
712.38126399999987
 20
552.92765299999985
 30
0.0
 40
64.0
  1
133
 50
90.0
 41
0.9
  0
LINE
  5
4A5
  8
SIZE
  6
BYBLOCK
 62
    30
 10
-476.99999999999989
 20
474.0
 30
0.0
 11
-476.99999999999989
 21
738.85388599999965
 31
0.0
  0
LINE
  5
4A6
  8
SIZE
  6
BYBLOCK
 62
    30
 10
-592.0
 20
-210.0
 30
0.0
 11
-592.0
 21
738.85388599999965
 31
0.0
  0
LINE
  5
4A9
  8
SIZE
  6
BYBLOCK
 62
    30
 10
-592.0
 20
708.85388599999965
 30
0.0
 11
-476.99999999999989
 21
708.85388599999965
 31
0.0
  0
TEXT
  5
4AA
  8
SIZE
  6
BYBLOCK
 62
    30
 10
-612.26805775260232
 20
740.85388599999999
 30
0.0
 40
64.0
  1
115
 41
0.9
  0
LINE
  5
4AB
  8
SIZE
  6
BYBLOCK
 62
    30
 10
461.00000000000011
 20
-533.0
 30
0.0
 11
1092.539769076079
 21
-533.0
 31
0.0
  0
LINE
  5
4AC
  8
SIZE
  6
BYBLOCK
 62
    30
 10
496.99999999999977
 20
-454.0
 30
0.0
 11
981.08785699999976
 21
-454.0
 31
0.0
  0
LINE
  5
4AD
  8
SIZE
  6
BYBLOCK
 62
    30
 10
1060.042076089492
 20
-452.0
 30
0.0
 11
1060.042076089492
 21
-450.0
 31
0.0
  0
LINE
  5
4AE
  8
SIZE
  6
BYBLOCK
 62
    30
 10
1060.042076089492
 20
-533.0
 30
0.0
 11
1060.042076089492
 21
-537.0
 31
0.0
  0
LINE
  5
4AF
  8
SIZE
  6
BYBLOCK
 62
    30
 10
1060.042076089492
 20
-454.0
 30
0.0
 11
1060.042076089492
 21
-533.0
 31
0.0
  0
TEXT
  5
4B0
  8
SIZE
  6
BYBLOCK
 62
    30
 10
1028.042076089492
 20
-653.74314800000002
 30
0.0
 40
64.0
  1
79
 50
90.0
 41
0.9
  0
LINE
  5
4B1
  8
SIZE
  6
BYBLOCK
 62
    30
 10
496.99999999999977
 20
454.0
 30
0.0
 11
981.08785699999976
 21
454.0
 31
0.0
  0
LINE
  5
4B2
  8
SIZE
  6
BYBLOCK
 62
    30
 10
496.99999999999977
 20
-454.0
 30
0.0
 11
1092.539769076079
 21
-454.0
 31
0.0
  0
LINE
  5
4B3
  8
SIZE
  6
BYBLOCK
 62
    30
 10
1060.042076089492
 20
454.0
 30
0.0
 11
1060.042076089492
 21
0.0
 31
0.0
  0
LINE
  5
4B4
  8
SIZE
  6
BYBLOCK
 62
    30
 10
1060.042076089492
 20
-454.0
 30
0.0
 11
1060.042076089492
 21
0.0
 31
0.0
  0
TEXT
  5
4B5
  8
SIZE
  6
BYBLOCK
 62
    30
 10
1028.042076089492
 20
-74.057143000000025
 30
0.0
 40
64.0
  1
908
 50
90.0
 41
0.9
  0
LINE
  5
4B6
  8
SIZE
  6
BYBLOCK
 62
    30
 10
461.00000000000011
 20
533.0
 30
0.0
 11
1092.539769076079
 21
533.0
 31
0.0
  0
LINE
  5
4B7
  8
SIZE
  6
BYBLOCK
 62
    30
 10
496.99999999999977
 20
454.0
 30
0.0
 11
1090.5924522696189
 21
454.0
 31
0.0
  0
LINE
  5
4B8
  8
SIZE
  6
BYBLOCK
 62
    30
 10
1060.042076089492
 20
452.0
 30
0.0
 11
1060.042076089492
 21
450.0
 31
0.0
  0
LINE
  5
4B9
  8
SIZE
  6
BYBLOCK
 62
    30
 10
1060.042076089492
 20
535.0
 30
0.0
 11
1060.042076089492
 21
537.0
 31
0.0
  0
LINE
  5
4BA
  8
SIZE
  6
BYBLOCK
 62
    30
 10
1060.042076089492
 20
454.0
 30
0.0
 11
1060.042076089492
 21
533.0
 31
0.0
  0
TEXT
  5
4BB
  8
SIZE
  6
BYBLOCK
 62
    30
 10
1028.042076089492
 20
556.72022100000004
 30
0.0
 40
64.0
  1
79
 50
90.0
 41
0.9
  0
LINE
  5
4BC
  8
SIZE
  6
BYBLOCK
 62
    30
 10
-476.99999999999989
 20
474.0
 30
0.0
 11
-476.99999999999989
 21
869.15897599999971
 31
0.0
  0
LINE
  5
4BD
  8
SIZE
  6
BYBLOCK
 62
    30
 10
-627.0
 20
245.0
 30
0.0
 11
-627.0
 21
869.15897599999971
 31
0.0
  0
LINE
  5
4BE
  8
SIZE
  6
BYBLOCK
 62
    30
 10
-629.0
 20
839.15897599999983
 30
0.0
 11
-631.0
 21
839.15897599999983
 31
0.0
  0
LINE
  5
4C0
  8
SIZE
  6
BYBLOCK
 62
    30
 10
-627.0
 20
839.15897599999983
 30
0.0
 11
-476.99999999999989
 21
839.15897599999983
 31
0.0
  0
TEXT
  5
4C1
  8
SIZE
  6
BYBLOCK
 62
    30
 10
-952.84586200000001
 20
871.15897599999983
 30
0.0
 40
64.0
  1
150～250
 41
0.9
  0
LINE
  5
4C2
  8
SIZE
  6
BYBLOCK
 62
    30
 10
476.99999999999977
 20
474.0
 30
0.0
 11
476.99999999999977
 21
1004.746
 31
0.0
  0
LINE
  5
4C3
  8
SIZE
  6
BYBLOCK
 62
    30
 10
-476.99999999999989
 20
474.0
 30
0.0
 11
-476.99999999999989
 21
1004.746
 31
0.0
  0
LINE
  5
4C4
  8
SIZE
  6
BYBLOCK
 62
    30
 10
475.0
 20
974.74598100000003
 30
0.0
 11
0.0
 21
974.74598100000003
 31
0.0
  0
LINE
  5
4C5
  8
SIZE
  6
BYBLOCK
 62
    30
 10
-478.99999999999989
 20
974.74598100000003
 30
0.0
 11
0.0
 21
974.74598100000003
 31
0.0
  0
TEXT
  5
4C6
  8
SIZE
  6
BYBLOCK
 62
    30
 10
-75.428571000000105
 20
1006.746
 30
0.0
 40
64.0
  1
954
 41
0.9
  0
LINE
  5
4C7
  8
SIZE
  6
BYBLOCK
 62
    30
 10
346.0
 20
569.47787100000005
 30
0.0
 11
346.0
 21
872.83594400000004
 31
0.0
  0
LINE
  5
4C8
  8
SIZE
  6
BYBLOCK
 62
    30
 10
-345.99999999999972
 20
572.18430899999998
 30
0.0
 11
-345.99999999999972
 21
872.83594400000004
 31
0.0
  0
LINE
  5
4C9
  8
SIZE
  6
BYBLOCK
 62
    30
 10
342.99999999999989
 20
842.8359439999997
 30
0.0
 11
0.0
 21
842.8359439999997
 31
0.0
  0
LINE
  5
4CA
  8
SIZE
  6
BYBLOCK
 62
    30
 10
-342.99999999999972
 20
842.8359439999997
 30
0.0
 11
0.0
 21
842.8359439999997
 31
0.0
  0
TEXT
  5
4CB
  8
SIZE
  6
BYBLOCK
 62
    30
 10
-74.057143000000011
 20
874.8359439999997
 30
0.0
 40
64.0
  1
692
 41
0.9
  0
LINE
  5
4CC
  8
SIZE
  6
BYBLOCK
 62
    30
 10
-476.99999999999989
 20
474.0
 30
0.0
 11
-476.99999999999989
 21
1004.746
 31
0.0
  0
LINE
  5
4CD
  8
SIZE
  6
BYBLOCK
 62
    30
 10
-1077.0
 20
474.0
 30
0.0
 11
-1077.0
 21
1004.746
 31
0.0
  0
LINE
  5
4CE
  8
SIZE
  6
BYBLOCK
 62
    30
 10
-478.99999999999989
 20
974.74598100000003
 30
0.0
 11
-776.99999999999955
 21
974.74598100000003
 31
0.0
  0
LINE
  5
4CF
  8
SIZE
  6
BYBLOCK
 62
    30
 10
-1077.0
 20
974.74598100000003
 30
0.0
 11
-776.99999999999955
 21
974.74598100000003
 31
0.0
  0
TEXT
  5
4D0
  8
SIZE
  6
BYBLOCK
 62
    30
 10
-920.72571400000015
 20
1006.746
 30
0.0
 40
64.0
  1
600以上
 41
0.9
  0
CIRCLE
  5
4D1
  8
SIZE
  6
CONTINUOUS
 62
    30
 10
-1077.0
 20
974.74598100000003
 30
0.0
 40
6.0
  0
CIRCLE
  5
4D2
  8
SIZE
  6
CONTINUOUS
 62
    30
 10
-476.99999999999989
 20
974.74598100000003
 30
0.0
 40
6.0
  0
CIRCLE
  5
4D3
  8
SIZE
  6
CONTINUOUS
 62
    30
 10
-345.99999999999972
 20
842.8359439999997
 30
0.0
 40
6.0
  0
CIRCLE
  5
4D4
  8
SIZE
  6
CONTINUOUS
 62
    30
 10
346.0
 20
842.8359439999997
 30
0.0
 40
6.0
  0
CIRCLE
  5
4D5
  8
SIZE
  6
CONTINUOUS
 62
    30
 10
-476.99999999999989
 20
974.74598100000003
 30
0.0
 40
6.0
  0
CIRCLE
  5
4D6
  8
SIZE
  6
CONTINUOUS
 62
    30
 10
476.99999999999977
 20
974.74598100000003
 30
0.0
 40
6.0
  0
CIRCLE
  5
4D7
  8
SIZE
  6
CONTINUOUS
 62
    30
 10
-476.99999999999989
 20
839.15897599999983
 30
0.0
 40
6.0
  0
CIRCLE
  5
4D8
  8
SIZE
  6
CONTINUOUS
 62
    30
 10
-627.0
 20
839.15897599999983
 30
0.0
 40
6.0
  0
CIRCLE
  5
4D9
  8
SIZE
  6
CONTINUOUS
 62
    30
 10
1060.042076089492
 20
533.0
 30
0.0
 40
6.0
  0
CIRCLE
  5
4DA
  8
SIZE
  6
CONTINUOUS
 62
    30
 10
1060.042076089492
 20
454.0
 30
0.0
 40
6.0
  0
CIRCLE
  5
4DB
  8
SIZE
  6
CONTINUOUS
 62
    30
 10
1060.042076089492
 20
-454.0
 30
0.0
 40
6.0
  0
CIRCLE
  5
4DC
  8
SIZE
  6
CONTINUOUS
 62
    30
 10
1060.042076089492
 20
454.0
 30
0.0
 40
6.0
  0
CIRCLE
  5
4DD
  8
SIZE
  6
CONTINUOUS
 62
    30
 10
1060.042076089492
 20
-533.0
 30
0.0
 40
6.0
  0
CIRCLE
  5
4DE
  8
SIZE
  6
CONTINUOUS
 62
    30
 10
1060.042076089492
 20
-454.0
 30
0.0
 40
6.0
  0
CIRCLE
  5
4DF
  8
SIZE
  6
CONTINUOUS
 62
    30
 10
-476.99999999999989
 20
708.85388599999965
 30
0.0
 40
6.0
  0
CIRCLE
  5
4E0
  8
SIZE
  6
CONTINUOUS
 62
    30
 10
-592.0
 20
708.85388599999965
 30
0.0
 40
6.0
  0
CIRCLE
  5
4E1
  8
SIZE
  6
CONTINUOUS
 62
    30
 10
744.38126399999965
 20
454.0
 30
0.0
 40
6.0
  0
CIRCLE
  5
4E2
  8
SIZE
  6
CONTINUOUS
 62
    30
 10
744.38126399999965
 20
321.0
 30
0.0
 40
6.0
  0
CIRCLE
  5
4E3
  8
SIZE
  6
CONTINUOUS
 62
    30
 10
-740.14374699999985
 20
454.0
 30
0.0
 40
6.0
  0
CIRCLE
  5
4E4
  8
SIZE
  6
CONTINUOUS
 62
    30
 10
-740.14374699999985
 20
321.0
 30
0.0
 40
6.0
  0
CIRCLE
  5
4E5
  8
SIZE
  6
CONTINUOUS
 62
    30
 10
242.0
 20
716.23592499999995
 30
0.0
 40
6.0
  0
CIRCLE
  5
4E6
  8
SIZE
  6
CONTINUOUS
 62
    30
 10
450.0
 20
716.23592499999995
 30
0.0
 40
6.0
  0
CIRCLE
  5
4E7
  8
SIZE
  6
CONTINUOUS
 62
    30
 10
442.0
 20
590.95204099999978
 30
0.0
 40
6.0
  0
CIRCLE
  5
4E8
  8
SIZE
  6
CONTINUOUS
 62
    30
 10
250.0
 20
590.95204099999978
 30
0.0
 40
6.0
  0
LINE
  5
4E9
  8
NOTE
  6
CONTINUOUS
 62
     4
 10
-522.0
 20
-430.0
 30
0.0
 11
-522.0
 21
-390.0
 31
0.0
  0
LINE
  5
4EA
  8
NOTE
  6
CONTINUOUS
 62
     4
 10
-542.0
 20
-410.0
 30
0.0
 11
-501.99999999999989
 21
-410.0
 31
0.0
  0
TEXT
  5
4EB
  8
ETC
  6
CONTINUOUS
 62
    61
 10
1328.7710582763759
 20
905.30863110623534
 30
0.0
 40
50.0
  1
LGH-65RS5
 41
0.9
  0
TEXT
  5
4EC
  8
ETC
  6
CONTINUOUS
 62
    61
 10
1328.7710582763759
 20
827.46586955227485
 30
0.0
 40
50.0
  1
LGH-65RS5D
 41
0.9
  0
TEXT
  5
4ED
  8
ETC
  6
CONTINUOUS
 62
    61
 10
1328.7710582763759
 20
749.62310799831448
 30
0.0
 40
50.0
  1
LGH-65RX5
 41
0.9
  0
TEXT
  5
4EE
  8
ETC
  6
CONTINUOUS
 62
    61
 10
1328.7710582763759
 20
667.88820879531795
 30
0.0
 40
50.0
  1
LGH-65RX5D
 41
0.9
  0
LINE
  5
4EF
  8
DETAIL
  6
CONTINUOUS
 62
     5
 10
-520.5
 20
411.49999999999989
 30
0.0
 11
-520.5
 21
441.0
 31
0.0
  0
LINE
  5
4F0
  8
DETAIL
  6
CONTINUOUS
 62
     5
 10
520.5
 20
411.49999999999989
 30
0.0
 11
520.5
 21
441.0
 31
0.0
  0
LINE
  5
4F1
  8
DETAIL
  6
CONTINUOUS
 62
     5
 10
520.5
 20
-411.49999999999989
 30
0.0
 11
520.5
 21
-441.0
 31
0.0
  0
LINE
  5
4F2
  8
DETAIL
  6
CONTINUOUS
 62
     5
 10
-520.5
 20
-411.49999999999989
 30
0.0
 11
-520.5
 21
-441.0
 31
0.0
  0
LINE
  5
4F3
  8
DETAIL
  6
CONTINUOUS
 62
     5
 10
447.00000000000011
 20
-454.0
 30
0.0
 11
447.00000000000011
 21
-480.69347841416192
 31
0.0
  0
LINE
  5
4F4
  8
DETAIL
  6
CONTINUOUS
 62
     5
 10
-446.99999999999972
 20
-454.0
 30
0.0
 11
-446.99999999999972
 21
-480.49999999999989
 31
0.0
  0
LINE
  5
4F5
  8
DETAIL
  6
CONTINUOUS
 62
     5
 10
-446.99999999999972
 20
454.0
 30
0.0
 11
-446.99999999999972
 21
480.49999999999989
 31
0.0
  0
LINE
  5
4F6
  8
DETAIL
  6
CONTINUOUS
 62
     5
 10
447.00000000000011
 20
454.0
 30
0.0
 11
447.00000000000011
 21
480.49999999999989
 31
0.0
  0
LINE
  5
4F7
  8
DETAIL
  6
DOT
 62
     5
 10
450.0
 20
454.0
 30
0.0
 11
447.62025316455703
 21
477.5
 31
0.0
  0
LINE
  5
4F8
  8
DETAIL
  6
CONTINUOUS
 62
     5
 10
442.0
 20
533.0
 30
0.0
 11
447.62025316455703
 21
477.5
 31
0.0
  0
LINE
  5
4F9
  8
DETAIL
  6
DOT
 62
     5
 10
-449.99999999999977
 20
454.0
 30
0.0
 11
-447.6202531645568
 21
477.5
 31
0.0
  0
LINE
  5
4FA
  8
DETAIL
  6
CONTINUOUS
 62
     5
 10
-442.0
 20
533.0
 30
0.0
 11
-447.6202531645568
 21
477.5
 31
0.0
  0
LINE
  5
4FB
  8
DETAIL
  6
DOT
 62
     5
 10
-449.99999999999977
 20
-454.0
 30
0.0
 11
-447.6202531645568
 21
-477.5
 31
0.0
  0
LINE
  5
4FC
  8
DETAIL
  6
DOT
 62
     5
 10
450.0
 20
-454.0
 30
0.0
 11
447.62025316455703
 21
-477.5
 31
0.0
  0
LINE
  5
4FD
  8
DETAIL
  6
CONTINUOUS
 62
     5
 10
447.62025316455703
 20
-477.5
 30
0.0
 11
442.0
 21
-533.0
 31
0.0
  0
LINE
  5
4FE
  8
DETAIL
  6
CONTINUOUS
 62
     5
 10
-447.6202531645568
 20
-477.5
 30
0.0
 11
-442.0
 21
-533.0
 31
0.0
  0
ARC
  5
4FF
  8
DETAIL
  6
CONTINUOUS
 62
     5
 10
-500.49999999999989
 20
-447.5
 30
0.0
 40
6.5
 50
270.0
 51
90.0
  0
ARC
  5
500
  8
DETAIL
  6
CONTINUOUS
 62
     5
 10
500.49999999999989
 20
-447.5
 30
0.0
 40
6.5
 50
90.0
 51
270.0
  0
ARC
  5
501
  8
DETAIL
  6
CONTINUOUS
 62
     5
 10
500.49999999999989
 20
447.5
 30
0.0
 40
6.5
 50
54.772610567241273
 51
270.0
  0
ARC
  5
502
  8
DETAIL
  6
CONTINUOUS
 62
     5
 10
-500.49999999999989
 20
447.5
 30
0.0
 40
6.5
 50
270.0
 51
90.0
  0
LINE
  5
503
  8
DETAIL
  6
CONTINUOUS
 62
     5
 10
-500.49999999999989
 20
454.0
 30
0.0
 11
-520.5
 21
454.0
 31
0.0
  0
LINE
  5
504
  8
DETAIL
  6
CONTINUOUS
 62
     5
 10
-500.49999999999989
 20
441.0
 30
0.0
 11
-520.5
 21
441.0
 31
0.0
  0
LINE
  5
505
  8
DETAIL
  6
CONTINUOUS
 62
     5
 10
500.49999999999989
 20
454.0
 30
0.0
 11
520.5
 21
454.0
 31
0.0
  0
LINE
  5
506
  8
DETAIL
  6
CONTINUOUS
 62
     5
 10
500.49999999999989
 20
441.0
 30
0.0
 11
520.5
 21
441.0
 31
0.0
  0
LINE
  5
507
  8
DETAIL
  6
CONTINUOUS
 62
     5
 10
500.49999999999989
 20
-441.0
 30
0.0
 11
520.5
 21
-441.0
 31
0.0
  0
LINE
  5
508
  8
DETAIL
  6
CONTINUOUS
 62
     5
 10
500.49999999999989
 20
-454.0
 30
0.0
 11
520.5
 21
-454.0
 31
0.0
  0
LINE
  5
509
  8
DETAIL
  6
CONTINUOUS
 62
     5
 10
-500.49999999999989
 20
-441.0
 30
0.0
 11
-520.5
 21
-441.0
 31
0.0
  0
LINE
  5
50A
  8
DETAIL
  6
CONTINUOUS
 62
     5
 10
-500.49999999999989
 20
-454.0
 30
0.0
 11
-520.5
 21
-454.0
 31
0.0
  0
LINE
  5
50B
  8
DETAIL
  6
CONTINUOUS
 62
     5
 10
-520.5
 20
-454.0
 30
0.0
 11
-520.5
 21
-483.49999999999989
 31
0.0
  0
LINE
  5
50C
  8
DETAIL
  6
CONTINUOUS
 62
     5
 10
520.5
 20
-454.0
 30
0.0
 11
520.5
 21
-483.49999999999989
 31
0.0
  0
LINE
  5
50D
  8
DETAIL
  6
CONTINUOUS
 62
     5
 10
520.5
 20
454.0
 30
0.0
 11
520.5
 21
483.49999999999989
 31
0.0
  0
LINE
  5
50E
  8
DETAIL
  6
CONTINUOUS
 62
     5
 10
-520.5
 20
454.0
 30
0.0
 11
-520.5
 21
483.49999999999989
 31
0.0
  0
LINE
  5
50F
  8
OUTLINE
  6
CONTINUOUS
 62
     3
 10
476.99999999999977
 20
454.0
 30
0.0
 11
-476.99999999999989
 21
454.0
 31
0.0
  0
LINE
  5
510
  8
OUTLINE
  6
CONTINUOUS
 62
     3
 10
-476.99999999999989
 20
454.0
 30
0.0
 11
-476.99999999999989
 21
-454.0
 31
0.0
  0
LINE
  5
511
  8
OUTLINE
  6
CONTINUOUS
 62
     3
 10
-476.99999999999989
 20
-454.0
 30
0.0
 11
476.99999999999977
 21
-454.0
 31
0.0
  0
LINE
  5
512
  8
OUTLINE
  6
CONTINUOUS
 62
     3
 10
476.99999999999977
 20
-454.0
 30
0.0
 11
476.99999999999977
 21
454.0
 31
0.0
  0
CIRCLE
  5
513
  8
SIZE
  6
CONTINUOUS
 62
    30
 10
-520.5
 20
-704.10569391776141
 30
0.0
 40
6.0
  0
CIRCLE
  5
514
  8
SIZE
  6
CONTINUOUS
 62
    30
 10
-500.49999999999989
 20
-704.10569391776141
 30
0.0
 40
6.0
  0
CIRCLE
  5
515
  8
SIZE
  6
CONTINUOUS
 62
    30
 10
500.49999999999989
 20
-704.10569391776141
 30
0.0
 40
6.0
  0
CIRCLE
  5
516
  8
SIZE
  6
CONTINUOUS
 62
    30
 10
895.34276644988051
 20
-447.5
 30
0.0
 40
6.0
  0
CIRCLE
  5
517
  8
SIZE
  6
CONTINUOUS
 62
    30
 10
895.34276644988051
 20
447.4999999999996
 30
0.0
 40
6.0
  0
LINE
  5
518
  8
SIZE
  6
CONTINUOUS
 10
500.49999999999989
 20
-487.5
 30
0.0
 11
500.49999999999989
 21
-734.10569391776153
 31
0.0
  0
LINE
  5
519
  8
SIZE
  6
CONTINUOUS
 10
-500.49999999999989
 20
-487.5
 30
0.0
 11
-500.49999999999989
 21
-734.10569391776153
 31
0.0
  0
LINE
  5
51A
  8
SIZE
  6
CONTINUOUS
 10
500.49999999999989
 20
-704.10569391776141
 30
0.0
 11
-500.49999999999989
 21
-704.10569391776141
 31
0.0
  0
LINE
  5
51B
  8
SIZE
  6
CONTINUOUS
 10
-520.5
 20
-474.0
 30
0.0
 11
-520.5
 21
-734.10569391776153
 31
0.0
  0
LINE
  5
51C
  8
SIZE
  6
CONTINUOUS
 10
-500.49999999999989
 20
-684.10569391776153
 30
0.0
 11
-500.49999999999989
 21
-674.10569391776153
 31
0.0
  0
LINE
  5
51D
  8
SIZE
  6
CONTINUOUS
 10
-500.49999999999989
 20
-704.10569391776141
 30
0.0
 11
-460.49999999999977
 21
-704.10569391776141
 31
0.0
  0
LINE
  5
51E
  8
SIZE
  6
CONTINUOUS
 10
-520.5
 20
-704.10569391776141
 30
0.0
 11
-646.65007117388996
 21
-704.10569391776141
 31
0.0
  0
LINE
  5
51F
  8
SIZE
  6
CONTINUOUS
 10
-500.49999999999989
 20
-704.10569391776141
 30
0.0
 11
-520.5
 21
-704.10569391776141
 31
0.0
  0
LINE
  5
520
  8
NOTE
  6
CONTINUOUS
 62
     4
 10
-537.81206999999995
 20
-446.742053
 30
0.0
 11
-522.0
 21
-410.0
 31
0.0
  0
LINE
  5
521
  8
NOTE
  6
CONTINUOUS
 62
     4
 10
-522.0
 20
-410.0
 30
0.0
 11
-554.06468099999995
 21
-433.91351600000002
 31
0.0
  0
LINE
  5
522
  8
NOTE
  6
CONTINUOUS
 62
     4
 10
-608.17915700000003
 20
-295.25893999999988
 30
0.0
 11
-592.0
 21
-258.67704700000002
 31
0.0
  0
LINE
  5
523
  8
NOTE
  6
CONTINUOUS
 62
     4
 10
-592.0
 20
-258.67704700000002
 30
0.0
 11
-624.30250699999976
 21
-282.26831699999991
 31
0.0
  0
LINE
  5
524
  8
SIZE
  6
CONTINUOUS
 10
540.5
 20
447.5
 30
0.0
 11
925.34276644988063
 21
447.4999999999996
 31
0.0
  0
LINE
  5
525
  8
SIZE
  6
CONTINUOUS
 10
540.5
 20
-447.5
 30
0.0
 11
925.34276644988063
 21
-447.5
 31
0.0
  0
LINE
  5
526
  8
SIZE
  6
CONTINUOUS
 10
895.34276644988051
 20
447.49999999999989
 30
0.0
 11
895.34276644988051
 21
-447.5
 31
0.0
  0
LINE
  5
527
  8
NOTE
  6
CONTINUOUS
 62
     4
 10
504.14434599999998
 20
487.33363800000001
 30
0.0
 11
500.49999999999989
 21
447.5
 31
0.0
  0
LINE
  5
528
  8
NOTE
  6
CONTINUOUS
 62
     4
 10
500.49999999999989
 20
447.5
 30
0.0
 11
523.57291499999997
 21
480.17476999999991
 31
0.0
  0
TEXT
  5
529
  8
SIZE
  6
CONTINUOUS
 10
-83.657142857142887
 20
-674.10569391776153
 30
0.0
 40
64.0
  1
1001
 41
0.9
  0
TEXT
  5
52A
  8
SIZE
  6
CONTINUOUS
 10
-634.96619897635333
 20
-674.10569391776153
 30
0.0
 40
64.0
  1
20
 41
0.9
  0
TEXT
  5
52B
  8
SIZE
  6
CONTINUOUS
 10
865.34276644988063
 20
-74.057142857142779
 30
0.0
 40
64.0
  1
895
 50
90.0
 41
0.9
  0
LINE
  5
52C
  8
DETAIL
  6
CONTINUOUS
 62
     5
 10
520.5
 20
483.49999999999989
 30
0.0
 11
450.0
 21
483.49999999999989
 31
0.0
  0
LINE
  5
52D
  8
DETAIL
  6
CONTINUOUS
 62
     5
 10
520.5
 20
411.49999999999989
 30
0.0
 11
476.99999999999977
 21
411.49999999999989
 31
0.0
  0
LINE
  5
52E
  8
DETAIL
  6
CONTINUOUS
 62
     5
 10
-520.5
 20
483.49999999999989
 30
0.0
 11
-449.99999999999977
 21
483.49999999999989
 31
0.0
  0
LINE
  5
52F
  8
DETAIL
  6
CONTINUOUS
 62
     5
 10
-520.5
 20
411.49999999999989
 30
0.0
 11
-476.99999999999989
 21
411.49999999999989
 31
0.0
  0
LINE
  5
530
  8
DETAIL
  6
CONTINUOUS
 62
     5
 10
-520.5
 20
-411.49999999999989
 30
0.0
 11
-476.99999999999989
 21
-411.49999999999989
 31
0.0
  0
LINE
  5
531
  8
DETAIL
  6
CONTINUOUS
 62
     5
 10
-520.5
 20
-483.49999999999989
 30
0.0
 11
-449.99999999999977
 21
-483.49999999999989
 31
0.0
  0
LINE
  5
532
  8
DETAIL
  6
CONTINUOUS
 62
     5
 10
520.5
 20
-483.49999999999989
 30
0.0
 11
450.00823357379261
 21
-483.69346711551759
 31
0.0
  0
LINE
  5
533
  8
DETAIL
  6
CONTINUOUS
 62
     5
 10
520.5
 20
-411.49999999999989
 30
0.0
 11
476.99999999999977
 21
-411.49999999999989
 31
0.0
  0
LINE
  5
534
  8
DETAIL
  6
CONTINUOUS
 62
     5
 10
476.99999999999977
 20
-454.0
 30
0.0
 11
477.08129083076471
 21
-483.61916416410492
 31
0.0
  0
LINE
  5
535
  8
DETAIL
  6
CONTINUOUS
 62
     5
 10
517.29999999999984
 20
-411.49999999999989
 30
0.0
 11
517.29999999999984
 21
-441.0
 31
0.0
  0
LINE
  5
536
  8
DETAIL
  6
CONTINUOUS
 62
     5
 10
473.80001205188688
 20
-454.00878247871202
 30
0.0
 11
473.81757694315769
 21
-460.40873427125427
 31
0.0
  0
LINE
  5
537
  8
DETAIL
  6
CONTINUOUS
 62
     5
 10
476.99999999999977
 20
-460.39999999999998
 30
0.0
 11
473.81757694315769
 21
-460.40873427125427
 31
0.0
  0
LINE
  5
538
  8
DETAIL
  6
CONTINUOUS
 62
     5
 10
473.808794497522
 20
-457.20875837498318
 30
0.0
 11
447.00000000000011
 21
-457.20875837498318
 31
0.0
  0
ARC
  5
539
  8
DETAIL
  6
CONTINUOUS
 62
     5
 10
450.0
 20
-480.69347841416192
 30
0.0
 40
3.0
 50
180.0
 51
270.15724987361989
  0
ARC
  5
53A
  8
DETAIL
  6
CONTINUOUS
 62
     5
 10
-449.99999999999977
 20
-480.49999999999989
 30
0.0
 40
3.0
 50
270.0
 51
0.0
  0
LINE
  5
53B
  8
DETAIL
  6
CONTINUOUS
 62
     5
 10
-517.29999999999995
 20
-454.0
 30
0.0
 11
-517.29999999999995
 21
-483.49999999999989
 31
0.0
  0
LINE
  5
53C
  8
DETAIL
  6
CONTINUOUS
 62
     5
 10
-480.19999999999987
 20
-411.5
 30
0.0
 11
-480.19999999999987
 21
-483.49999999999989
 31
0.0
  0
LINE
  5
53D
  8
DETAIL
  6
CONTINUOUS
 62
     5
 10
-476.99999999999989
 20
-454.0
 30
0.0
 11
-476.99999999999989
 21
-460.39999999999992
 31
0.0
  0
LINE
  5
53E
  8
DETAIL
  6
CONTINUOUS
 62
     5
 10
-473.7999999999999
 20
-454.0
 30
0.0
 11
-473.7999999999999
 21
-460.39999999999992
 31
0.0
  0
LINE
  5
53F
  8
DETAIL
  6
CONTINUOUS
 62
     5
 10
-473.7999999999999
 20
-460.39999999999998
 30
0.0
 11
-480.19999999999987
 21
-460.39999999999992
 31
0.0
  0
ARC
  5
540
  8
DETAIL
  6
CONTINUOUS
 62
     5
 10
-449.99999999999977
 20
480.49999999999989
 30
0.0
 40
3.0
 50
0.0
 51
90.0
  0
LINE
  5
541
  8
DETAIL
  6
CONTINUOUS
 62
     5
 10
-476.99999999999989
 20
454.0
 30
0.0
 11
-476.99999999999989
 21
483.49999999999989
 31
0.0
  0
LINE
  5
542
  8
DETAIL
  6
CONTINUOUS
 62
     5
 10
-476.99999999999989
 20
460.39999999999998
 30
0.0
 11
-473.7999999999999
 21
460.39999999999998
 31
0.0
  0
LINE
  5
543
  8
DETAIL
  6
CONTINUOUS
 62
     5
 10
-473.7999999999999
 20
460.39999999999998
 30
0.0
 11
-473.7999999999999
 21
454.0
 31
0.0
  0
LINE
  5
544
  8
DETAIL
  6
CONTINUOUS
 62
     5
 10
-473.7999999999999
 20
457.19999999999999
 30
0.0
 11
-446.99999999999972
 21
457.19999999999999
 31
0.0
  0
ARC
  5
545
  8
DETAIL
  6
CONTINUOUS
 62
     5
 10
450.0
 20
480.49999999999989
 30
0.0
 40
3.0
 50
90.0
 51
180.0
  0
LINE
  5
546
  8
DETAIL
  6
CONTINUOUS
 62
     5
 10
517.29999999999984
 20
454.0
 30
0.0
 11
517.29999999999984
 21
483.49999999999989
 31
0.0
  0
LINE
  5
547
  8
DETAIL
  6
CONTINUOUS
 62
     5
 10
480.19999999999982
 20
411.5
 30
0.0
 11
480.19999999999982
 21
483.49999999999989
 31
0.0
  0
LINE
  5
548
  8
DETAIL
  6
CONTINUOUS
 62
     5
 10
476.99999999999977
 20
454.0
 30
0.0
 11
476.99999999999977
 21
460.39999999999992
 31
0.0
  0
LINE
  5
549
  8
DETAIL
  6
CONTINUOUS
 62
     5
 10
473.79999999999978
 20
454.0
 30
0.0
 11
473.79999999999978
 21
460.39999999999992
 31
0.0
  0
LINE
  5
54A
  8
DETAIL
  6
CONTINUOUS
 62
     5
 10
473.79999999999978
 20
460.39999999999998
 30
0.0
 11
480.19999999999982
 21
460.39999999999998
 31
0.0
  0
LINE
  5
54C
  8
DETAIL
  6
CONTINUOUS
 62
     5
 10
-517.29999999999995
 20
411.49999999999989
 30
0.0
 11
-517.29999999999995
 21
441.0
 31
0.0
  0
CIRCLE
  5
58B
  8
FIX
  6
CONTINUOUS
 62
    11
 10
500.49999999999989
 20
447.5
 30
0.0
 40
6.5
  0
CIRCLE
  5
58C
  8
FIX
  6
CONTINUOUS
 62
    11
 10
500.49999999999989
 20
-447.5
 30
0.0
 40
6.5
  0
CIRCLE
  5
58D
  8
FIX
  6
CONTINUOUS
 62
    11
 10
-500.49999999999989
 20
-447.5
 30
0.0
 40
6.5
  0
CIRCLE
  5
58E
  8
FIX
  6
CONTINUOUS
 62
    11
 10
-500.49999999999989
 20
447.5
 30
0.0
 40
6.5
  0
ENDSEC
  0
EOF
