  0
SECTION
  2
HEADER
  9
$ACADVER
  1
AC1009
  9
$INSBASE
 10
0.0
 20
0.0
 30
0.0
  9
$EXTMIN
 10
-1956.719893005906
 20
-1286.3689999999999
 30
0.0
  9
$EXTMAX
 10
2361.7393796342062
 20
1363.013230299259
 30
50.0
  9
$LIMMIN
 10
-2970.0
 20
-2100.0
  9
$LIMMAX
 10
2970.0
 20
2100.0
  9
$ORTHOMODE
 70
     1
  9
$REGENMODE
 70
     1
  9
$FILLMODE
 70
     1
  9
$QTEXTMODE
 70
     0
  9
$MIRRTEXT
 70
     0
  9
$DRAGMODE
 70
     2
  9
$LTSCALE
 40
20.0
  9
$OSMODE
 70
    55
  9
$ATTMODE
 70
     1
  9
$TEXTSIZE
 40
64.0
  9
$TRACEWID
 40
0.05
  9
$TEXTSTYLE
  7
STANDARD
  9
$CLAYER
  8
SIZE
  9
$CELTYPE
  6
CONTINUOUS
  9
$CECOLOR
 62
     7
  9
$DIMSCALE
 40
1.0
  9
$DIMASZ
 40
12.0
  9
$DIMEXO
 40
20.0
  9
$DIMDLI
 40
200.0
  9
$DIMRND
 40
0.0
  9
$DIMDLE
 40
0.0
  9
$DIMEXE
 40
20.0
  9
$DIMTP
 40
0.0
  9
$DIMTM
 40
0.0
  9
$DIMTXT
 40
64.0
  9
$DIMCEN
 40
0.09
  9
$DIMTSZ
 40
0.0
  9
$DIMTOL
 70
     0
  9
$DIMLIM
 70
     0
  9
$DIMTIH
 70
     0
  9
$DIMTOH
 70
     0
  9
$DIMSE1
 70
     0
  9
$DIMSE2
 70
     0
  9
$DIMTAD
 70
     1
  9
$DIMZIN
 70
     8
  9
$DIMBLK
  1

  9
$DIMASO
 70
     1
  9
$DIMSHO
 70
     0
  9
$DIMPOST
  1

  9
$DIMAPOST
  1

  9
$DIMALT
 70
     0
  9
$DIMALTD
 70
     2
  9
$DIMALTF
 40
25.399999999999999
  9
$DIMLFAC
 40
1.0
  9
$DIMTOFL
 70
     1
  9
$DIMTVP
 40
0.0
  9
$DIMTIX
 70
     1
  9
$DIMSOXD
 70
     0
  9
$DIMSAH
 70
     0
  9
$DIMBLK1
  1

  9
$DIMBLK2
  1

  9
$DIMSTYLE
  2
STANDARD
  9
$DIMCLRD
 70
     7
  9
$DIMCLRE
 70
     7
  9
$DIMCLRT
 70
     7
  9
$DIMTFAC
 40
1.0
  9
$DIMGAP
 40
25.0
  9
$LUNITS
 70
     2
  9
$LUPREC
 70
     4
  9
$SKETCHINC
 40
0.1
  9
$FILLETRAD
 40
3.0
  9
$AUNITS
 70
     1
  9
$AUPREC
 70
     3
  9
$MENU
  1
ACAD
  9
$ELEVATION
 40
0.0
  9
$PELEVATION
 40
0.0
  9
$THICKNESS
 40
50.0
  9
$LIMCHECK
 70
     0
  9
$BLIPMODE
 70
     0
  9
$CHAMFERA
 40
0.0
  9
$CHAMFERB
 40
0.0
  9
$SKPOLY
 70
     0
  9
$TDCREATE
 40
2453019.6230103709
  9
$TDUPDATE
 40
2456305.621470382
  9
$TDINDWG
 40
1.6668356481
  9
$TDUSRTIMER
 40
1.666835463
  9
$USRTIMER
 70
     1
  9
$ANGBASE
 50
0.0
  9
$ANGDIR
 70
     0
  9
$PDMODE
 70
     3
  9
$PDSIZE
 40
-2.0
  9
$PLINEWID
 40
0.0
  9
$COORDS
 70
     1
  9
$SPLFRAME
 70
     0
  9
$SPLINETYPE
 70
     6
  9
$SPLINESEGS
 70
     8
  9
$ATTDIA
 70
     0
  9
$ATTREQ
 70
     1
  9
$HANDLING
 70
     1
  9
$HANDSEED
  5
23A
  9
$SURFTAB1
 70
     6
  9
$SURFTAB2
 70
     6
  9
$SURFTYPE
 70
     6
  9
$SURFU
 70
     6
  9
$SURFV
 70
     6
  9
$UCSNAME
  2

  9
$UCSORG
 10
0.0
 20
0.0
 30
0.0
  9
$UCSXDIR
 10
1.0
 20
0.0
 30
0.0
  9
$UCSYDIR
 10
0.0
 20
1.0
 30
0.0
  9
$PUCSNAME
  2

  9
$PUCSORG
 10
0.0
 20
0.0
 30
0.0
  9
$PUCSXDIR
 10
1.0
 20
0.0
 30
0.0
  9
$PUCSYDIR
 10
0.0
 20
1.0
 30
0.0
  9
$USERI1
 70
     0
  9
$USERI2
 70
     0
  9
$USERI3
 70
     0
  9
$USERI4
 70
     0
  9
$USERI5
 70
     0
  9
$USERR1
 40
20.0
  9
$USERR2
 40
0.0
  9
$USERR3
 40
0.0
  9
$USERR4
 40
0.0
  9
$USERR5
 40
0.0
  9
$WORLDVIEW
 70
     1
  9
$SHADEDGE
 70
     3
  9
$SHADEDIF
 70
    70
  9
$TILEMODE
 70
     1
  9
$MAXACTVP
 70
    48
  9
$PLIMCHECK
 70
     0
  9
$PEXTMIN
 10
-1.0000000000000000E+020
 20
-1.0000000000000000E+020
 30
-1.0000000000000000E+020
  9
$PEXTMAX
 10
1.0000000000000000E+020
 20
1.0000000000000000E+020
 30
1.0000000000000000E+020
  9
$PLIMMIN
 10
0.0
 20
0.0
  9
$PLIMMAX
 10
12.0
 20
9.0
  9
$UNITMODE
 70
     0
  9
$VISRETAIN
 70
     0
  9
$PLINEGEN
 70
     0
  9
$PSLTSCALE
 70
     0
  0
ENDSEC
  0
SECTION
  2
TABLES
  0
TABLE
  2
VPORT
 70
     1
  0
VPORT
  2
*ACTIVE
 70
     0
 10
0.0
 20
0.0
 11
1.0
 21
1.0
 12
146.73902423690379
 22
223.088300660746
 13
0.0
 23
0.0
 14
1.0
 24
1.0
 15
0.0
 25
0.0
 16
0.0
 26
0.0
 36
1.0
 17
0.0
 27
0.0
 37
0.0
 40
2874.7518136682502
 41
1.6930294906166219
 42
50.0
 43
0.0
 44
0.0
 50
0.0
 51
0.0
 71
     0
 72
  1000
 73
     1
 74
     0
 75
     0
 76
     0
 77
     0
 78
     0
  0
ENDTAB
  0
TABLE
  2
LTYPE
 70
     6
  0
LTYPE
  2
CONTINUOUS
 70
     0
  3
実線
 72
    65
 73
     0
 40
0.0
  0
LTYPE
  2
DASHDOT
 70
     0
  3
____ _ ____ _ ____ _ ____ _ ____ _ ____ _ ____
 72
    65
 73
     4
 40
5.5
 49
4.0
 49
-0.6
 49
0.3
 49
-0.6
  0
LTYPE
  2
DASHED
 70
     0
  3
-- -- -- -- -- -- -- -- -- -- -- -- -- -- --
 72
    65
 73
     2
 40
0.75
 49
0.5
 49
-0.25
  0
LTYPE
  2
CONTINOUS
 70
     0
  3
Solid line
 72
    65
 73
     0
 40
0.0
  0
LTYPE
  2
DOT
 70
     0
  3
...............................................
 72
    65
 73
     2
 40
0.8
 49
0.5
 49
-0.3
  0
ENDTAB
  0
TABLE
  2
LAYER
 70
    12
  0
LAYER
  2
0
 70
     0
 62
     7
  6
CONTINUOUS
  0
LAYER
  2
SIZE
 70
     0
 62
    30
  6
CONTINUOUS
  0
LAYER
  2
DEFPOINTS
 70
     0
 62
     7
  6
CONTINUOUS
  0
LAYER
  2
NOTE
 70
     0
 62
     4
  6
CONTINUOUS
  0
LAYER
  2
OUTLINE
 70
     0
 62
     3
  6
CONTINUOUS
  0
LAYER
  2
DETAIL
 70
     0
 62
     5
  6
CONTINUOUS
  0
LAYER
  2
BASIS
 70
     0
 62
     6
  6
DASHDOT
  0
LAYER
  2
ARRANGE
 70
     0
 62
     1
  6
CONTINUOUS
  0
LAYER
  2
FIX
 70
     0
 62
    11
  6
CONTINUOUS
  0
LAYER
  2
SERVICESPACE
 70
     0
 62
     2
  6
DASHDOT
  0
LAYER
  2
ETC
 70
     0
 62
    61
  6
CONTINUOUS
  0
LAYER
  2
SYMBOLLINE
 70
     0
 62
    15
  6
CONTINUOUS
  0
ENDTAB
  0
TABLE
  2
STYLE
 70
     2
  0
STYLE
  2
STANDARD
 70
     0
 40
64.0
 41
0.9
 50
0.0
 71
     0
 42
64.0
  3
SIMPLEX.shx
  4
BIGFONT.shx
  0
STYLE
  2
ANNOTATIVE
 70
     0
 40
0.0
 41
1.0
 50
0.0
 71
     0
 42
0.2
  3
txt
  4

  0
ENDTAB
  0
TABLE
  2
VIEW
 70
     1
  0
VIEW
  2
ALL
 70
     0
 40
4282.6198079999976
 10
0.0
 20
41.309904000000003
 41
5940.0
 11
0.0
 21
0.0
 31
1.0
 12
0.0
 22
0.0
 32
0.0
 42
50.0
 43
0.0
 44
0.0
 50
0.0
 71
     0
  0
ENDTAB
  0
TABLE
  2
UCS
 70
     0
  0
ENDTAB
  0
TABLE
  2
APPID
 70
    18
  0
APPID
  2
ACAD
 70
     0
  0
APPID
  2
ACADANNOTATIVE
 70
     0
  0
APPID
  2
AUTOCAD_POSTSCRIPT_FIGURE
 70
     0
  0
APPID
  2
ACAD_EXEMPT_FROM_CAD_STANDARDS
 70
     0
  0
APPID
  2
ACAD_PSEXT
 70
     0
  0
APPID
  2
ACAUTHENVIRON
 70
     0
  0
APPID
  2
GENIUS_GENOENT_13
 70
     0
  0
APPID
  2
GENIUS_GENCFG_13
 70
     0
  0
APPID
  2
GENIUS_GENCFG0_13
 70
     0
  0
APPID
  2
GENIUS_GENCFG1_13
 70
     0
  0
APPID
  2
GENIUS_GENCFG2_13
 70
     0
  0
APPID
  2
GENIUS_GENCFG3_13
 70
     0
  0
APPID
  2
GENIUS_GENCFG4_13
 70
     0
  0
APPID
  2
GENIUS_GEVCFG0_13
 70
     0
  0
APPID
  2
CONTENTBLOCKICON
 70
     0
  0
APPID
  2
CONTENTBLOCKDESCRIPTION
 70
     0
  0
APPID
  2
ACAD_NAV_VCDISPLAY
 70
     0
  0
APPID
  2
ACAD_MLEADERVER
 70
     0
  0
ENDTAB
  0
TABLE
  2
DIMSTYLE
 70
     2
  0
DIMSTYLE
  2
STANDARD
 70
     0
  3

  4

  5

  6

  7

 40
1.0
 41
0.18
 42
0.0625
 43
0.38
 44
0.18
 45
0.0
 46
0.0
 47
0.0
 48
0.0
140
0.18
141
0.09
142
0.0
143
25.399999999999999
144
1.0
145
0.0
146
1.0
147
0.09
 71
     0
 72
     0
 73
     1
 74
     1
 75
     0
 76
     0
 77
     0
 78
     0
170
     0
171
     2
172
     0
173
     0
174
     0
175
     0
176
     7
177
     7
178
     7
  0
DIMSTYLE
  2
ANNOTATIVE
 70
     0
  3

  4

  5

  6

  7

 40
1.0
 41
0.18
 42
0.0625
 43
0.38
 44
0.18
 45
0.0
 46
0.0
 47
0.0
 48
0.0
140
0.18
141
0.09
142
0.0
143
25.399999999999999
144
1.0
145
0.0
146
1.0
147
0.09
 71
     0
 72
     0
 73
     1
 74
     1
 75
     0
 76
     0
 77
     0
 78
     0
170
     0
171
     2
172
     0
173
     0
174
     0
175
     0
176
     0
177
     0
178
     0
  0
ENDTAB
  0
ENDSEC
  0
SECTION
  2
BLOCKS
  0
BLOCK
  8
0
  2
$MODEL_SPACE
 70
     0
 10
0.0
 20
0.0
 30
0.0
  3
$MODEL_SPACE
  1

  0
ENDBLK
  5
6D
  8
0
  0
BLOCK
 67
     1
  8
0
  2
$PAPER_SPACE
 70
     0
 10
0.0
 20
0.0
 30
0.0
  3
$PAPER_SPACE
  1

  0
ENDBLK
  5
69
 67
     1
  8
0
  0
BLOCK
  8
0
  2
_ORIGIN
 70
     0
 10
0.0
 20
0.0
 30
0.0
  3
_ORIGIN
  1

  0
CIRCLE
  5
93
  8
0
  6
CONTINUOUS
 62
     7
 10
0.0
 20
0.0
 30
0.0
 40
0.5
  0
LINE
  5
94
  8
0
  6
CONTINUOUS
 62
     7
 10
0.0
 20
0.0
 30
0.0
 11
-1.0
 21
0.0
 31
0.0
  0
ENDBLK
  5
95
  8
0
  0
ENDSEC
  0
SECTION
  2
ENTITIES
  0
LINE
  5
96
  8
NOTE
  6
CONTINUOUS
 62
     4
 10
-455.23235399999982
 20
-33.4691602460382
 30
0.0
 11
-330.0111280000001
 21
-33.4691602460382
 31
0.0
  0
LINE
  5
97
  8
NOTE
  6
CONTINUOUS
 62
     4
 10
-651.0
 20
-219.51746224603809
 30
0.0
 11
-455.23235399999982
 21
-33.4691602460382
 31
0.0
  0
TEXT
  5
98
  8
NOTE
  6
CONTINUOUS
 62
     4
 10
-512.43598799999972
 20
751.45047199999942
 30
0.0
 40
64.0
  1
OA
 41
0.9
  0
TEXT
  5
99
  8
NOTE
  6
CONTINUOUS
 62
     4
 10
416.13328499999989
 20
746.21544699999924
 30
0.0
 40
64.0
  1
EA
 41
0.9
  0
TEXT
  5
9A
  8
NOTE
  6
CONTINUOUS
 62
     4
 10
415.05102299999999
 20
-817.50976399999979
 30
0.0
 40
64.0
  1
RA
 41
0.9
  0
TEXT
  5
9B
  8
NOTE
  6
CONTINUOUS
 62
     4
 10
-146.24133346845699
 20
-812.81603099999995
 30
0.0
 40
64.0
  1
SA
 41
0.9
  0
TEXT
  5
9C
  8
NOTE
  6
CONTINUOUS
 62
     4
 10
-419.83493800000002
 20
-16.6895352460383
 30
0.0
 40
64.0
  1
EL
 41
0.9
  0
LINE
  5
9D
  8
BASIS
  6
DASHDOT
 62
     6
 10
-713.75455599999964
 20
0.0
 30
0.0
 11
692.36219799999981
 21
0.0
 31
0.0
  0
LINE
  5
9E
  8
BASIS
  6
DASHDOT
 62
     6
 10
0.0
 20
977.36477399999944
 30
0.0
 11
0.0
 21
-974.55804089803678
 31
0.0
  0
TEXT
  5
9F
  8
ETC
  6
CONTINUOUS
 62
    61
 10
1416.1320939199211
 20
1103.8659999999991
 30
0.0
 40
64.0
  1
ロスナイ
 41
0.9
  0
TEXT
  5
A0
  8
ETC
  6
CONTINUOUS
 62
    61
 10
1426.425093919921
 20
1218.79285
 30
0.0
 40
64.0
  1
LGH-N100RKS-50_1
 41
0.9
  0
CIRCLE
  5
A1
  8
ARRANGE
  6
CONTINUOUS
 62
     1
 10
0.0
 20
0.0
 30
0.0
 40
40.0
  0
LINE
  5
A2
  8
DETAIL
  6
CONTINUOUS
 62
     5
 10
-615.5
 20
752.49999999999943
 30
0.0
 11
-651.5
 21
752.49999999999943
 31
0.0
  0
LINE
  5
A3
  8
DETAIL
  6
CONTINUOUS
 62
     5
 10
-615.5
 20
812.49999999999943
 30
0.0
 11
-651.5
 21
812.49999999999943
 31
0.0
  0
LINE
  5
A4
  8
DETAIL
  6
CONTINUOUS
 62
     5
 10
615.5
 20
752.40453799999943
 30
0.0
 11
651.5
 21
752.40453799999943
 31
0.0
  0
LINE
  5
A5
  8
DETAIL
  6
CONTINUOUS
 62
     5
 10
615.5
 20
812.40453799999943
 30
0.0
 11
651.5
 21
812.40453799999943
 31
0.0
  0
LINE
  5
A6
  8
DETAIL
  6
CONTINUOUS
 62
     5
 10
615.5
 20
-333.50000000000028
 30
0.0
 11
651.5
 21
-333.50000000000028
 31
0.0
  0
LINE
  5
A7
  8
DETAIL
  6
CONTINUOUS
 62
     5
 10
615.5
 20
-393.50000000000051
 30
0.0
 11
651.5
 21
-393.50000000000051
 31
0.0
  0
LINE
  5
A8
  8
DETAIL
  6
CONTINUOUS
 62
     5
 10
-615.5
 20
-333.50000000000028
 30
0.0
 11
-651.49996899999951
 21
-333.50000000000028
 31
0.0
  0
LINE
  5
A9
  8
DETAIL
  6
CONTINUOUS
 62
     5
 10
-615.5
 20
-393.50000000000051
 30
0.0
 11
-651.49996899999951
 21
-393.50000000000051
 31
0.0
  0
LINE
  5
AA
  8
SIZE
  6
CONTINUOUS
 62
    30
 10
389.0
 20
-1122.65056
 30
0.0
 11
22.233452999999599
 21
-1122.65056
 31
0.0
  0
LINE
  5
AB
  8
SIZE
  6
CONTINUOUS
 62
    30
 10
377.99999999999949
 20
-1256.368999999999
 30
0.0
 11
22.233452999999599
 21
-1256.368999999999
 31
0.0
  0
LINE
  5
AC
  8
SERVICESPACE
  6
DASHDOT
 62
     2
 10
-767.0
 20
461.99999999999937
 30
0.0
 11
-767.0
 21
11.999999999999771
 31
0.0
  0
LINE
  5
AD
  8
SERVICESPACE
  6
DASHDOT
 62
     2
 10
-1207.4999999999991
 20
461.99999999999937
 30
0.0
 11
-767.0
 21
461.99999999999937
 31
0.0
  0
LINE
  5
AE
  8
SERVICESPACE
  6
DASHDOT
 62
     2
 10
-1207.4999999999991
 20
11.999999999999771
 30
0.0
 11
-767.0
 21
11.999999999999771
 31
0.0
  0
LINE
  5
AF
  8
SERVICESPACE
  6
DASHDOT
 62
     2
 10
-1207.4999999999991
 20
461.99999999999937
 30
0.0
 11
-1207.4999999999991
 21
11.999999999999771
 31
0.0
  0
TEXT
  5
B0
  8
NOTE
  6
CONTINUOUS
 62
     4
 10
-1069.578
 20
275.61246989307011
 30
0.0
 40
64.0
  1
点検口
 41
0.9
  0
LINE
  5
B1
  8
DETAIL
  6
CONTINOUS
 62
     5
 10
-633.49999999999955
 20
101.9999999999995
 30
0.0
 11
-615.5
 21
101.9999999999995
 31
0.0
  0
LINE
  5
B2
  8
DETAIL
  6
CONTINOUS
 62
     5
 10
-633.49999999999955
 20
401.9999999999992
 30
0.0
 11
-633.49999999999955
 21
101.9999999999995
 31
0.0
  0
TEXT
  5
B3
  8
NOTE
  6
CONTINUOUS
 62
     4
 10
-403.29063000000002
 20
281.52058854578689
 30
0.0
 40
64.0
  1
CL
 41
0.9
  0
LINE
  5
B4
  8
NOTE
  6
CONTINUOUS
 62
     4
 10
-418.07313399999981
 20
265.85042054578662
 30
0.0
 11
-292.85190899999998
 21
265.85042054578662
 31
0.0
  0
LINE
  5
B5
  8
NOTE
  6
CONTINUOUS
 62
     4
 10
-639.5
 20
-487.00000000000011
 30
0.0
 11
-982.55582750518568
 21
-973.65323995815447
 31
0.0
  0
LINE
  5
B6
  8
NOTE
  6
CONTINUOUS
 62
     4
 10
-982.55582750518568
 20
-973.65323995815447
 30
0.0
 11
-1275.3651805051841
 21
-973.65323995815447
 31
0.0
  0
TEXT
  5
B7
  8
NOTE
  6
CONTINUOUS
 62
     4
 10
-1245.344180505183
 20
-934.71094195815442
 30
0.0
 40
64.0
  1
D \U+03C632
 41
0.9
  0
LINE
  5
B8
  8
NOTE
  6
CONTINUOUS
 62
     4
 10
-635.49999999999955
 20
782.49999999999943
 30
0.0
 11
-757.61134899999979
 21
1281.3609999999981
 31
0.0
  0
TEXT
  5
B9
  8
NOTE
  6
CONTINUOUS
 62
     4
 10
-1391.779246245389
 20
1299.013230299259
 30
0.0
 40
64.0
  1
AH 4-\U+03C615\U+00D730
 41
0.9
  0
LINE
  5
BA
  8
DETAIL
  6
CONTINOUS
 62
     5
 10
-730.49999999999989
 20
-0.0894661270273364
 30
0.0
 11
-730.49999999999989
 21
-219.51746224603809
 31
0.0
  0
TEXT
  5
BB
  8
NOTE
  6
CONTINUOUS
 62
     4
 10
-1942.5158930059049
 20
-703.22878523231805
 30
0.0
 40
64.0
  1
CW　PT1/2オネジ(\U+03C621.7)
 41
0.9
  0
LINE
  5
BC
  8
NOTE
  6
CONTINUOUS
 62
     4
 10
-700.60813107354966
 20
-429.32174102965882
 30
0.0
 11
-941.49129300590596
 21
-747.06570523231835
 31
0.0
  0
LINE
  5
BD
  8
NOTE
  6
CONTINUOUS
 62
     4
 10
-941.49129300590596
 20
-747.06570523231835
 30
0.0
 11
-1956.719893005906
 21
-747.06570523231835
 31
0.0
  0
TEXT
  5
BE
  8
NOTE
  6
CONTINUOUS
 62
     4
 10
-1520.292999999999
 20
1164.971859999999
 30
0.0
 40
64.0
  1
メンテナンスカバー
 41
0.9
  0
LINE
  5
BF
  8
DETAIL
  6
CONTINUOUS
 62
     5
 10
-639.5
 20
-473.15000000000032
 30
0.0
 11
-639.5
 21
-494.85000000000019
 31
0.0
  0
LINE
  5
C0
  8
DETAIL
  6
CONTINUOUS
 62
     5
 10
-639.5
 20
-473.15000000000032
 30
0.0
 11
-633.49999999999955
 21
-473.15000000000032
 31
0.0
  0
LINE
  5
C1
  8
DETAIL
  6
CONTINUOUS
 62
     5
 10
-639.5
 20
-494.85000000000019
 30
0.0
 11
-633.49999999999955
 21
-494.85000000000019
 31
0.0
  0
LINE
  5
C2
  8
SERVICESPACE
  6
DASHDOT
 62
     2
 10
-1257.4999999999991
 20
836.99999999999932
 30
0.0
 11
-1257.4999999999991
 21
-836.99999999999932
 31
0.0
  0
LINE
  5
C3
  8
NOTE
  6
CONTINUOUS
 62
     4
 10
-659.36393736319724
 20
-0.0303922860130115
 30
0.0
 11
-418.07313399999981
 21
265.85042054578662
 31
0.0
  0
LINE
  5
C4
  8
BASIS
  6
DASHDOT
 62
     6
 10
460.0
 20
959.08195399999852
 30
0.0
 11
460.0
 21
792.20506783162386
 31
0.0
  0
LINE
  5
C5
  8
BASIS
  6
DASHDOT
 62
     6
 10
-459.99999999999972
 20
953.69061899999986
 30
0.0
 11
-459.99999999999972
 21
780.59985412515482
 31
0.0
  0
LINE
  5
C6
  8
DETAIL
  6
CONTINOUS
 62
     5
 10
-651.5
 20
812.49999999999943
 30
0.0
 11
-651.5
 21
752.49999999999943
 31
0.0
  0
LINE
  5
C7
  8
DETAIL
  6
CONTINOUS
 62
     5
 10
651.5
 20
752.40453799999943
 30
0.0
 11
651.5
 21
812.40453799999943
 31
0.0
  0
LINE
  5
C8
  8
DETAIL
  6
CONTINOUS
 62
     5
 10
651.5
 20
-393.50000000000051
 30
0.0
 11
651.5
 21
-333.50000000000028
 31
0.0
  0
LINE
  5
C9
  8
DETAIL
  6
CONTINOUS
 62
     5
 10
-615.5
 20
836.99999999999932
 30
0.0
 11
615.5
 21
836.99999999999932
 31
0.0
  0
LINE
  5
CA
  8
DETAIL
  6
CONTINOUS
 62
     5
 10
-615.5
 20
-836.99999999999932
 30
0.0
 11
615.5
 21
-836.99999999999932
 31
0.0
  0
LINE
  5
CB
  8
DETAIL
  6
CONTINUOUS
 62
     5
 10
-639.5
 20
-471.00000000000011
 30
0.0
 11
-639.5
 21
-504.5433070866145
 31
0.0
  0
LINE
  5
CC
  8
NOTE
  6
CONTINUOUS
 62
     4
 10
-888.77110899999957
 20
1155.868999999999
 30
0.0
 11
-633.49999999999955
 21
401.9999999999992
 31
0.0
  0
LINE
  5
CD
  8
NOTE
  6
CONTINUOUS
 62
     4
 10
-1522.5389999999991
 20
1155.868999999999
 30
0.0
 11
-890.27110900000002
 21
1155.868999999999
 31
0.0
  0
LINE
  5
CE
  8
NOTE
  6
CONTINUOUS
 62
     4
 10
-1401.631419682561
 20
1281.3609999999981
 30
0.0
 11
-759.11134899999968
 21
1281.3609999999981
 31
0.0
  0
LINE
  5
CF
  8
SERVICESPACE
  6
DASHDOT
 62
     2
 10
-615.5
 20
836.99999999999932
 30
0.0
 11
-1257.4999999999991
 21
836.99999999999932
 31
0.0
  0
LINE
  5
D0
  8
SERVICESPACE
  6
DASHDOT
 62
     2
 10
-616.99999999999955
 20
-836.99999999999932
 30
0.0
 11
-1257.4999999999991
 21
-836.99999999999932
 31
0.0
  0
LINE
  5
D1
  8
SIZE
  6
CONTINUOUS
 62
    30
 10
-767.0
 20
534.73114118155661
 30
0.0
 11
-1232.110999999999
 21
534.73114118155661
 31
0.0
  0
LINE
  5
D2
  8
SIZE
  6
CONTINUOUS
 62
    30
 10
1396.706963304671
 20
-913.99999999999955
 30
0.0
 11
1396.706963304671
 21
-1053.2360000000001
 31
0.0
  0
LINE
  5
D3
  8
SIZE
  6
CONTINUOUS
 62
    30
 10
1396.706963304671
 20
913.99999999999909
 30
0.0
 11
1396.706963304671
 21
1069.82872
 31
0.0
  0
LINE
  5
D4
  8
DETAIL
  6
CONTINOUS
 62
     5
 10
338.99999999999949
 20
-916.00000000000011
 30
0.0
 11
581.0
 21
-916.00000000000011
 31
0.0
  0
LINE
  5
D5
  8
DETAIL
  6
CONTINUOUS
 62
     5
 10
589.0
 20
-836.99999999999932
 30
0.0
 11
581.0
 21
-916.00000000000011
 31
0.0
  0
LINE
  5
D6
  8
DETAIL
  6
CONTINUOUS
 62
     5
 10
330.99999999999949
 20
-836.99999999999932
 30
0.0
 11
338.99999999999949
 21
-916.00000000000011
 31
0.0
  0
LINE
  5
D7
  8
DETAIL
  6
CONTINUOUS
 62
     5
 10
-229.0
 20
-836.99999999999932
 30
0.0
 11
-221.0
 21
-916.00000000000011
 31
0.0
  0
LINE
  5
D8
  8
DETAIL
  6
CONTINUOUS
 62
     5
 10
29.0
 20
-836.99999999999932
 30
0.0
 11
20.999999999999758
 21
-916.00000000000011
 31
0.0
  0
LINE
  5
D9
  8
DETAIL
  6
CONTINOUS
 62
     5
 10
-221.0
 20
-916.00000000000011
 30
0.0
 11
20.999999999999758
 21
-916.00000000000011
 31
0.0
  0
LINE
  5
DA
  8
DETAIL
  6
CONTINOUS
 62
     5
 10
-339.0
 20
915.99999999999875
 30
0.0
 11
-580.99999999999955
 21
915.99999999999875
 31
0.0
  0
LINE
  5
DB
  8
DETAIL
  6
CONTINUOUS
 62
     5
 10
-588.99999999999966
 20
836.99999999999932
 30
0.0
 11
-580.99999999999955
 21
915.99999999999875
 31
0.0
  0
LINE
  5
DC
  8
DETAIL
  6
CONTINUOUS
 62
     5
 10
-331.0
 20
836.99999999999932
 30
0.0
 11
-339.0
 21
915.99999999999875
 31
0.0
  0
LINE
  5
DD
  8
DETAIL
  6
CONTINUOUS
 62
     5
 10
589.0
 20
836.99999999999932
 30
0.0
 11
581.0
 21
915.99999999999875
 31
0.0
  0
LINE
  5
DE
  8
DETAIL
  6
CONTINUOUS
 62
     5
 10
330.99999999999949
 20
836.99999999999932
 30
0.0
 11
338.99999999999949
 21
915.99999999999875
 31
0.0
  0
LINE
  5
DF
  8
DETAIL
  6
CONTINOUS
 62
     5
 10
581.0
 20
915.99999999999875
 30
0.0
 11
338.99999999999949
 21
915.99999999999875
 31
0.0
  0
LINE
  5
E0
  8
DETAIL
  6
CONTINOUS
 62
     5
 10
-651.49996899999951
 20
-333.50000000000028
 30
0.0
 11
-651.49996899999951
 21
-393.50000000000051
 31
0.0
  0
LINE
  5
E1
  8
DETAIL
  6
CONTINUOUS
 62
     5
 10
615.5
 20
836.99999999999932
 30
0.0
 11
615.5
 21
-836.99999999999932
 31
0.0
  0
LINE
  5
E2
  8
DETAIL
  6
CONTINUOUS
 62
     5
 10
-615.5
 20
839.99999999999955
 30
0.0
 11
-615.5
 21
-834.00000000000045
 31
0.0
  0
LINE
  5
E3
  8
BASIS
  6
DASHDOT
 62
     6
 10
-703.77759300000002
 20
236.99999999999949
 30
0.0
 11
-1356.088999999999
 21
236.99999999999949
 31
0.0
  0
TEXT
  5
E4
  8
NOTE
  6
CONTINUOUS
 62
     4
 10
-1180.659999999998
 20
900.79644799999983
 30
0.0
 40
64.0
  1
メンテスペース
 41
0.9
  0
CIRCLE
  5
E5
  8
FIX
  6
CONTINUOUS
 62
    11
 10
-635.49999999999955
 20
782.49999999999943
 30
0.0
 40
7.5
  0
CIRCLE
  5
E6
  8
FIX
  6
CONTINUOUS
 62
    11
 10
-635.49999999999955
 20
-363.50000000000051
 30
0.0
 40
7.5
  0
CIRCLE
  5
E7
  8
FIX
  6
CONTINUOUS
 62
    11
 10
635.47144299999945
 20
782.49999999999943
 30
0.0
 40
7.5
  0
CIRCLE
  5
E8
  8
FIX
  6
CONTINUOUS
 62
    11
 10
635.5
 20
-363.50000000000051
 30
0.0
 40
7.5
  0
POINT
  5
E9
  8
ARRANGE
  6
CONTINUOUS
 62
     1
 10
0.0
 20
0.0
 30
0.0
  0
LINE
  5
EA
  8
SIZE
  6
CONTINUOUS
 62
    30
 10
-1277.4999999999991
 20
836.99999999999932
 30
0.0
 11
-1547.8187199999991
 21
836.99999999999932
 31
0.0
  0
LINE
  5
EB
  8
SIZE
  6
CONTINUOUS
 62
    30
 10
-1376.088999999999
 20
236.99999999999949
 30
0.0
 11
-1547.8187199999991
 21
236.99999999999949
 31
0.0
  0
LINE
  5
EC
  8
SIZE
  6
CONTINUOUS
 62
    30
 10
-1517.8187199999991
 20
834.99999999999943
 30
0.0
 11
-1517.8187199999991
 21
236.99999999999949
 31
0.0
  0
TEXT
  5
ED
  8
SIZE
  6
CONTINUOUS
 62
    30
 10
-1549.8187199999991
 20
478.10409650106419
 30
0.0
 40
64.0
  1
600
 50
90.0
 41
0.9
  0
LINE
  5
EE
  8
SIZE
  6
CONTINUOUS
 62
    30
 10
-767.0
 20
480.98523395162317
 30
0.0
 11
-767.0
 21
566.60919059694641
 31
0.0
  0
LINE
  5
EF
  8
SIZE
  6
CONTINUOUS
 62
    30
 10
-615.5
 20
534.73114118155661
 30
0.0
 11
-691.25
 21
534.73114118155661
 31
0.0
  0
LINE
  5
F0
  8
SIZE
  6
CONTINUOUS
 62
    30
 10
-765.0
 20
534.73114118155661
 30
0.0
 11
-691.25
 21
534.73114118155661
 31
0.0
  0
TEXT
  5
F1
  8
SIZE
  6
CONTINUOUS
 62
    30
 10
-1183.6749999999979
 20
564.60685718155651
 30
0.0
 40
64.0
  1
150～250
 41
0.9
  0
LINE
  5
F2
  8
SIZE
  6
CONTINUOUS
 62
    30
 10
-615.5
 20
856.99999999999943
 30
0.0
 11
-615.5
 21
1027.5647220000001
 31
0.0
  0
LINE
  5
F3
  8
SIZE
  6
CONTINUOUS
 62
    30
 10
-1257.4999999999991
 20
856.99999999999943
 30
0.0
 11
-1257.4999999999991
 21
1027.5647220000001
 31
0.0
  0
LINE
  5
F4
  8
SIZE
  6
CONTINUOUS
 62
    30
 10
-617.49999999999966
 20
997.56472199999928
 30
0.0
 11
-936.5
 21
997.56472199999928
 31
0.0
  0
LINE
  5
F5
  8
SIZE
  6
CONTINUOUS
 62
    30
 10
-1255.4999999999991
 20
997.56472199999928
 30
0.0
 11
-936.5
 21
997.56472199999928
 31
0.0
  0
TEXT
  5
F6
  8
SIZE
  6
CONTINUOUS
 62
    30
 10
-1196.9897800000001
 20
1033.4574749999999
 30
0.0
 40
64.0
  1
600以上
 41
0.9
  0
LINE
  5
F7
  8
SIZE
  6
CONTINUOUS
 62
    30
 10
615.5
 20
856.99999999999943
 30
0.0
 11
615.5
 21
1254.224999999999
 31
0.0
  0
LINE
  5
F8
  8
SIZE
  6
CONTINUOUS
 62
    30
 10
-615.5
 20
856.99999999999943
 30
0.0
 11
-615.5
 21
1254.224999999999
 31
0.0
  0
LINE
  5
F9
  8
SIZE
  6
CONTINUOUS
 62
    30
 10
613.49999999999989
 20
1224.224999999999
 30
0.0
 11
-613.49999999999966
 21
1224.224999999999
 31
0.0
  0
TEXT
  5
FA
  8
SIZE
  6
CONTINUOUS
 62
    30
 10
-83.657142999999905
 20
1256.224999999999
 30
0.0
 40
64.0
  1
1231
 41
0.9
  0
LINE
  5
FB
  8
SIZE
  6
CONTINUOUS
 62
    30
 10
460.0
 20
979.08195399999966
 30
0.0
 11
460.0
 21
1113.082999999998
 31
0.0
  0
LINE
  5
FC
  8
SIZE
  6
CONTINUOUS
 62
    30
 10
-459.99999999999972
 20
973.69061899999974
 30
0.0
 11
-459.99999999999972
 21
1113.082999999998
 31
0.0
  0
LINE
  5
FD
  8
SIZE
  6
CONTINUOUS
 62
    30
 10
458.0
 20
1083.0830000000001
 30
0.0
 11
-457.99999999999972
 21
1083.0830000000001
 31
0.0
  0
TEXT
  5
FE
  8
SIZE
  6
CONTINUOUS
 62
    30
 10
-74.057142999999982
 20
1115.0830000000001
 30
0.0
 40
64.0
  1
920
 41
0.9
  0
LINE
  5
FF
  8
SIZE
  6
CONTINUOUS
 62
    30
 10
676.97144299999945
 20
782.49999999999943
 30
0.0
 11
1078.3273864076091
 21
782.49999999999943
 31
0.0
  0
LINE
  5
100
  8
SIZE
  6
CONTINUOUS
 62
    30
 10
676.99999999999955
 20
-363.50000000000051
 30
0.0
 11
1081.230529859632
 21
-363.50000000000051
 31
0.0
  0
LINE
  5
101
  8
SIZE
  6
CONTINUOUS
 62
    30
 10
1038.010386871146
 20
780.49999999999943
 30
0.0
 11
1038.010386871146
 21
-363.50000000000051
 31
0.0
  0
TEXT
  5
102
  8
SIZE
  6
CONTINUOUS
 62
    30
 10
1006.010386871146
 20
144.58507088200301
 30
0.0
 40
64.0
  1
1146
 50
90.0
 41
0.9
  0
LINE
  5
103
  8
SIZE
  6
CONTINUOUS
 62
    30
 10
637.0
 20
836.99999999999932
 30
0.0
 11
1125.376
 21
836.99999999999932
 31
0.0
  0
LINE
  5
104
  8
SIZE
  6
CONTINUOUS
 62
    30
 10
637.0
 20
-836.99999999999932
 30
0.0
 11
1436.9070188342639
 21
-836.99999999999932
 31
0.0
  0
LINE
  5
105
  8
SIZE
  6
CONTINUOUS
 62
    30
 10
1396.706963304671
 20
834.99999999999943
 30
0.0
 11
1396.706963304671
 21
-836.99999999999932
 31
0.0
  0
TEXT
  5
106
  8
SIZE
  6
CONTINUOUS
 62
    30
 10
1370.948867792443
 20
-105.6523683140426
 30
0.0
 40
64.0
  1
1674
 50
90.0
 41
0.9
  0
LINE
  5
107
  8
SIZE
  6
CONTINUOUS
 62
    30
 10
637.0
 20
-836.99999999999932
 30
0.0
 11
1125.376
 21
-836.99999999999932
 31
0.0
  0
LINE
  5
108
  8
SIZE
  6
CONTINUOUS
 62
    30
 10
601.0
 20
-916.00000000000011
 30
0.0
 11
1441.501304476639
 21
-916.00000000000011
 31
0.0
  0
LINE
  5
109
  8
SIZE
  6
CONTINUOUS
 62
    30
 10
1396.706963304671
 20
-918.00000000000034
 30
0.0
 11
1396.706963304671
 21
-920.00000000000023
 31
0.0
  0
LINE
  5
10A
  8
SIZE
  6
CONTINUOUS
 62
    30
 10
1396.706963304671
 20
-835.00000000000045
 30
0.0
 11
1396.706963304671
 21
-833.00000000000045
 31
0.0
  0
LINE
  5
10B
  8
SIZE
  6
CONTINUOUS
 62
    30
 10
1396.706963304671
 20
-916.00000000000011
 30
0.0
 11
1396.706963304671
 21
-836.99999999999932
 31
0.0
  0
TEXT
  5
10C
  8
SIZE
  6
CONTINUOUS
 62
    30
 10
1364.706963304671
 20
-1043.6044159999999
 30
0.0
 40
64.0
  1
79
 50
90.0
 41
0.9
  0
LINE
  5
10D
  8
SIZE
  6
CONTINUOUS
 62
    30
 10
601.0
 20
915.99999999999875
 30
0.0
 11
1430.01557913894
 21
915.99999999999875
 31
0.0
  0
LINE
  5
10E
  8
SIZE
  6
CONTINUOUS
 62
    30
 10
637.0
 20
836.99999999999932
 30
0.0
 11
1281.548321821311
 21
836.99999999999932
 31
0.0
  0
LINE
  5
10F
  8
SIZE
  6
CONTINUOUS
 62
    30
 10
1396.706963304671
 20
834.99999999999943
 30
0.0
 11
1396.706963304671
 21
832.99999999999943
 31
0.0
  0
LINE
  5
110
  8
SIZE
  6
CONTINUOUS
 62
    30
 10
1396.706963304671
 20
917.9999999999992
 30
0.0
 11
1396.706963304671
 21
919.99999999999829
 31
0.0
  0
LINE
  5
111
  8
SIZE
  6
CONTINUOUS
 62
    30
 10
1396.706963304671
 20
836.99999999999932
 30
0.0
 11
1396.706963304671
 21
915.99999999999875
 31
0.0
  0
TEXT
  5
112
  8
SIZE
  6
CONTINUOUS
 62
    30
 10
1364.706963304671
 20
944.25762299999985
 30
0.0
 40
64.0
  1
79
 50
90.0
 41
0.9
  0
LINE
  5
113
  8
SIZE
  6
CONTINUOUS
 62
    30
 10
330.99999999999949
 20
-857.00000000000034
 30
0.0
 11
330.99999999999949
 21
-1286.3689999999999
 31
0.0
  0
LINE
  5
114
  8
SIZE
  6
CONTINUOUS
 62
    30
 10
589.0
 20
-857.00000000000034
 30
0.0
 11
589.0
 21
-1286.3689999999999
 31
0.0
  0
LINE
  5
115
  8
SIZE
  6
CONTINUOUS
 62
    30
 10
332.99999999999949
 20
-1256.368999999999
 30
0.0
 11
460.0
 21
-1256.368999999999
 31
0.0
  0
LINE
  5
116
  8
SIZE
  6
CONTINUOUS
 62
    30
 10
587.0
 20
-1256.368999999999
 30
0.0
 11
460.0
 21
-1256.368999999999
 31
0.0
  0
TEXT
  5
117
  8
SIZE
  6
CONTINUOUS
 62
    30
 10
31.958155999999921
 20
-1224.368999999999
 30
0.0
 40
64.0
  1
\U+03C6258
 41
0.9
  0
LINE
  5
118
  8
SIZE
  6
CONTINUOUS
 62
    30
 10
581.0
 20
-936.00000000000023
 30
0.0
 11
581.0
 21
-1152.65056
 31
0.0
  0
LINE
  5
119
  8
SIZE
  6
CONTINUOUS
 62
    30
 10
338.99999999999949
 20
-936.00000000000023
 30
0.0
 11
338.99999999999949
 21
-1152.65056
 31
0.0
  0
LINE
  5
11A
  8
SIZE
  6
CONTINUOUS
 62
    30
 10
579.0
 20
-1122.65056
 30
0.0
 11
460.0
 21
-1122.65056
 31
0.0
  0
LINE
  5
11B
  8
SIZE
  6
CONTINUOUS
 62
    30
 10
340.99999999999949
 20
-1122.65056
 30
0.0
 11
460.0
 21
-1122.65056
 31
0.0
  0
TEXT
  5
11C
  8
SIZE
  6
CONTINUOUS
 62
    30
 10
38.412012999999888
 20
-1088.6120000000001
 30
0.0
 40
64.0
  1
\U+03C6242
 41
0.9
  0
LINE
  5
11D
  8
SIZE
  6
CONTINUOUS
 62
    30
 10
-463.72429013847642
 20
-836.99999999999932
 30
0.0
 11
-401.97872363847642
 21
-836.99999999999932
 31
0.0
  0
LINE
  5
11E
  8
SIZE
  6
CONTINUOUS
 62
    30
 10
-598.65114275636529
 20
-487.00000000000011
 30
0.0
 11
-404.39872334085879
 21
-487.00000000000011
 31
0.0
  0
LINE
  5
11F
  8
SIZE
  6
CONTINUOUS
 62
    30
 10
-431.97872363847642
 20
-835.00000000000045
 30
0.0
 11
-431.97872363847642
 21
-486.53851045298921
 31
0.0
  0
TEXT
  5
120
  8
SIZE
  6
CONTINUOUS
 62
    30
 10
-463.97872363847642
 20
-736.13462662796383
 30
0.0
 40
64.0
  1
350
 50
90.0
 41
0.9
  0
CIRCLE
  5
121
  8
SIZE
  6
CONTINUOUS
 62
    30
 10
-431.97872363847642
 20
-487.00000000000011
 30
0.0
 40
6.0
  0
CIRCLE
  5
122
  8
SIZE
  6
CONTINUOUS
 62
    30
 10
-431.97872363847642
 20
-836.99999999999932
 30
0.0
 40
6.0
  0
CIRCLE
  5
123
  8
SIZE
  6
CONTINUOUS
 62
    30
 10
338.99999999999949
 20
-1122.65056
 30
0.0
 40
6.0
  0
CIRCLE
  5
124
  8
SIZE
  6
CONTINUOUS
 62
    30
 10
581.0
 20
-1122.65056
 30
0.0
 40
6.0
  0
CIRCLE
  5
125
  8
SIZE
  6
CONTINUOUS
 62
    30
 10
589.0
 20
-1256.368999999999
 30
0.0
 40
6.0
  0
CIRCLE
  5
126
  8
SIZE
  6
CONTINUOUS
 62
    30
 10
330.99999999999949
 20
-1256.368999999999
 30
0.0
 40
6.0
  0
CIRCLE
  5
127
  8
SIZE
  6
CONTINUOUS
 62
    30
 10
1396.706963304671
 20
915.99999999999875
 30
0.0
 40
6.0
  0
CIRCLE
  5
128
  8
SIZE
  6
CONTINUOUS
 62
    30
 10
1396.706963304671
 20
836.99999999999932
 30
0.0
 40
6.0
  0
CIRCLE
  5
129
  8
SIZE
  6
CONTINUOUS
 62
    30
 10
1396.706963304671
 20
-836.99999999999932
 30
0.0
 40
6.0
  0
CIRCLE
  5
12A
  8
SIZE
  6
CONTINUOUS
 62
    30
 10
1396.706963304671
 20
-916.00000000000011
 30
0.0
 40
6.0
  0
CIRCLE
  5
12B
  8
SIZE
  6
CONTINUOUS
 62
    30
 10
1396.706963304671
 20
-836.99999999999932
 30
0.0
 40
6.0
  0
CIRCLE
  5
12C
  8
SIZE
  6
CONTINUOUS
 62
    30
 10
1396.706963304671
 20
836.99999999999932
 30
0.0
 40
6.0
  0
CIRCLE
  5
12D
  8
SIZE
  6
CONTINUOUS
 62
    30
 10
1038.010386871146
 20
-363.50000000000051
 30
0.0
 40
6.0
  0
CIRCLE
  5
12E
  8
SIZE
  6
CONTINUOUS
 62
    30
 10
1038.010386871146
 20
782.49999999999943
 30
0.0
 40
6.0
  0
CIRCLE
  5
12F
  8
SIZE
  6
CONTINUOUS
 62
    30
 10
-459.99999999999972
 20
1083.0830000000001
 30
0.0
 40
6.0
  0
CIRCLE
  5
130
  8
SIZE
  6
CONTINUOUS
 62
    30
 10
460.0
 20
1083.0830000000001
 30
0.0
 40
6.0
  0
CIRCLE
  5
131
  8
SIZE
  6
CONTINUOUS
 62
    30
 10
-615.5
 20
1224.224999999999
 30
0.0
 40
6.0
  0
CIRCLE
  5
132
  8
SIZE
  6
CONTINUOUS
 62
    30
 10
615.5
 20
1224.224999999999
 30
0.0
 40
6.0
  0
CIRCLE
  5
133
  8
SIZE
  6
CONTINUOUS
 62
    30
 10
-1257.4999999999991
 20
997.56472199999928
 30
0.0
 40
6.0
  0
CIRCLE
  5
134
  8
SIZE
  6
CONTINUOUS
 62
    30
 10
-615.5
 20
997.56472199999928
 30
0.0
 40
6.0
  0
CIRCLE
  5
135
  8
SIZE
  6
CONTINUOUS
 62
    30
 10
-767.0
 20
534.73114118155661
 30
0.0
 40
6.0
  0
CIRCLE
  5
136
  8
SIZE
  6
CONTINUOUS
 62
    30
 10
-1517.8187199999991
 20
236.99999999999949
 30
0.0
 40
6.0
  0
CIRCLE
  5
137
  8
SIZE
  6
CONTINUOUS
 62
    30
 10
-1517.8187199999991
 20
836.99999999999932
 30
0.0
 40
6.0
  0
LINE
  5
138
  8
NOTE
  6
CONTINUOUS
 62
     4
 10
-639.5
 20
-504.00000000000011
 30
0.0
 11
-639.5
 21
-464.00000000000051
 31
0.0
  0
LINE
  5
139
  8
NOTE
  6
CONTINUOUS
 62
     4
 10
-659.49999999999989
 20
-484.00000000000051
 30
0.0
 11
-619.5
 21
-484.00000000000051
 31
0.0
  0
LINE
  5
13A
  8
NOTE
  6
CONTINUOUS
 62
     4
 10
-639.5
 20
-507.00000000000023
 30
0.0
 11
-639.5
 21
-467.00000000000011
 31
0.0
  0
LINE
  5
13B
  8
NOTE
  6
CONTINUOUS
 62
     4
 10
-659.49999999999989
 20
-487.00000000000011
 30
0.0
 11
-619.49999999999955
 21
-487.00000000000011
 31
0.0
  0
LINE
  5
13C
  8
NOTE
  6
CONTINUOUS
 62
     4
 10
-651.0
 20
-239.51746224603809
 30
0.0
 11
-651.0
 21
-199.51746224603809
 31
0.0
  0
LINE
  5
13D
  8
NOTE
  6
CONTINUOUS
 62
     4
 10
-671.0
 20
-219.51746224603809
 30
0.0
 11
-630.99999999999955
 21
-219.51746224603809
 31
0.0
  0
LINE
  5
13E
  8
NOTE
  6
CONTINUOUS
 62
     4
 10
635.47144299999945
 20
762.49999999999943
 30
0.0
 11
635.47144299999945
 21
802.49999999999955
 31
0.0
  0
LINE
  5
13F
  8
NOTE
  6
CONTINUOUS
 62
     4
 10
615.47144299999979
 20
782.49999999999943
 30
0.0
 11
655.47144299999945
 21
782.49999999999943
 31
0.0
  0
LINE
  5
140
  8
NOTE
  6
CONTINUOUS
 62
     4
 10
-635.49999999999955
 20
762.49999999999943
 30
0.0
 11
-635.49999999999955
 21
802.49999999999955
 31
0.0
  0
LINE
  5
141
  8
NOTE
  6
CONTINUOUS
 62
     4
 10
-655.49999999999989
 20
782.49999999999943
 30
0.0
 11
-615.5
 21
782.49999999999943
 31
0.0
  0
LINE
  5
142
  8
NOTE
  6
CONTINUOUS
 62
     4
 10
-635.49999999999955
 20
-383.50000000000023
 30
0.0
 11
-635.49999999999955
 21
-343.50000000000051
 31
0.0
  0
LINE
  5
143
  8
NOTE
  6
CONTINUOUS
 62
     4
 10
-655.49999999999989
 20
-363.50000000000051
 30
0.0
 11
-615.5
 21
-363.50000000000051
 31
0.0
  0
LINE
  5
144
  8
NOTE
  6
CONTINUOUS
 62
     4
 10
635.5
 20
-383.50000000000023
 30
0.0
 11
635.5
 21
-343.50000000000051
 31
0.0
  0
LINE
  5
145
  8
NOTE
  6
CONTINUOUS
 62
     4
 10
615.5
 20
-363.50000000000051
 30
0.0
 11
655.49999999999989
 21
-363.50000000000051
 31
0.0
  0
TEXT
  5
146
  8
ETC
  6
CONTINUOUS
 62
    61
 10
1612.227099869785
 20
1009.898962124282
 30
0.0
 40
50.0
  1
LGH-N100RKS-50
 41
0.9
  0
TEXT
  5
147
  8
ETC
  6
CONTINUOUS
 62
    61
 10
1612.227099869785
 20
917.05724218270859
 30
0.0
 40
50.0
  1
LGH-N100RKSD-50
 41
0.9
  0
TEXT
  5
148
  8
ETC
  6
CONTINUOUS
 62
    61
 10
1612.227099869785
 20
824.21552224113645
 30
0.0
 40
50.0
  1
LGH-N100RKX-50
 41
0.9
  0
TEXT
  5
149
  8
ETC
  6
CONTINUOUS
 62
    61
 10
1612.227099869785
 20
731.37380229956193
 30
0.0
 40
50.0
  1
LGH-N100RKXD-50
 41
0.9
  0
LINE
  5
14A
  8
DETAIL
  6
CONTINUOUS
 62
     5
 10
-633.49999999999955
 20
401.9999999999992
 30
0.0
 11
-615.5
 21
401.9999999999992
 31
0.0
  0
LINE
  5
14B
  8
SIZE
  6
CONTINUOUS
 62
    30
 10
-615.5
 20
564.31351293317141
 30
0.0
 11
-615.5
 21
502.33015549463761
 31
0.0
  0
CIRCLE
  5
14C
  8
SIZE
  6
CONTINUOUS
 62
    30
 10
-615.5
 20
534.73114118155661
 30
0.0
 40
6.0
  0
LINE
  5
14D
  8
SERVICESPACE
  6
DASHDOT
 62
     2
 10
-1257.4999999999991
 20
836.99999999999932
 30
0.0
 11
-616.99999999999955
 21
-836.99999999999932
 31
0.0
  0
LINE
  5
14E
  8
SERVICESPACE
  6
DASHDOT
 62
     2
 10
-615.5
 20
836.99999999999932
 30
0.0
 11
-1257.4999999999991
 21
-836.99999999999932
 31
0.0
  0
LINE
  5
14F
  8
DETAIL
  6
CONTINOUS
 62
     5
 10
-615.5
 20
-418.00000000000051
 30
0.0
 11
615.5
 21
-418.00000000000051
 31
0.0
  0
LINE
  5
150
  8
SERVICESPACE
  6
DASHDOT
 62
     2
 10
-615.5
 20
836.99999999999932
 30
0.0
 11
-615.5
 21
-836.99999999999932
 31
0.0
  0
LINE
  5
151
  8
SERVICESPACE
  6
DASHDOT
 62
     2
 10
-1207.4999999999991
 20
-355.94838900000008
 30
0.0
 11
-767.0
 21
-355.94838900000008
 31
0.0
  0
LINE
  5
152
  8
SERVICESPACE
  6
DASHDOT
 62
     2
 10
-1207.4999999999991
 20
-355.94838900000008
 30
0.0
 11
-1207.4999999999991
 21
-805.94838899999968
 31
0.0
  0
LINE
  5
153
  8
SERVICESPACE
  6
DASHDOT
 62
     2
 10
-1207.4999999999991
 20
-805.94838899999968
 30
0.0
 11
-767.0
 21
-805.94838899999968
 31
0.0
  0
LINE
  5
154
  8
SERVICESPACE
  6
DASHDOT
 62
     2
 10
-767.0
 20
-355.94838900000008
 30
0.0
 11
-767.0
 21
-805.94838899999968
 31
0.0
  0
TEXT
  5
155
  8
NOTE
  6
CONTINUOUS
 62
     4
 10
-1071.3180787426211
 20
-575.34352560861271
 30
0.0
 40
64.0
  1
点検口
 41
0.9
  0
LINE
  5
156
  8
DETAIL
  6
CONTINUOUS
 62
     5
 10
-633.49999999999955
 20
-471.00000000000011
 30
0.0
 11
-639.5
 21
-471.00000000000011
 31
0.0
  0
LINE
  5
157
  8
SIZE
  6
CONTINUOUS
 62
    30
 10
-599.22543326577716
 20
-484.00000000000051
 30
0.0
 11
-272.30511188436827
 21
-484.00000000000051
 31
0.0
  0
LINE
  5
158
  8
NOTE
  6
CONTINUOUS
 62
     4
 10
-648.90885017738765
 20
-528.19732113088185
 30
0.0
 11
-639.5
 21
-487.00000000000011
 31
0.0
  0
LINE
  5
159
  8
NOTE
  6
CONTINUOUS
 62
     4
 10
-639.5
 20
-487.00000000000011
 30
0.0
 11
-676.48883328707939
 21
-513.69080142534085
 31
0.0
  0
LINE
  5
15A
  8
NOTE
  6
CONTINUOUS
 62
     4
 10
-662.16215958004341
 20
-449.34020553085611
 30
0.0
 11
-639.5
 21
-484.00000000000051
 31
0.0
  0
LINE
  5
15B
  8
NOTE
  6
CONTINUOUS
 62
     4
 10
-639.5
 20
-484.00000000000051
 30
0.0
 11
-676.45590305074029
 21
-465.31481712214418
 31
0.0
  0
LINE
  5
15C
  8
NOTE
  6
CONTINUOUS
 62
     4
 10
-639.5
 20
-484.00000000000051
 30
0.0
 11
-669.30903131539185
 21
-457.32751132650043
 31
0.0
  0
LINE
  5
15D
  8
NOTE
  6
CONTINUOUS
 62
     4
 10
-669.30903131539185
 20
-457.32751132650043
 30
0.0
 11
-700.60813107354966
 21
-429.32174102965882
 31
0.0
1001
ACAD
1000
DSTYLE
1002
{
1070
    41
1040
40.0
1070
    42
1040
20.0
1070
    43
1040
200.0
1070
    44
1040
30.0
1070
    73
1070
     0
1070
    74
1070
     0
1070
    77
1070
     0
1070
    78
1070
     8
1070
   140
1040
64.0
1070
   147
1040
25.0
1070
   172
1070
     1
1070
   174
1070
     1
1070
   176
1070
   256
1070
   177
1070
   256
1070
   178
1070
   256
1002
}
  0
LINE
  5
15E
  8
NOTE
  6
CONTINUOUS
 62
     4
 10
-700.60813107354966
 20
-429.32174102965882
 30
0.0
 11
-699.51944798206011
 21
-430.40972949308389
 31
0.0
1001
ACAD
1000
DSTYLE
1002
{
1070
    41
1040
40.0
1070
    42
1040
20.0
1070
    43
1040
200.0
1070
    44
1040
30.0
1070
    73
1070
     0
1070
    74
1070
     0
1070
    77
1070
     0
1070
    78
1070
     8
1070
   140
1040
64.0
1070
   147
1040
25.0
1070
   172
1070
     1
1070
   174
1070
     1
1070
   176
1070
   256
1070
   177
1070
   256
1070
   178
1070
   256
1002
}
  0
LINE
  5
15F
  8
DETAIL
  6
CONTINOUS
 62
     5
 10
-633.49999999999955
 20
-458.00000000000011
 30
0.0
 11
-615.5
 21
-458.00000000000011
 31
0.0
  0
LINE
  5
160
  8
DETAIL
  6
CONTINOUS
 62
     5
 10
-633.49999999999955
 20
-809.5
 30
0.0
 11
-615.5
 21
-809.5
 31
0.0
  0
LINE
  5
161
  8
DETAIL
  6
CONTINUOUS
 62
     5
 10
-633.49999999999955
 20
-458.00000000000011
 30
0.0
 11
-633.49999999999955
 21
-809.5
 31
0.0
  0
LINE
  5
162
  8
BASIS
  6
DASHDOT
 62
     6
 10
-731.0038226670581
 20
687.99999999999909
 30
0.0
 11
-559.71760272900769
 21
687.99999999999909
 31
0.0
  0
LINE
  5
163
  8
DETAIL
  6
DASHED
 62
     5
 10
-694.5
 20
808.99999999999943
 30
0.0
 11
-694.5
 21
568.71920333527396
 31
0.0
  0
LINE
  5
164
  8
DETAIL
  6
DASHED
 62
     5
 10
694.5
 20
808.99999999999943
 30
0.0
 11
694.5
 21
566.99999999999955
 31
0.0
  0
LINE
  5
165
  8
DETAIL
  6
DASHED
 62
     5
 10
-694.5
 20
808.99999999999943
 30
0.0
 11
-615.5
 21
816.99999999999943
 31
0.0
  0
LINE
  5
166
  8
DETAIL
  6
DASHED
 62
     5
 10
-694.5
 20
568.71920333527396
 30
0.0
 11
-615.5
 21
558.99999999999955
 31
0.0
  0
LINE
  5
167
  8
DETAIL
  6
DASHED
 62
     5
 10
694.5
 20
808.99999999999943
 30
0.0
 11
615.5
 21
816.99999999999943
 31
0.0
  0
LINE
  5
168
  8
DETAIL
  6
DASHED
 62
     5
 10
694.5
 20
566.99999999999955
 30
0.0
 11
615.5
 21
558.99999999999955
 31
0.0
  0
LINE
  5
169
  8
BASIS
  6
DASHDOT
 62
     6
 10
-100.0
 20
-800.54657504226441
 30
0.0
 11
-100.0
 21
-949.09323845637311
 31
0.0
  0
LINE
  5
16A
  8
BASIS
  6
DASHDOT
 62
     6
 10
460.0
 20
-803.44788104133704
 30
0.0
 11
460.0
 21
-959.24780430821352
 31
0.0
  0
LINE
  5
16B
  8
BASIS
  6
DASHDOT
 62
     6
 10
572.51332805816844
 20
687.99999999999909
 30
0.0
 11
737.99322671632399
 21
687.99999999999909
 31
0.0
  0
CIRCLE
  5
16C
  8
SIZE
  6
CONTINUOUS
 62
    30
 10
875.10645099390979
 20
836.99999999999932
 30
0.0
 40
0.5
  0
CIRCLE
  5
16D
  8
SIZE
  6
CONTINUOUS
 62
    30
 10
874.60645099390968
 20
836.99999999999932
 30
0.0
 40
6.0
  0
CIRCLE
  5
16E
  8
SIZE
  6
CONTINUOUS
 62
    30
 10
874.60645099390968
 20
687.99999999999909
 30
0.0
 40
6.0
  0
LINE
  5
16F
  8
SIZE
  6
CONTINUOUS
 62
    30
 10
-337.93085645009711
 20
-836.99999999999932
 30
0.0
 11
-272.78825563400812
 21
-836.99999999999932
 31
0.0
  0
LINE
  5
170
  8
SIZE
  6
CONTINUOUS
 62
    30
 10
-302.78825563400818
 20
-836.99999999999932
 30
0.0
 11
-302.78825563400818
 21
-484.00000000000051
 31
0.0
  0
TEXT
  5
171
  8
SIZE
  6
CONTINUOUS
 62
    30
 10
-327.78825563400778
 20
-734.55714285714339
 30
0.0
 40
64.0
  1
353
 50
90.0
 41
0.9
  0
CIRCLE
  5
172
  8
SIZE
  6
CONTINUOUS
 62
    30
 10
-302.78825563400818
 20
-484.00000000000051
 30
0.0
 40
6.0
  0
CIRCLE
  5
173
  8
SIZE
  6
CONTINUOUS
 62
    30
 10
-302.78825563400818
 20
-836.99999999999932
 30
0.0
 40
6.0
  0
LINE
  5
174
  8
SIZE
  6
CONTINUOUS
 62
    30
 10
-100.0
 20
-780.54657504226498
 30
0.0
 11
-100.0
 21
-547.07940714010147
 31
0.0
  0
LINE
  5
175
  8
SIZE
  6
CONTINUOUS
 62
    30
 10
460.0
 20
-577.07940714010158
 30
0.0
 11
-100.0
 21
-577.07940714010158
 31
0.0
  0
LINE
  5
176
  8
SIZE
  6
CONTINUOUS
 62
    30
 10
460.0
 20
-783.44788104133693
 30
0.0
 11
460.0
 21
-549.51702587346381
 31
0.0
  0
LINE
  5
177
  8
SIZE
  6
CONTINUOUS
 62
    30
 10
0.0
 20
-783.44788104133693
 30
0.0
 11
0.0
 21
-666.03287078350172
 31
0.0
  0
LINE
  5
178
  8
SIZE
  6
CONTINUOUS
 62
    30
 10
460.0
 20
-696.03287078350172
 30
0.0
 11
0.0
 21
-696.03287078350172
 31
0.0
  0
TEXT
  5
179
  8
SIZE
  6
CONTINUOUS
 62
    30
 10
155.94285714285709
 20
-671.03287078350172
 30
0.0
 40
64.0
  1
460
 41
0.9
  0
TEXT
  5
17A
  8
SIZE
  6
CONTINUOUS
 62
    30
 10
105.94285714285699
 20
-552.07940714010158
 30
0.0
 40
64.0
  1
560
 41
0.9
  0
CIRCLE
  5
17B
  8
SIZE
  6
CONTINUOUS
 62
    30
 10
-100.0
 20
-577.07940714010158
 30
0.0
 40
6.0
  0
CIRCLE
  5
17C
  8
SIZE
  6
CONTINUOUS
 62
    30
 10
0.0
 20
-696.03287078350172
 30
0.0
 40
6.0
  0
CIRCLE
  5
17D
  8
SIZE
  6
CONTINUOUS
 62
    30
 10
460.0
 20
-696.03287078350172
 30
0.0
 40
6.0
  0
CIRCLE
  5
17E
  8
SIZE
  6
CONTINUOUS
 62
    30
 10
460.0
 20
-577.07940714010158
 30
0.0
 40
6.0
  0
LINE
  5
17F
  8
SIZE
  6
CONTINUOUS
 62
    30
 10
651.5
 20
-313.50000000000051
 30
0.0
 11
651.5
 21
-218.76837864509119
 31
0.0
  0
LINE
  5
180
  8
SIZE
  6
CONTINUOUS
 62
    30
 10
635.5
 20
-267.7814180561731
 30
0.0
 11
635.5
 21
-289.3866317626422
 31
0.0
  0
TEXT
  5
181
  8
SIZE
  6
CONTINUOUS
 62
    30
 10
680.71349104650653
 20
-227.47229664230329
 30
0.0
 40
64.0
  1
16
 41
0.9
  0
LINE
  5
182
  8
SIZE
  6
CONTINUOUS
 62
    30
 10
635.5
 20
-323.50000000000028
 30
0.0
 11
635.5
 21
-217.78141805617321
 31
0.0
  0
LINE
  5
183
  8
SIZE
  6
CONTINUOUS
 62
    30
 10
-635.49999999999955
 20
-323.50000000000028
 30
0.0
 11
-635.49999999999955
 21
-217.78141805617321
 31
0.0
  0
LINE
  5
184
  8
SIZE
  6
CONTINUOUS
 62
    30
 10
770.71133338149218
 20
-247.78141805617321
 30
0.0
 11
-635.49999999999955
 21
-247.78141805617321
 31
0.0
  0
TEXT
  5
185
  8
SIZE
  6
CONTINUOUS
 62
    30
 10
-83.657142857142844
 20
-222.78141805617321
 30
0.0
 40
64.0
  1
1271
 41
0.9
  0
CIRCLE
  5
186
  8
SIZE
  6
CONTINUOUS
 62
    30
 10
651.5
 20
-247.78141805617321
 30
0.0
 40
6.0
  0
CIRCLE
  5
187
  8
SIZE
  6
CONTINUOUS
 62
    30
 10
635.5
 20
-247.78141805617321
 30
0.0
 40
6.0
  0
CIRCLE
  5
188
  8
SIZE
  6
CONTINUOUS
 62
    30
 10
-635.49999999999955
 20
-247.78141805617321
 30
0.0
 40
6.0
  0
LINE
  5
189
  8
OUTLINE
  6
CONTINUOUS
 62
     3
 10
-615.5
 20
-836.99999999999932
 30
0.0
 11
615.5
 21
-836.99999999999932
 31
0.0
  0
LINE
  5
18A
  8
OUTLINE
  6
CONTINUOUS
 62
     3
 10
615.5
 20
-836.99999999999932
 30
0.0
 11
615.5
 21
836.99999999999932
 31
0.0
  0
LINE
  5
18B
  8
OUTLINE
  6
CONTINUOUS
 62
     3
 10
615.5
 20
836.99999999999932
 30
0.0
 11
-615.5
 21
836.99999999999932
 31
0.0
  0
LINE
  5
18C
  8
OUTLINE
  6
CONTINUOUS
 62
     3
 10
-615.5
 20
836.99999999999932
 30
0.0
 11
-615.5
 21
-834.00000000000045
 31
0.0
  0
LINE
  5
18D
  8
SIZE
  6
CONTINUOUS
 62
    30
 10
-639.5
 20
-524.54330708661473
 30
0.0
 11
-639.5
 21
-1141.359394771963
 31
0.0
  0
LINE
  5
18E
  8
SIZE
  6
CONTINUOUS
 62
    30
 10
-615.5
 20
-857.00000000000034
 30
0.0
 11
-615.5
 21
-1141.359394771963
 31
0.0
  0
LINE
  5
18F
  8
SIZE
  6
CONTINUOUS
 62
    30
 10
-639.5
 20
-1111.359394771963
 30
0.0
 11
-772.68250963040191
 21
-1111.359394771963
 31
0.0
  0
LINE
  5
190
  8
SIZE
  6
CONTINUOUS
 62
    30
 10
-615.5
 20
-1111.359394771963
 30
0.0
 11
-639.5
 21
-1111.359394771963
 31
0.0
  0
TEXT
  5
191
  8
SIZE
  6
CONTINUOUS
 62
    30
 10
-762.52145598454433
 20
-1086.359394771963
 30
0.0
 40
64.0
  1
24
 41
0.9
  0
CIRCLE
  5
192
  8
SIZE
  6
CONTINUOUS
 62
    30
 10
-639.5
 20
-1111.359394771963
 30
0.0
 40
6.0
  0
CIRCLE
  5
193
  8
SIZE
  6
CONTINUOUS
 62
    30
 10
-615.5
 20
-1111.359394771963
 30
0.0
 40
6.0
  0
LINE
  5
194
  8
SIZE
  6
CONTINUOUS
 62
    30
 10
764.78650136721615
 20
687.99999999999909
 30
0.0
 11
905.10645099390922
 21
687.99999999999909
 31
0.0
  0
LINE
  5
195
  8
SIZE
  6
CONTINUOUS
 62
    30
 10
796.399126739081
 20
836.99999999999932
 30
0.0
 11
905.10645099390922
 21
836.99999999999932
 31
0.0
  0
LINE
  5
196
  8
SIZE
  6
CONTINUOUS
 62
    30
 10
875.10645099390979
 20
836.99999999999932
 30
0.0
 11
875.10645099390979
 21
687.99999999999909
 31
0.0
  0
LINE
  5
197
  8
SIZE
  6
CONTINUOUS
 62
    30
 10
875.10645099390979
 20
687.99999999999909
 30
0.0
 11
875.10645099390979
 21
463.59999999999923
 31
0.0
  0
TEXT
  5
198
  8
SIZE
  6
CONTINUOUS
 62
    30
 10
850.10645099390979
 20
488.59999999999923
 30
0.0
 40
64.0
  1
149
 50
90.0
 41
0.9
  0
LINE
  5
199
  8
NOTE
  6
CONTINUOUS
 62
     4
 10
-629.06919799999946
 20
-186.06540824603829
 30
0.0
 11
-651.0
 21
-219.51746224603809
 31
0.0
  0
LINE
  5
19A
  8
NOTE
  6
CONTINUOUS
 62
     4
 10
-651.0
 20
-219.51746224603809
 30
0.0
 11
-615.28134099999966
 21
-201.51253424603831
 31
0.0
  0
LINE
  5
19B
  8
NOTE
  6
CONTINUOUS
 62
     4
 10
-656.71410000000014
 20
816.41108899999892
 30
0.0
 11
-635.49999999999955
 21
782.49999999999943
 31
0.0
  0
LINE
  5
19C
  8
NOTE
  6
CONTINUOUS
 62
     4
 10
-635.49999999999955
 20
782.49999999999943
 30
0.0
 11
-636.91640500000005
 21
822.47491499999956
 31
0.0
  0
LINE
  5
19D
  8
NOTE
  6
CONTINUOUS
 62
     4
 10
-641.91799136319696
 20
35.964592713987031
 30
0.0
 11
-659.36393736319724
 21
-0.0303922860130115
 31
0.0
  0
LINE
  5
19E
  8
NOTE
  6
CONTINUOUS
 62
     4
 10
-659.36393736319724
 20
-0.0303922860130115
 30
0.0
 11
-621.35679744381923
 21
21.392508523749711
 31
0.0
  0
LINE
  5
19F
  8
NOTE
  6
CONTINUOUS
 62
     4
 10
-633.49999999999955
 20
401.9999999999992
 30
0.0
 11
-637.59005236234225
 21
446.5497711445197
 31
0.0
  0
LINE
  5
1A0
  8
NOTE
  6
CONTINUOUS
 62
     4
 10
-633.49999999999955
 20
401.9999999999992
 30
0.0
 11
-657.56946682995829
 21
439.06227393893198
 31
0.0
  0
TEXT
  5
1A1
  8
NOTE
  6
CONTINUOUS
 62
     4
 10
-1516.5468576388321
 20
-1070.669490045176
 30
0.0
 40
64.0
  1
メンテナンスカバー
 41
0.9
  0
LINE
  5
1A2
  8
NOTE
  6
CONTINUOUS
 62
     4
 10
-663.38284183430574
 20
-838.18008248319745
 30
0.0
 11
-904.81455328443826
 21
-1086.51493441821
 31
0.0
1001
ACAD
1000
DSTYLE
1002
{
1070
    41
1040
40.0
1070
    42
1040
20.0
1070
    43
1040
200.0
1070
    44
1040
30.0
1070
    73
1070
     0
1070
    74
1070
     0
1070
    77
1070
     0
1070
    78
1070
     8
1070
   140
1040
64.0
1070
   147
1040
25.0
1070
   172
1070
     1
1070
   174
1070
     1
1070
   176
1070
   256
1070
   177
1070
   256
1070
   178
1070
   256
1002
}
  0
LINE
  5
1A3
  8
NOTE
  6
CONTINUOUS
 62
     4
 10
-904.81455328443826
 20
-1086.51493441821
 30
0.0
 11
-1517.932475961466
 21
-1086.51493441821
 31
0.0
1001
ACAD
1000
DSTYLE
1002
{
1070
    41
1040
40.0
1070
    42
1040
20.0
1070
    43
1040
200.0
1070
    44
1040
30.0
1070
    73
1070
     0
1070
    74
1070
     0
1070
    77
1070
     0
1070
    78
1070
     8
1070
   140
1040
64.0
1070
   147
1040
25.0
1070
   172
1070
     1
1070
   174
1070
     1
1070
   176
1070
   256
1070
   177
1070
   256
1070
   178
1070
   256
1002
}
  0
LINE
  5
1A4
  8
NOTE
  6
CONTINUOUS
 62
     4
 10
-671.06764670481186
 20
-830.70889759879753
 30
0.0
 11
-633.49999999999955
 21
-809.5
 31
0.0
  0
LINE
  5
1A5
  8
NOTE
  6
CONTINUOUS
 62
     4
 10
-633.49999999999955
 20
-809.5
 30
0.0
 11
-655.6980369637995
 21
-845.6512673675993
 31
0.0
  0
LINE
  5
1A6
  8
NOTE
  6
CONTINUOUS
 62
     4
 10
-633.49999999999955
 20
-809.5
 30
0.0
 11
-663.38284183430574
 21
-838.18008248319745
 31
0.0
  0
LINE
  5
1A7
  8
DETAIL
  6
CONTINUOUS
 62
     5
 10
-639.5
 20
-504.5433070866145
 30
0.0
 11
-633.49999999999955
 21
-504.5433070866145
 31
0.0
  0
LINE
  5
1A8
  8
DETAIL
  6
DOT
 62
     5
 10
-633.49999999999955
 20
-471.00000000000011
 30
0.0
 11
-615.5
 21
-471.00000000000011
 31
0.0
  0
LINE
  5
1A9
  8
DETAIL
  6
DOT
 62
     5
 10
-633.49999999999955
 20
-473.15000000000032
 30
0.0
 11
-615.5
 21
-473.15000000000032
 31
0.0
  0
LINE
  5
1AA
  8
DETAIL
  6
DOT
 62
     5
 10
-633.49999999999955
 20
-494.85000000000019
 30
0.0
 11
-615.5
 21
-494.85000000000019
 31
0.0
  0
LINE
  5
1AB
  8
DETAIL
  6
DOT
 62
     5
 10
-633.49999999999955
 20
-504.5433070866145
 30
0.0
 11
-615.5
 21
-504.5433070866145
 31
0.0
  0
LINE
  5
1AC
  8
BASIS
  6
DASHDOT
 62
     6
 10
-650.33691799192081
 20
-484.00000000000051
 30
0.0
 11
-605.54258394670012
 21
-484.00000000000051
 31
0.0
  0
LINE
  5
1AD
  8
BASIS
  6
DASHDOT
 62
     6
 10
-650.33691799192081
 20
-487.00000000000011
 30
0.0
 11
-606.11686322546086
 21
-487.00000000000011
 31
0.0
  0
CIRCLE
  5
1AE
  8
SIZE
  6
CONTINUOUS
 62
    30
 10
1217.5296098485701
 20
-418.00000000000051
 30
0.0
 40
6.0
  0
CIRCLE
  5
1AF
  8
SIZE
  6
CONTINUOUS
 62
    30
 10
1217.5296098485701
 20
836.99999999999932
 30
0.0
 40
0.0000000000004547
  0
CIRCLE
  5
1B0
  8
SIZE
  6
CONTINUOUS
 62
    30
 10
1217.5296098485701
 20
836.99999999999864
 30
0.0
 40
6.0
  0
LINE
  5
1B1
  8
SIZE
  6
CONTINUOUS
 62
    30
 10
635.5
 20
-418.00000000000051
 30
0.0
 11
1247.5296098485701
 21
-418.00000000000051
 31
0.0
  0
LINE
  5
1B2
  8
SIZE
  6
CONTINUOUS
 62
    30
 10
1414.6098760130781
 20
836.99999999999932
 30
0.0
 11
1187.5296098485701
 21
836.99999999999932
 31
0.0
  0
LINE
  5
1B3
  8
SIZE
  6
CONTINUOUS
 62
    30
 10
1217.5296098485701
 20
-418.00000000000051
 30
0.0
 11
1217.5296098485701
 21
836.99999999999932
 31
0.0
  0
TEXT
  5
1B4
  8
SIZE
  6
CONTINUOUS
 62
    30
 10
1192.5296098485701
 20
113.4999999999998
 30
0.0
 40
64.0
  1
1255
 50
90.0
 41
0.9
  0
LINE
  5
1B5
  8
SIZE
  6
CONTINUOUS
 62
    30
 10
-730.49999999999989
 20
19.91053387297266
 30
0.0
 11
-730.49999999999989
 21
1244.224999999999
 31
0.0
  0
LINE
  5
1B6
  8
SIZE
  6
CONTINUOUS
 62
    30
 10
-615.5
 20
856.99999999999943
 30
0.0
 11
-615.5
 21
1244.224999999999
 31
0.0
  0
LINE
  5
1B7
  8
SIZE
  6
CONTINUOUS
 62
    30
 10
-742.49999999999989
 20
1224.224999999999
 30
0.0
 11
-754.49999999999989
 21
1224.224999999999
 31
0.0
  0
LINE
  5
1B8
  8
SIZE
  6
CONTINUOUS
 62
    30
 10
-603.5
 20
1224.224999999999
 30
0.0
 11
-591.5
 21
1224.224999999999
 31
0.0
  0
LINE
  5
1B9
  8
SIZE
  6
CONTINUOUS
 62
    30
 10
-730.49999999999989
 20
1224.224999999999
 30
0.0
 11
-615.5
 21
1224.224999999999
 31
0.0
  0
CIRCLE
  5
1BA
  8
SIZE
  6
CONTINUOUS
 62
    30
 10
-730.49999999999989
 20
1224.224999999999
 30
0.0
 40
6.0
  0
LINE
  5
1BB
  8
SIZE
  6
CONTINUOUS
 62
    30
 10
-730.49999999999989
 20
1224.224999999999
 30
0.0
 11
-742.49999999999989
 21
1224.224999999999
 31
0.0
  0
CIRCLE
  5
1BC
  8
SIZE
  6
CONTINUOUS
 62
    30
 10
-615.5
 20
1224.224999999999
 30
0.0
 40
6.0
  0
LINE
  5
1BD
  8
SIZE
  6
CONTINUOUS
 62
    30
 10
-615.5
 20
1224.224999999999
 30
0.0
 11
-603.5
 21
1224.224999999999
 31
0.0
  0
TEXT
  5
1BE
  8
SIZE
  6
CONTINUOUS
 62
    30
 10
-736.08571428571429
 20
1249.224999999999
 30
0.0
 40
64.0
  1
115
 41
0.9
 72
     1
 11
-673.0
 21
1249.224999999999
 31
0.0
  0
POINT
  5
1BF
  8
DEFPOINTS
  6
CONTINUOUS
 62
    30
 10
-730.49999999999989
 20
-0.089466127027336
 30
0.0
  0
POINT
  5
1C0
  8
DEFPOINTS
  6
CONTINUOUS
 62
    30
 10
-615.5
 20
836.99999999999932
 30
0.0
  0
POINT
  5
1C1
  8
DEFPOINTS
  6
CONTINUOUS
 62
    30
 10
-615.5
 20
1224.224999999999
 30
0.0
  0
TEXT
  5
1C2
  8
ETC
  6
CONTINUOUS
 62
    61
 10
1614.752666534444
 20
642.75801669730413
 30
0.0
 40
50.0
  1
LGH-N100RKS-60
 41
0.9
  0
TEXT
  5
1C3
  8
ETC
  6
CONTINUOUS
 62
    61
 10
1614.752666534444
 20
549.91629675573097
 30
0.0
 40
50.0
  1
LGH-N100RKSD-60
 41
0.9
  0
TEXT
  5
1C4
  8
ETC
  6
CONTINUOUS
 62
    61
 10
1614.752666534444
 20
457.07457681415838
 30
0.0
 40
50.0
  1
LGH-N100RKX-60
 41
0.9
  0
TEXT
  5
1C5
  8
ETC
  6
CONTINUOUS
 62
    61
 10
1614.752666534444
 20
364.23285687258408
 30
0.0
 40
50.0
  1
LGH-N100RKXD-60
 41
0.9
  0
ARC
  5
1C6
  8
DETAIL
  6
CONTINUOUS
 62
     5
 39
50.0
 10
635.47568300000012
 20
774.9350179999991
 30
0.0
 40
7.5
 50
180.0
 51
0.0000000000065138
  0
ARC
  5
1C7
  8
DETAIL
  6
CONTINUOUS
 62
     5
 39
50.0
 10
635.47568300000012
 20
789.93501799999945
 30
0.0
 40
7.4999999999998863
 50
0.0
 51
180.0
  0
LINE
  5
1C8
  8
DETAIL
  6
CONTINUOUS
 62
     5
 39
50.0
 10
627.97568300000012
 20
789.93501799999945
 30
0.0
 11
627.97568300000012
 21
774.93501799999945
 31
0.0
  0
LINE
  5
1C9
  8
DETAIL
  6
CONTINUOUS
 62
     5
 39
50.0
 10
642.97568299999966
 20
789.93501799999967
 30
0.0
 11
642.97568300000012
 21
774.93501799999956
 31
0.0
  0
ARC
  5
1CA
  8
DETAIL
  6
CONTINUOUS
 62
     5
 39
50.0
 10
635.5
 20
-371.0000000000008
 30
0.0
 40
7.5
 50
180.0
 51
0.0000000000065138
  0
ARC
  5
1CB
  8
DETAIL
  6
CONTINUOUS
 62
     5
 39
50.0
 10
635.50000000000011
 20
-356.00000000000051
 30
0.0
 40
7.4999999999998863
 50
0.0
 51
180.0
  0
LINE
  5
1CC
  8
DETAIL
  6
CONTINUOUS
 62
     5
 39
50.0
 10
628.0
 20
-356.00000000000051
 30
0.0
 11
628.0
 21
-371.00000000000051
 31
0.0
  0
LINE
  5
1CD
  8
DETAIL
  6
CONTINUOUS
 62
     5
 39
50.0
 10
642.99999999999966
 20
-356.00000000000023
 30
0.0
 11
643.00000000000011
 21
-371.00000000000023
 31
0.0
  0
ARC
  5
1CE
  8
DETAIL
  6
CONTINUOUS
 62
     5
 39
50.0
 10
-635.49999999999955
 20
-371.0000000000008
 30
0.0
 40
7.5
 50
180.0
 51
0.0000000000065138
  0
ARC
  5
1CF
  8
DETAIL
  6
CONTINUOUS
 62
     5
 39
50.0
 10
-635.49999999999943
 20
-356.00000000000051
 30
0.0
 40
7.4999999999998863
 50
0.0
 51
180.0
  0
LINE
  5
1D0
  8
DETAIL
  6
CONTINUOUS
 62
     5
 39
50.0
 10
-642.99999999999966
 20
-356.00000000000051
 30
0.0
 11
-642.99999999999966
 21
-371.00000000000051
 31
0.0
  0
LINE
  5
1D1
  8
DETAIL
  6
CONTINUOUS
 62
     5
 39
50.0
 10
-627.99999999999989
 20
-356.00000000000023
 30
0.0
 11
-627.99999999999943
 21
-371.00000000000023
 31
0.0
  0
ARC
  5
1D2
  8
DETAIL
  6
CONTINUOUS
 62
     5
 39
50.0
 10
-635.49999999999955
 20
774.99999999999898
 30
0.0
 40
7.5
 50
180.0
 51
0.0000000000065138
  0
ARC
  5
1D3
  8
DETAIL
  6
CONTINUOUS
 62
     5
 39
50.0
 10
-635.49999999999943
 20
789.99999999999943
 30
0.0
 40
7.4999999999998863
 50
0.0
 51
180.0
  0
LINE
  5
1D4
  8
DETAIL
  6
CONTINUOUS
 62
     5
 39
50.0
 10
-642.99999999999966
 20
789.99999999999943
 30
0.0
 11
-642.99999999999966
 21
774.99999999999943
 31
0.0
  0
LINE
  5
1D5
  8
DETAIL
  6
CONTINUOUS
 62
     5
 39
50.0
 10
-627.99999999999989
 20
789.99999999999955
 30
0.0
 11
-627.99999999999943
 21
774.99999999999955
 31
0.0
  0
LINE
  5
1D6
  8
DETAIL
  6
CONTINUOUS
 62
     5
 10
-615.50000000000011
 20
-0.0894661270281061
 30
0.0
 11
-730.49999999999989
 21
-0.0894661270273364
 31
0.0
  0
LINE
  5
1D7
  8
DETAIL
  6
CONTINUOUS
 62
     5
 10
-615.50000000000011
 20
-219.51746224603809
 30
0.0
 11
-730.49999999999989
 21
-219.51746224603809
 31
0.0
  0
ENDSEC
  0
EOF
