  0
SECTION
  2
HEADER
  9
$ACADVER
  1
AC1009
  9
$INSBASE
 10
0.0
 20
0.0
 30
0.0
  9
$EXTMIN
 10
-1637.3077323943251
 20
-1199.296236015299
 30
0.0
  9
$EXTMAX
 10
2230.9859999999981
 20
1233.1785297932729
 30
0.0
  9
$LIMMIN
 10
-2970.0
 20
-2100.0
  9
$LIMMAX
 10
2970.0
 20
2100.0
  9
$ORTHOMODE
 70
     0
  9
$REGENMODE
 70
     1
  9
$FILLMODE
 70
     1
  9
$QTEXTMODE
 70
     0
  9
$MIRRTEXT
 70
     0
  9
$DRAGMODE
 70
     2
  9
$LTSCALE
 40
20.0
  9
$OSMODE
 70
    55
  9
$ATTMODE
 70
     1
  9
$TEXTSIZE
 40
64.0
  9
$TRACEWID
 40
0.05
  9
$TEXTSTYLE
  7
STANDARD
  9
$CLAYER
  8
NOTE
  9
$CELTYPE
  6
CONTINUOUS
  9
$CECOLOR
 62
     7
  9
$DIMSCALE
 40
1.0
  9
$DIMASZ
 40
12.0
  9
$DIMEXO
 40
20.0
  9
$DIMDLI
 40
200.0
  9
$DIMRND
 40
0.0
  9
$DIMDLE
 40
0.0
  9
$DIMEXE
 40
20.0
  9
$DIMTP
 40
0.0
  9
$DIMTM
 40
0.0
  9
$DIMTXT
 40
64.0
  9
$DIMCEN
 40
0.09
  9
$DIMTSZ
 40
0.0
  9
$DIMTOL
 70
     0
  9
$DIMLIM
 70
     0
  9
$DIMTIH
 70
     0
  9
$DIMTOH
 70
     0
  9
$DIMSE1
 70
     0
  9
$DIMSE2
 70
     0
  9
$DIMTAD
 70
     1
  9
$DIMZIN
 70
     8
  9
$DIMBLK
  1

  9
$DIMASO
 70
     1
  9
$DIMSHO
 70
     0
  9
$DIMPOST
  1

  9
$DIMAPOST
  1

  9
$DIMALT
 70
     0
  9
$DIMALTD
 70
     2
  9
$DIMALTF
 40
25.399999999999999
  9
$DIMLFAC
 40
1.0
  9
$DIMTOFL
 70
     1
  9
$DIMTVP
 40
0.0
  9
$DIMTIX
 70
     1
  9
$DIMSOXD
 70
     0
  9
$DIMSAH
 70
     0
  9
$DIMBLK1
  1

  9
$DIMBLK2
  1

  9
$DIMSTYLE
  2
STANDARD
  9
$DIMCLRD
 70
     7
  9
$DIMCLRE
 70
     7
  9
$DIMCLRT
 70
     7
  9
$DIMTFAC
 40
1.0
  9
$DIMGAP
 40
25.0
  9
$LUNITS
 70
     2
  9
$LUPREC
 70
     4
  9
$SKETCHINC
 40
0.1
  9
$FILLETRAD
 40
3.0
  9
$AUNITS
 70
     1
  9
$AUPREC
 70
     3
  9
$MENU
  1
ACAD
  9
$ELEVATION
 40
0.0
  9
$PELEVATION
 40
0.0
  9
$THICKNESS
 40
50.0
  9
$LIMCHECK
 70
     0
  9
$BLIPMODE
 70
     0
  9
$CHAMFERA
 40
0.0
  9
$CHAMFERB
 40
0.0
  9
$SKPOLY
 70
     0
  9
$TDCREATE
 40
2453019.6230103709
  9
$TDUPDATE
 40
2456305.6310094558
  9
$TDINDWG
 40
1.6612839352
  9
$TDUSRTIMER
 40
1.6612837616
  9
$USRTIMER
 70
     1
  9
$ANGBASE
 50
0.0
  9
$ANGDIR
 70
     0
  9
$PDMODE
 70
     3
  9
$PDSIZE
 40
-2.0
  9
$PLINEWID
 40
0.0
  9
$COORDS
 70
     1
  9
$SPLFRAME
 70
     0
  9
$SPLINETYPE
 70
     6
  9
$SPLINESEGS
 70
     8
  9
$ATTDIA
 70
     0
  9
$ATTREQ
 70
     1
  9
$HANDLING
 70
     1
  9
$HANDSEED
  5
22B
  9
$SURFTAB1
 70
     6
  9
$SURFTAB2
 70
     6
  9
$SURFTYPE
 70
     6
  9
$SURFU
 70
     6
  9
$SURFV
 70
     6
  9
$UCSNAME
  2

  9
$UCSORG
 10
0.0
 20
0.0
 30
0.0
  9
$UCSXDIR
 10
1.0
 20
0.0
 30
0.0
  9
$UCSYDIR
 10
0.0
 20
1.0
 30
0.0
  9
$PUCSNAME
  2

  9
$PUCSORG
 10
0.0
 20
0.0
 30
0.0
  9
$PUCSXDIR
 10
1.0
 20
0.0
 30
0.0
  9
$PUCSYDIR
 10
0.0
 20
1.0
 30
0.0
  9
$USERI1
 70
     0
  9
$USERI2
 70
     0
  9
$USERI3
 70
     0
  9
$USERI4
 70
     0
  9
$USERI5
 70
     0
  9
$USERR1
 40
20.0
  9
$USERR2
 40
0.0
  9
$USERR3
 40
0.0
  9
$USERR4
 40
0.0
  9
$USERR5
 40
0.0
  9
$WORLDVIEW
 70
     1
  9
$SHADEDGE
 70
     3
  9
$SHADEDIF
 70
    70
  9
$TILEMODE
 70
     1
  9
$MAXACTVP
 70
    48
  9
$PLIMCHECK
 70
     0
  9
$PEXTMIN
 10
-1.0000000000000000E+020
 20
-1.0000000000000000E+020
 30
-1.0000000000000000E+020
  9
$PEXTMAX
 10
1.0000000000000000E+020
 20
1.0000000000000000E+020
 30
1.0000000000000000E+020
  9
$PLIMMIN
 10
0.0
 20
0.0
  9
$PLIMMAX
 10
12.0
 20
9.0
  9
$UNITMODE
 70
     0
  9
$VISRETAIN
 70
     0
  9
$PLINEGEN
 70
     0
  9
$PSLTSCALE
 70
     0
  0
ENDSEC
  0
SECTION
  2
TABLES
  0
TABLE
  2
VPORT
 70
     1
  0
VPORT
  2
*ACTIVE
 70
     0
 10
0.0
 20
0.0
 11
1.0
 21
1.0
 12
496.59419723216291
 22
171.60210191771421
 13
0.0
 23
0.0
 14
1.0
 24
1.0
 15
0.0
 25
0.0
 16
0.0
 26
0.0
 36
1.0
 17
0.0
 27
0.0
 37
0.0
 40
2570.8063114288329
 41
1.693029490616621
 42
50.0
 43
0.0
 44
0.0
 50
0.0
 51
0.0
 71
     0
 72
  1000
 73
     1
 74
     0
 75
     0
 76
     0
 77
     0
 78
     0
  0
ENDTAB
  0
TABLE
  2
LTYPE
 70
     6
  0
LTYPE
  2
CONTINUOUS
 70
     0
  3
実線
 72
    65
 73
     0
 40
0.0
  0
LTYPE
  2
DASHDOT
 70
     0
  3
____ _ ____ _ ____ _ ____ _ ____ _ ____ _ ____
 72
    65
 73
     4
 40
5.5
 49
4.0
 49
-0.6
 49
0.3
 49
-0.6
  0
LTYPE
  2
DASHED
 70
     0
  3
-- -- -- -- -- -- -- -- -- -- -- -- -- -- --
 72
    65
 73
     2
 40
0.75
 49
0.5
 49
-0.25
  0
LTYPE
  2
CONTINOUS
 70
     0
  3
Solid line
 72
    65
 73
     0
 40
0.0
  0
LTYPE
  2
DOT
 70
     0
  3
...............................................
 72
    65
 73
     2
 40
0.8
 49
0.5
 49
-0.3
  0
ENDTAB
  0
TABLE
  2
LAYER
 70
    12
  0
LAYER
  2
0
 70
     0
 62
     7
  6
CONTINUOUS
  0
LAYER
  2
NOTE
 70
     0
 62
     4
  6
CONTINUOUS
  0
LAYER
  2
SIZE
 70
     0
 62
    30
  6
CONTINUOUS
  0
LAYER
  2
OUTLINE
 70
     0
 62
     3
  6
CONTINUOUS
  0
LAYER
  2
DETAIL
 70
     0
 62
     5
  6
CONTINUOUS
  0
LAYER
  2
BASIS
 70
     0
 62
     6
  6
DASHDOT
  0
LAYER
  2
ARRANGE
 70
     0
 62
     1
  6
CONTINUOUS
  0
LAYER
  2
FIX
 70
     0
 62
    11
  6
CONTINUOUS
  0
LAYER
  2
ETC
 70
     0
 62
    61
  6
CONTINUOUS
  0
LAYER
  2
DEFPOINTS
 70
     0
 62
     7
  6
CONTINUOUS
  0
LAYER
  2
SERVICESPACE
 70
     0
 62
     2
  6
DASHDOT
  0
LAYER
  2
SYMBOLLINE
 70
     0
 62
    15
  6
CONTINUOUS
  0
ENDTAB
  0
TABLE
  2
STYLE
 70
     2
  0
STYLE
  2
STANDARD
 70
     0
 40
64.0
 41
0.9
 50
0.0
 71
     0
 42
64.0
  3
SIMPLEX.shx
  4
BIGFONT.shx
  0
STYLE
  2
ANNOTATIVE
 70
     0
 40
0.0
 41
1.0
 50
0.0
 71
     0
 42
0.2
  3
txt
  4

  0
ENDTAB
  0
TABLE
  2
VIEW
 70
     1
  0
VIEW
  2
ALL
 70
     0
 40
4282.6198079999976
 10
0.0
 20
41.309904000000003
 41
5940.0
 11
0.0
 21
0.0
 31
1.0
 12
0.0
 22
0.0
 32
0.0
 42
50.0
 43
0.0
 44
0.0
 50
0.0
 71
     0
  0
ENDTAB
  0
TABLE
  2
UCS
 70
     0
  0
ENDTAB
  0
TABLE
  2
APPID
 70
    18
  0
APPID
  2
ACAD
 70
     0
  0
APPID
  2
ACADANNOTATIVE
 70
     0
  0
APPID
  2
AUTOCAD_POSTSCRIPT_FIGURE
 70
     0
  0
APPID
  2
ACAD_EXEMPT_FROM_CAD_STANDARDS
 70
     0
  0
APPID
  2
ACAD_PSEXT
 70
     0
  0
APPID
  2
ACAUTHENVIRON
 70
     0
  0
APPID
  2
GENIUS_GENOENT_13
 70
     0
  0
APPID
  2
GENIUS_GENCFG_13
 70
     0
  0
APPID
  2
GENIUS_GENCFG0_13
 70
     0
  0
APPID
  2
GENIUS_GENCFG1_13
 70
     0
  0
APPID
  2
GENIUS_GENCFG2_13
 70
     0
  0
APPID
  2
GENIUS_GENCFG3_13
 70
     0
  0
APPID
  2
GENIUS_GENCFG4_13
 70
     0
  0
APPID
  2
GENIUS_GEVCFG0_13
 70
     0
  0
APPID
  2
CONTENTBLOCKICON
 70
     0
  0
APPID
  2
CONTENTBLOCKDESCRIPTION
 70
     0
  0
APPID
  2
ACAD_NAV_VCDISPLAY
 70
     0
  0
APPID
  2
ACAD_MLEADERVER
 70
     0
  0
ENDTAB
  0
TABLE
  2
DIMSTYLE
 70
     2
  0
DIMSTYLE
  2
STANDARD
 70
     0
  3

  4

  5

  6

  7

 40
1.0
 41
0.18
 42
0.0625
 43
0.38
 44
0.18
 45
0.0
 46
0.0
 47
0.0
 48
0.0
140
0.18
141
0.09
142
0.0
143
25.399999999999999
144
1.0
145
0.0
146
1.0
147
0.09
 71
     0
 72
     0
 73
     1
 74
     1
 75
     0
 76
     0
 77
     0
 78
     0
170
     0
171
     2
172
     0
173
     0
174
     0
175
     0
176
     7
177
     7
178
     7
  0
DIMSTYLE
  2
ANNOTATIVE
 70
     0
  3

  4

  5

  6

  7

 40
1.0
 41
0.18
 42
0.0625
 43
0.38
 44
0.18
 45
0.0
 46
0.0
 47
0.0
 48
0.0
140
0.18
141
0.09
142
0.0
143
25.399999999999999
144
1.0
145
0.0
146
1.0
147
0.09
 71
     0
 72
     0
 73
     1
 74
     1
 75
     0
 76
     0
 77
     0
 78
     0
170
     0
171
     2
172
     0
173
     0
174
     0
175
     0
176
     0
177
     0
178
     0
  0
ENDTAB
  0
ENDSEC
  0
SECTION
  2
BLOCKS
  0
BLOCK
  8
0
  2
$MODEL_SPACE
 70
     0
 10
0.0
 20
0.0
 30
0.0
  3
$MODEL_SPACE
  1

  0
ENDBLK
  5
6D
  8
0
  0
BLOCK
 67
     1
  8
0
  2
$PAPER_SPACE
 70
     0
 10
0.0
 20
0.0
 30
0.0
  3
$PAPER_SPACE
  1

  0
ENDBLK
  5
69
 67
     1
  8
0
  0
BLOCK
  8
0
  2
_ORIGIN
 70
     0
 10
0.0
 20
0.0
 30
0.0
  3
_ORIGIN
  1

  0
CIRCLE
  5
93
  8
0
  6
CONTINUOUS
 62
     7
 10
0.0
 20
0.0
 30
0.0
 40
0.5
  0
LINE
  5
94
  8
0
  6
CONTINUOUS
 62
     7
 10
0.0
 20
0.0
 30
0.0
 11
-1.0
 21
0.0
 31
0.0
  0
ENDBLK
  5
95
  8
0
  0
ENDSEC
  0
SECTION
  2
ENTITIES
  0
LINE
  5
96
  8
BASIS
  6
DASHDOT
 62
     6
 10
945.32337662962072
 20
-205.0
 30
0.0
 11
800.3442467557619
 21
-205.0
 31
0.0
  0
LINE
  5
97
  8
BASIS
  6
DASHDOT
 62
     6
 10
0.0
 20
-501.19440399999951
 30
0.0
 11
0.0
 21
78.835385000000102
 31
0.0
  0
LINE
  5
98
  8
DETAIL
  6
CONTINOUS
 62
     5
 10
-402.0
 20
-404.0
 30
0.0
 11
-402.0
 21
-5.0
 31
0.0
  0
LINE
  5
99
  8
DETAIL
  6
CONTINOUS
 62
     5
 10
-102.0
 20
-5.0
 30
0.0
 11
-402.0
 21
-5.0
 31
0.0
  0
LINE
  5
9A
  8
DETAIL
  6
CONTINOUS
 62
     5
 10
-102.0
 20
-404.0
 30
0.0
 11
-102.0
 21
-5.0
 31
0.0
  0
CIRCLE
  5
9B
  8
DETAIL
  6
CONTINUOUS
 62
     5
 10
487.0
 20
-380.0
 30
0.0
 40
16.0
  0
LINE
  5
9C
  8
NOTE
  6
CONTINUOUS
 62
     4
 10
-4.1556128643031789
 20
-222.40487832964999
 30
0.0
 11
-348.49301472575098
 21
-539.8874550393657
 31
0.0
  0
LINE
  5
9D
  8
NOTE
  6
CONTINUOUS
 62
     4
 10
-348.49301472575098
 20
-539.8874550393657
 30
0.0
 11
-464.66899972575112
 21
-539.8874550393657
 31
0.0
  0
TEXT
  5
9E
  8
NOTE
  6
CONTINUOUS
 62
     4
 10
-449.43080872575098
 20
-526.03343103936572
 30
0.0
 40
64.0
  1
CL
 41
0.9
  0
LINE
  5
9F
  8
NOTE
  6
CONTINUOUS
 62
     4
 10
1056.828456795268
 20
190.54093900000001
 30
0.0
 11
2045.0112435474871
 21
190.54093900000001
 31
0.0
  0
TEXT
  5
A0
  8
NOTE
  6
CONTINUOUS
 62
     4
 10
1059.153151303165
 20
212.43684598034611
 30
0.0
 40
64.0
  1
CW　PT1/2オネジ(\U+03C621.7)
 41
0.9
  0
LINE
  5
A1
  8
NOTE
  6
CONTINUOUS
 62
     4
 10
487.0
 20
-380.0
 30
0.0
 11
282.84693241741479
 21
-811.48819000004721
 31
0.0
  0
LINE
  5
A2
  8
NOTE
  6
CONTINUOUS
 62
     4
 10
282.84693241741479
 20
-811.48819000004721
 30
0.0
 11
5.2881424174147451
 21
-811.48819000004721
 31
0.0
  0
TEXT
  5
A3
  8
NOTE
  6
CONTINUOUS
 62
     4
 10
33.075030417414851
 20
-790.27677100004735
 30
0.0
 40
64.0
  1
D \U+03C632
 41
0.9
  0
LINE
  5
A4
  8
NOTE
  6
CONTINUOUS
 62
     4
 10
-402.0
 20
-336.95129400000002
 30
0.0
 11
-974.94288900000004
 21
-859.10036000000002
 31
0.0
  0
LINE
  5
A5
  8
NOTE
  6
CONTINUOUS
 62
     4
 10
-974.94288900000004
 20
-859.10036000000002
 30
0.0
 11
-1562.971
 21
-859.10036000000002
 31
0.0
  0
TEXT
  5
A6
  8
NOTE
  6
CONTINUOUS
 62
     4
 10
-1550.7570000000001
 20
-828.93946900000014
 30
0.0
 40
64.0
  1
メンテナンスカバー
 41
0.9
  0
CIRCLE
  5
A7
  8
DETAIL
  6
CONTINUOUS
 62
     5
 10
484.0
 20
-296.0
 30
0.0
 40
10.849999999999991
  0
LINE
  5
A8
  8
DETAIL
  6
CONTINOUS
 62
     5
 10
837.0
 20
-404.0
 30
0.0
 11
837.0
 21
0.0
 31
0.0
  0
LINE
  5
A9
  8
DETAIL
  6
CONTINOUS
 62
     5
 10
-837.0
 20
-404.0
 30
0.0
 11
-837.0
 21
0.0
 31
0.0
  0
LINE
  5
AA
  8
DETAIL
  6
CONTINOUS
 62
     5
 10
837.0
 20
-404.0
 30
0.0
 11
-837.0
 21
-404.0
 31
0.0
  0
LINE
  5
AB
  8
SIZE
  6
CONTINUOUS
 62
    30
 10
1098.272565883241
 20
-335.24999999999989
 30
0.0
 11
1098.272565883241
 21
-573.71503904781275
 31
0.0
  0
CIRCLE
  5
AC
  8
ARRANGE
  6
CONTINUOUS
 62
     1
 10
0.0
 20
0.0
 30
0.0
 40
40.0
  0
LINE
  5
AD
  8
DETAIL
  6
CONTINUOUS
 62
     5
 10
837.0
 20
0.0
 30
0.0
 11
-837.0
 21
0.0
 31
0.0
  0
POINT
  5
AE
  8
ARRANGE
  6
CONTINUOUS
 62
     1
 10
0.0
 20
0.0
 30
0.0
  0
LINE
  5
AF
  8
DETAIL
  6
CONTINOUS
 62
     5
 10
-812.5
 20
-404.0
 30
0.0
 11
-812.5
 21
-374.0
 31
0.0
  0
LINE
  5
B0
  8
DETAIL
  6
CONTINOUS
 62
     5
 10
-752.49999999999955
 20
-404.0
 30
0.0
 11
-752.49999999999955
 21
-374.0
 31
0.0
  0
LINE
  5
B1
  8
DETAIL
  6
CONTINOUS
 62
     5
 10
-752.49999999999955
 20
-374.0
 30
0.0
 11
-812.5
 21
-374.0
 31
0.0
  0
LINE
  5
B2
  8
DETAIL
  6
CONTINOUS
 62
     5
 10
-752.49999999999955
 20
-399.0
 30
0.0
 11
-812.5
 21
-399.0
 31
0.0
  0
LINE
  5
B3
  8
DETAIL
  6
CONTINOUS
 62
     5
 10
393.5
 20
-399.0
 30
0.0
 11
333.5
 21
-399.0
 31
0.0
  0
LINE
  5
B4
  8
DETAIL
  6
CONTINOUS
 62
     5
 10
393.5
 20
-374.0
 30
0.0
 11
333.5
 21
-374.0
 31
0.0
  0
LINE
  5
B5
  8
DETAIL
  6
CONTINOUS
 62
     5
 10
393.5
 20
-404.0
 30
0.0
 11
393.5
 21
-374.0
 31
0.0
  0
LINE
  5
B6
  8
DETAIL
  6
CONTINOUS
 62
     5
 10
333.5
 20
-404.0
 30
0.0
 11
333.5
 21
-374.0
 31
0.0
  0
LINE
  5
B7
  8
DETAIL
  6
DOT
 62
     5
 10
-752.49999999999955
 20
-25.0
 30
0.0
 11
-812.5
 21
-25.0
 31
0.0
  0
LINE
  5
B8
  8
DETAIL
  6
CONTINUOUS
 62
     5
 10
-750.0
 20
0.0
 30
0.0
 11
-810.0
 21
0.0
 31
0.0
  0
LINE
  5
B9
  8
DETAIL
  6
DOT
 62
     5
 10
-752.49999999999955
 20
-30.0
 30
0.0
 11
-752.49999999999955
 21
0.0
 31
0.0
  0
LINE
  5
BA
  8
DETAIL
  6
DOT
 62
     5
 10
-812.5
 20
-30.0
 30
0.0
 11
-812.5
 21
0.0
 31
0.0
  0
LINE
  5
BB
  8
DETAIL
  6
DOT
 62
     5
 10
393.5
 20
-30.0
 30
0.0
 11
393.5
 21
0.0
 31
0.0
  0
LINE
  5
BC
  8
DETAIL
  6
CONTINUOUS
 62
     5
 10
391.0
 20
0.0
 30
0.0
 11
331.0
 21
0.0
 31
0.0
  0
LINE
  5
BD
  8
DETAIL
  6
DOT
 62
     5
 10
393.5
 20
-25.0
 30
0.0
 11
333.5
 21
-25.0
 31
0.0
  0
LINE
  5
BE
  8
DETAIL
  6
DOT
 62
     5
 10
-812.5
 20
-30.0
 30
0.0
 11
-752.49999999999955
 21
-30.0
 31
0.0
  0
LINE
  5
BF
  8
DETAIL
  6
DOT
 62
     5
 10
333.5
 20
-30.0
 30
0.0
 11
393.5
 21
-30.0
 31
0.0
  0
LINE
  5
C0
  8
NOTE
  6
CONTINUOUS
 62
     4
 10
-782.5
 20
-30.0
 30
0.0
 11
-371.43677100000008
 21
195.21597399999999
 31
0.0
  0
LINE
  5
C1
  8
NOTE
  6
CONTINUOUS
 62
     4
 10
-371.43677100000008
 20
195.21597399999999
 30
0.0
 11
460.48326999999989
 21
195.21597399999999
 31
0.0
  0
TEXT
  5
C2
  8
NOTE
  6
CONTINUOUS
 62
     4
 10
-391.62930899999992
 20
221.20703099999969
 30
0.0
 40
64.0
  1
（天吊金具　上部取付可能）
 41
0.9
  0
LINE
  5
C3
  8
SIZE
  6
CONTINUOUS
 62
    30
 10
-1234.157999999999
 20
-258.74999999999972
 30
0.0
 11
-1234.157999999999
 21
-579.14395899999965
 31
0.0
  0
LINE
  5
C4
  8
SIZE
  6
CONTINUOUS
 62
    30
 10
-1395.355
 20
-265.0
 30
0.0
 11
-1395.355
 21
-580.71559499999955
 31
0.0
  0
LINE
  5
C5
  8
NOTE
  6
CONTINUOUS
 62
     4
 10
363.5
 20
-404.0
 30
0.0
 11
505.74991299999999
 21
-856.03129300000001
 31
0.0
  0
LINE
  5
C6
  8
NOTE
  6
CONTINUOUS
 62
     4
 10
505.74991299999999
 20
-856.03129300000001
 30
0.0
 11
1106.134
 21
-856.03129300000001
 31
0.0
  0
TEXT
  5
C7
  8
NOTE
  6
CONTINUOUS
 62
     4
 10
516.91308699999979
 20
-844.27884099999983
 30
0.0
 40
64.0
  1
AH 4-\U+03C615\U+00D730
 41
0.9
  0
LINE
  5
C8
  8
DETAIL
  6
DOT
 62
     5
 10
333.5
 20
-30.0
 30
0.0
 11
333.5
 21
0.0
 31
0.0
  0
LINE
  5
C9
  8
DETAIL
  6
CONTINOUS
 62
     5
 10
-916.0
 20
-326.0
 30
0.0
 11
-916.0
 21
-84.0
 31
0.0
  0
LINE
  5
CA
  8
NOTE
  6
CONTINUOUS
 62
     4
 10
484.0
 20
-296.0
 30
0.0
 11
1056.828456795268
 21
190.54093900000001
 31
0.0
  0
LINE
  5
CB
  8
DETAIL
  6
CONTINUOUS
 62
     5
 10
-837.0
 20
-76.0
 30
0.0
 11
-916.0
 21
-84.0
 31
0.0
  0
LINE
  5
CC
  8
DETAIL
  6
CONTINUOUS
 62
     5
 10
-837.0
 20
-334.0
 30
0.0
 11
-916.0
 21
-326.0
 31
0.0
  0
LINE
  5
CD
  8
DETAIL
  6
DOT
 62
     5
 10
837.0
 20
-76.0
 30
0.0
 11
916.0
 21
-84.0
 31
0.0
  0
LINE
  5
CE
  8
DETAIL
  6
CONTINUOUS
 62
     5
 10
837.0
 20
-334.0
 30
0.0
 11
916.0
 21
-326.0
 31
0.0
  0
LINE
  5
CF
  8
NOTE
  6
CONTINUOUS
 62
     4
 10
-371.43677100000008
 20
195.21597399999999
 30
0.0
 11
363.5
 21
-30.0
 31
0.0
  0
CIRCLE
  5
D0
  8
FIX
  6
CONTINUOUS
 62
    11
 10
-782.5
 20
-404.0
 30
0.0
 40
7.5
  0
CIRCLE
  5
D1
  8
FIX
  6
CONTINUOUS
 62
    11
 10
363.5
 20
-404.0
 30
0.0
 40
7.5
  0
LINE
  5
D2
  8
NOTE
  6
CONTINUOUS
 62
     4
 10
809.5
 20
-118.71442568052611
 30
0.0
 11
1034.57069
 21
66.374215000000049
 31
0.0
  0
LINE
  5
D3
  8
NOTE
  6
CONTINUOUS
 62
     4
 10
1034.57069
 20
66.374215000000049
 30
0.0
 11
2230.9859999999981
 21
66.374215000000049
 31
0.0
  0
TEXT
  5
D4
  8
NOTE
  6
CONTINUOUS
 62
     4
 10
1045.8634082240781
 20
89.283213298382194
 30
0.0
 40
64.0
  1
加湿エレメント，メンテナンスカバー
 41
0.9
  0
LINE
  5
D5
  8
SIZE
  6
CONTINUOUS
 62
    30
 10
857.0
 20
-404.0
 30
0.0
 11
1183.9829999999999
 21
-404.0
 31
0.0
  0
LINE
  5
D6
  8
SIZE
  6
CONTINUOUS
 62
    30
 10
969.48656241357082
 20
-205.0
 30
0.0
 11
1123.6439170244521
 21
-205.0
 31
0.0
  0
LINE
  5
D7
  8
SIZE
  6
CONTINUOUS
 62
    30
 10
1098.272565883241
 20
-402.0
 30
0.0
 11
1098.272565883241
 21
-304.49999999999989
 31
0.0
  0
LINE
  5
D8
  8
SIZE
  6
CONTINUOUS
 62
    30
 10
1098.272565883241
 20
-205.0
 30
0.0
 11
1098.272565883241
 21
-304.49999999999989
 31
0.0
  0
TEXT
  5
D9
  8
SIZE
  6
CONTINUOUS
 62
    30
 10
1066.272565883241
 20
-566.04810499999985
 30
0.0
 40
64.0
  1
199
 50
90.0
 41
0.9
  0
LINE
  5
DA
  8
SIZE
  6
CONTINUOUS
 62
    30
 10
-837.0
 20
20.0
 30
0.0
 11
-837.0
 21
340.17604599999981
 31
0.0
  0
LINE
  5
DB
  8
SIZE
  6
CONTINUOUS
 62
    30
 10
-916.0
 20
-69.0
 30
0.0
 11
-916.0
 21
334.17604599999981
 31
0.0
  0
LINE
  5
DC
  8
SIZE
  6
CONTINUOUS
 62
    30
 10
-835.0
 20
310.17604599999981
 30
0.0
 11
-833.0
 21
310.17604599999981
 31
0.0
  0
LINE
  5
DD
  8
SIZE
  6
CONTINUOUS
 62
    30
 10
-916.0
 20
310.17604599999981
 30
0.0
 11
-837.0
 21
310.17604599999981
 31
0.0
  0
TEXT
  5
DE
  8
SIZE
  6
CONTINUOUS
 62
    30
 10
-921.7571429999997
 20
342.17604599999981
 30
0.0
 40
64.0
  1
79
 41
0.9
  0
LINE
  5
DF
  8
SIZE
  6
CONTINUOUS
 62
    30
 10
837.0
 20
20.0
 30
0.0
 11
837.0
 21
340.17604599999981
 31
0.0
  0
LINE
  5
E0
  8
SIZE
  6
CONTINUOUS
 62
    30
 10
916.0
 20
-69.0
 30
0.0
 11
916.0
 21
334.17604599999981
 31
0.0
  0
LINE
  5
E1
  8
SIZE
  6
CONTINUOUS
 62
    30
 10
916.0
 20
310.17604599999981
 30
0.0
 11
837.0
 21
310.17604599999981
 31
0.0
  0
TEXT
  5
E2
  8
SIZE
  6
CONTINUOUS
 62
    30
 10
831.2428570000003
 20
342.17604599999981
 30
0.0
 40
64.0
  1
79
 41
0.9
  0
LINE
  5
E3
  8
SIZE
  6
CONTINUOUS
 62
    30
 10
-857.0
 20
-76.0
 30
0.0
 11
-1419.804115567094
 21
-76.0
 31
0.0
  0
LINE
  5
E4
  8
SIZE
  6
CONTINUOUS
 62
    30
 10
-857.0
 20
-334.0
 30
0.0
 11
-1419.804115567094
 21
-334.0
 31
0.0
  0
LINE
  5
E5
  8
SIZE
  6
CONTINUOUS
 62
    30
 10
-1395.355
 20
-76.0
 30
0.0
 11
-1395.355
 21
-205.0
 31
0.0
  0
LINE
  5
E6
  8
SIZE
  6
CONTINUOUS
 62
    30
 10
-1395.355
 20
-332.0
 30
0.0
 11
-1395.355
 21
-205.0
 31
0.0
  0
TEXT
  5
E7
  8
SIZE
  6
CONTINUOUS
 62
    30
 10
-1427.355
 20
-573.46375899999975
 30
0.0
 40
64.0
  1
\U+03C6258
 50
90.0
 41
0.9
  0
LINE
  5
E8
  8
SIZE
  6
CONTINUOUS
 62
    30
 10
-936.0
 20
-326.0
 30
0.0
 11
-1262.743392801259
 21
-326.0
 31
0.0
  0
LINE
  5
E9
  8
SIZE
  6
CONTINUOUS
 62
    30
 10
-936.0
 20
-84.0
 30
0.0
 11
-1260.327062086749
 21
-84.0
 31
0.0
  0
LINE
  5
EA
  8
SIZE
  6
CONTINUOUS
 62
    30
 10
-1234.157999999999
 20
-324.0
 30
0.0
 11
-1234.157999999999
 21
-205.0
 31
0.0
  0
LINE
  5
EB
  8
SIZE
  6
CONTINUOUS
 62
    30
 10
-1234.157999999999
 20
-84.0
 30
0.0
 11
-1234.157999999999
 21
-205.0
 31
0.0
  0
TEXT
  5
EC
  8
SIZE
  6
CONTINUOUS
 62
    30
 10
-1266.1579999999999
 20
-570.32048499999985
 30
0.0
 40
64.0
  1
\U+03C6242
 50
90.0
 41
0.9
  0
LINE
  5
ED
  8
SIZE
  6
CONTINUOUS
 62
    30
 10
363.5
 20
-404.0
 30
0.0
 11
363.5
 21
-940.81307000000004
 31
0.0
  0
LINE
  5
EE
  8
SIZE
  6
CONTINUOUS
 62
    30
 10
-782.5
 20
-444.0
 30
0.0
 11
-782.5
 21
-940.81307000000004
 31
0.0
  0
LINE
  5
EF
  8
SIZE
  6
CONTINUOUS
 62
    30
 10
363.4749413911411
 20
-910.81307000000004
 30
0.0
 11
-782.5
 21
-910.81307000000004
 31
0.0
  0
TEXT
  5
F0
  8
SIZE
  6
CONTINUOUS
 62
    30
 10
-281.68217365290548
 20
-878.81306999999958
 30
0.0
 40
64.0
  1
1146
 41
0.9
  0
LINE
  5
F1
  8
SIZE
  6
CONTINUOUS
 62
    30
 10
837.0
 20
20.0
 30
0.0
 11
837.0
 21
340.17604599999981
 31
0.0
  0
LINE
  5
F2
  8
SIZE
  6
CONTINUOUS
 62
    30
 10
-837.0
 20
20.0
 30
0.0
 11
-837.0
 21
340.17604599999981
 31
0.0
  0
LINE
  5
F3
  8
SIZE
  6
CONTINUOUS
 62
    30
 10
837.0
 20
310.17604599999981
 30
0.0
 11
-837.0
 21
310.17604599999981
 31
0.0
  0
TEXT
  5
F4
  8
SIZE
  6
CONTINUOUS
 62
    30
 10
-107.12354245072861
 20
342.17604599999981
 30
0.0
 40
64.0
  1
1674
 41
0.9
  0
LINE
  5
F5
  8
SIZE
  6
CONTINUOUS
 62
    30
 10
857.0
 20
-404.0
 30
0.0
 11
1402.00763649078
 21
-404.0
 31
0.0
  0
LINE
  5
F6
  8
SIZE
  6
CONTINUOUS
 62
    30
 10
857.0
 20
0.0
 30
0.0
 11
1402.00763649078
 21
0.0
 31
0.0
  0
LINE
  5
F7
  8
SIZE
  6
CONTINUOUS
 62
    30
 10
1375.42813516246
 20
-404.0
 30
0.0
 11
1375.42813516246
 21
0.0
 31
0.0
  0
TEXT
  5
F8
  8
SIZE
  6
CONTINUOUS
 62
    30
 10
1343.42813516246
 20
-268.60618590316312
 30
0.0
 40
64.0
  1
404
 50
90.0
 41
0.9
  0
LINE
  5
F9
  8
SIZE
  6
CONTINUOUS
 62
    30
 10
837.0
 20
-424.0
 30
0.0
 11
837.0
 21
-767.55010400000003
 31
0.0
  0
LINE
  5
FA
  8
SIZE
  6
CONTINUOUS
 62
    30
 10
487.0
 20
-421.0
 30
0.0
 11
487.0
 21
-767.55010400000003
 31
0.0
  0
LINE
  5
FB
  8
SIZE
  6
CONTINUOUS
 62
    30
 10
837.0
 20
-737.55010400000003
 30
0.0
 11
487.0
 21
-737.55010400000003
 31
0.0
  0
TEXT
  5
FC
  8
SIZE
  6
CONTINUOUS
 62
    30
 10
598.84968975013908
 20
-705.55010400000003
 30
0.0
 40
64.0
  1
350
 41
0.9
  0
LINE
  5
FD
  8
SIZE
  6
CONTINUOUS
 62
    30
 10
577.00033002456621
 20
-404.0
 30
0.0
 11
632.61323983987995
 21
-404.0
 31
0.0
  0
CIRCLE
  5
FE
  8
SIZE
  6
CONTINUOUS
 62
    30
 10
487.0
 20
-737.55010400000003
 30
0.0
 40
6.0
  0
CIRCLE
  5
FF
  8
SIZE
  6
CONTINUOUS
 62
    30
 10
837.0
 20
-737.55010400000003
 30
0.0
 40
6.0
  0
CIRCLE
  5
100
  8
SIZE
  6
CONTINUOUS
 62
    30
 10
1375.42813516246
 20
0.0
 30
0.0
 40
6.0
  0
CIRCLE
  5
101
  8
SIZE
  6
CONTINUOUS
 62
    30
 10
1375.42813516246
 20
-404.0
 30
0.0
 40
6.0
  0
CIRCLE
  5
102
  8
SIZE
  6
CONTINUOUS
 62
    30
 10
-837.0
 20
310.17604599999981
 30
0.0
 40
6.0
  0
CIRCLE
  5
103
  8
SIZE
  6
CONTINUOUS
 62
    30
 10
837.0
 20
310.17604599999981
 30
0.0
 40
6.0
  0
CIRCLE
  5
104
  8
SIZE
  6
CONTINUOUS
 62
    30
 10
-782.5
 20
-910.81307000000004
 30
0.0
 40
6.0
  0
CIRCLE
  5
105
  8
SIZE
  6
CONTINUOUS
 62
    30
 10
363.5
 20
-910.81307000000004
 30
0.0
 40
6.0
  0
CIRCLE
  5
106
  8
SIZE
  6
CONTINUOUS
 62
    30
 10
-1234.157999999999
 20
-84.0
 30
0.0
 40
6.0
  0
CIRCLE
  5
107
  8
SIZE
  6
CONTINUOUS
 62
    30
 10
-1234.157999999999
 20
-326.0
 30
0.0
 40
6.0
  0
CIRCLE
  5
108
  8
SIZE
  6
CONTINUOUS
 62
    30
 10
-1395.355
 20
-334.0
 30
0.0
 40
6.0
  0
CIRCLE
  5
109
  8
SIZE
  6
CONTINUOUS
 62
    30
 10
-1395.355
 20
-76.0
 30
0.0
 40
6.0
  0
CIRCLE
  5
10A
  8
SIZE
  6
CONTINUOUS
 62
    30
 10
837.0
 20
310.17604599999981
 30
0.0
 40
6.0
  0
CIRCLE
  5
10B
  8
SIZE
  6
CONTINUOUS
 62
    30
 10
916.0
 20
310.17604599999981
 30
0.0
 40
6.0
  0
CIRCLE
  5
10C
  8
SIZE
  6
CONTINUOUS
 62
    30
 10
-837.0
 20
310.17604599999981
 30
0.0
 40
6.0
  0
CIRCLE
  5
10D
  8
SIZE
  6
CONTINUOUS
 62
    30
 10
-916.0
 20
310.17604599999981
 30
0.0
 40
6.0
  0
CIRCLE
  5
10E
  8
SIZE
  6
CONTINUOUS
 62
    30
 10
1098.272565883241
 20
-205.0
 30
0.0
 40
6.0
  0
CIRCLE
  5
10F
  8
SIZE
  6
CONTINUOUS
 62
    30
 10
1098.272565883241
 20
-404.0
 30
0.0
 40
6.0
  0
LINE
  5
110
  8
NOTE
  6
CONTINUOUS
 62
     4
 10
-782.5
 20
-50.0
 30
0.0
 11
-782.5
 21
-10.0
 31
0.0
  0
LINE
  5
111
  8
NOTE
  6
CONTINUOUS
 62
     4
 10
-802.5
 20
-30.0
 30
0.0
 11
-762.5
 21
-30.0
 31
0.0
  0
LINE
  5
112
  8
NOTE
  6
CONTINUOUS
 62
     4
 10
363.5
 20
-50.261279000000059
 30
0.0
 11
363.5
 21
-10.26127900000006
 31
0.0
  0
LINE
  5
113
  8
NOTE
  6
CONTINUOUS
 62
     4
 10
343.5
 20
-30.261279000000052
 30
0.0
 11
383.5
 21
-30.261279000000052
 31
0.0
  0
LINE
  5
114
  8
NOTE
  6
CONTINUOUS
 62
     4
 10
363.5
 20
-424.0
 30
0.0
 11
363.5
 21
-384.0
 31
0.0
  0
LINE
  5
115
  8
NOTE
  6
CONTINUOUS
 62
     4
 10
343.5
 20
-404.0
 30
0.0
 11
383.5
 21
-404.0
 31
0.0
  0
LINE
  5
116
  8
NOTE
  6
CONTINUOUS
 62
     4
 10
-782.5
 20
-424.0
 30
0.0
 11
-782.5
 21
-384.0
 31
0.0
  0
LINE
  5
117
  8
NOTE
  6
CONTINUOUS
 62
     4
 10
-802.5
 20
-404.0
 30
0.0
 11
-762.5
 21
-404.0
 31
0.0
  0
LINE
  5
118
  8
NOTE
  6
CONTINUOUS
 62
     4
 10
484.0
 20
-316.0
 30
0.0
 11
484.0
 21
-276.0
 31
0.0
  0
LINE
  5
119
  8
NOTE
  6
CONTINUOUS
 62
     4
 10
464.0
 20
-296.0
 30
0.0
 11
504.0
 21
-296.0
 31
0.0
  0
LINE
  5
11A
  8
NOTE
  6
CONTINUOUS
 62
     4
 10
487.0
 20
-400.0
 30
0.0
 11
487.0
 21
-360.0
 31
0.0
  0
LINE
  5
11B
  8
NOTE
  6
CONTINUOUS
 62
     4
 10
467.0
 20
-380.0
 30
0.0
 11
507.0
 21
-380.0
 31
0.0
  0
LINE
  5
11C
  8
DETAIL
  6
CONTINOUS
 62
     5
 10
418.0
 20
-404.0
 30
0.0
 11
418.0
 21
0.0
 31
0.0
  0
LINE
  5
11D
  8
BASIS
  6
DASHDOT
 62
     6
 10
-688.0
 20
-374.85638076407849
 30
0.0
 11
-688.0
 21
-42.82453204078773
 31
0.0
  0
CIRCLE
  5
11E
  8
DETAIL
  6
DASHED
 62
     5
 10
-688.00000000000011
 20
-205.0
 30
0.0
 40
129.0
  0
CIRCLE
  5
11F
  8
DETAIL
  6
DASHED
 62
     5
 10
-688.00000000000011
 20
-205.0
 30
0.0
 40
121.0
  0
LINE
  5
120
  8
BASIS
  6
DASHDOT
 62
     6
 10
-503.77000451091942
 20
-205.0
 30
0.0
 11
-973.79889600000001
 21
-205.0
 31
0.0
  0
LINE
  5
121
  8
SIZE
  6
CONTINUOUS
 62
    30
 10
-993.79889600000001
 20
-205.0
 30
0.0
 11
-1116.3521153402039
 21
-204.9999999999998
 31
0.0
  0
LINE
  5
122
  8
SIZE
  6
CONTINUOUS
 62
    30
 10
-857.0
 20
-404.0
 30
0.0
 11
-1116.3521153402039
 21
-404.0
 31
0.0
  0
LINE
  5
123
  8
SIZE
  6
CONTINUOUS
 62
    30
 10
-1086.3521153402021
 20
-204.9999999999998
 30
0.0
 11
-1086.3521153402021
 21
-404.0
 31
0.0
  0
LINE
  5
124
  8
SIZE
  6
CONTINUOUS
 62
    30
 10
-1086.3521153402021
 20
-404.0
 30
0.0
 11
-1086.3521153402021
 21
-561.83717342471004
 31
0.0
  0
TEXT
  5
125
  8
SIZE
  6
CONTINUOUS
 62
    30
 10
-1111.3521153402039
 20
-557.00762365376966
 30
0.0
 40
64.0
  1
199
 50
90.0
 41
0.9
  0
CIRCLE
  5
126
  8
SIZE
  6
CONTINUOUS
 62
    30
 10
-1086.3521153402021
 20
-204.9999999999998
 30
0.0
 40
6.0
  0
CIRCLE
  5
127
  8
SIZE
  6
CONTINUOUS
 62
    30
 10
-1086.3521153402021
 20
-404.0
 30
0.0
 40
6.0
  0
CIRCLE
  5
128
  8
SIZE
  6
CONTINUOUS
 62
    30
 10
418.0
 20
-1035.073782891269
 30
0.0
 40
6.0
  0
CIRCLE
  5
129
  8
SIZE
  6
CONTINUOUS
 62
    30
 10
-837.0
 20
-1035.073782891269
 30
0.0
 40
6.0
  0
LINE
  5
12A
  8
DETAIL
  6
CONTINOUS
 62
     5
 10
458.0
 20
-261.0
 30
0.0
 11
458.0
 21
-61.0
 31
0.0
  0
LINE
  5
12B
  8
DETAIL
  6
CONTINOUS
 62
     5
 10
809.5
 20
-261.0
 30
0.0
 11
809.5
 21
-61.0
 31
0.0
  0
LINE
  5
12C
  8
DETAIL
  6
CONTINUOUS
 62
     5
 10
458.0
 20
-61.0
 30
0.0
 11
809.5
 21
-61.0
 31
0.0
  0
LINE
  5
12D
  8
DETAIL
  6
CONTINUOUS
 62
     5
 10
458.0
 20
-261.0
 30
0.0
 11
809.5
 21
-261.0
 31
0.0
  0
LINE
  5
12E
  8
DETAIL
  6
CONTINUOUS
 62
     5
 10
837.0
 20
-40.0
 30
0.0
 11
916.0
 21
-48.0
 31
0.0
  0
LINE
  5
12F
  8
DETAIL
  6
CONTINOUS
 62
     5
 10
916.0
 20
-48.0
 30
0.0
 11
916.0
 21
-326.0
 31
0.0
  0
LINE
  5
130
  8
DETAIL
  6
CONTINUOUS
 62
     5
 10
837.0
 20
-298.0
 30
0.0
 11
916.0
 21
-290.0
 31
0.0
  0
LINE
  5
131
  8
BASIS
  6
DASHDOT
 62
     6
 10
961.85681485132966
 20
-169.0
 30
0.0
 11
787.88185293464176
 21
-169.0
 31
0.0
  0
CIRCLE
  5
132
  8
SIZE
  6
CONTINUOUS
 62
    30
 10
1241.322432823325
 20
-169.0
 30
0.0
 40
6.0
  0
CIRCLE
  5
133
  8
SIZE
  6
CONTINUOUS
 62
    30
 10
1241.322432823325
 20
-404.0
 30
0.0
 40
6.0
  0
LINE
  5
134
  8
OUTLINE
  6
CONTINUOUS
 62
     3
 10
837.0
 20
0.0
 30
0.0
 11
837.0
 21
-404.0
 31
0.0
  0
LINE
  5
135
  8
OUTLINE
  6
CONTINUOUS
 62
     3
 10
837.0
 20
-404.0
 30
0.0
 11
-837.0
 21
-404.0
 31
0.0
  0
LINE
  5
136
  8
OUTLINE
  6
CONTINUOUS
 62
     3
 10
-837.0
 20
-404.0
 30
0.0
 11
-837.0
 21
0.0
 31
0.0
  0
LINE
  5
137
  8
OUTLINE
  6
CONTINUOUS
 62
     3
 10
-837.0
 20
0.0
 30
0.0
 11
837.0
 21
0.0
 31
0.0
  0
CIRCLE
  5
138
  8
SIZE
  6
CONTINUOUS
 62
    30
 10
743.53477674257374
 20
-296.0
 30
0.0
 40
6.0
  0
CIRCLE
  5
139
  8
SIZE
  6
CONTINUOUS
 62
    30
 10
743.53477674257374
 20
-404.0
 30
0.0
 40
6.0
  0
CIRCLE
  5
13A
  8
SIZE
  6
CONTINUOUS
 62
    30
 10
608.22092421632169
 20
-404.0
 30
0.0
 40
6.0
  0
CIRCLE
  5
13B
  8
SIZE
  6
CONTINUOUS
 62
    30
 10
608.22092421632169
 20
-380.0
 30
0.0
 40
6.0
  0
LINE
  5
13C
  8
SIZE
  6
CONTINUOUS
 62
    30
 10
524.0
 20
-296.0
 30
0.0
 11
773.53477674257317
 21
-296.0
 31
0.0
  0
LINE
  5
13D
  8
SIZE
  6
CONTINUOUS
 62
    30
 10
709.61574785740595
 20
-404.0
 30
0.0
 11
773.53477674257317
 21
-404.0
 31
0.0
  0
LINE
  5
13E
  8
SIZE
  6
CONTINUOUS
 62
    30
 10
743.53477674257374
 20
-296.0
 30
0.0
 11
743.53477674257374
 21
-404.0
 31
0.0
  0
LINE
  5
13F
  8
SIZE
  6
CONTINUOUS
 62
    30
 10
743.53477674257374
 20
-404.0
 30
0.0
 11
743.53477674257374
 21
-576.20506151570385
 31
0.0
  0
LINE
  5
140
  8
SIZE
  6
CONTINUOUS
 62
    30
 10
527.0
 20
-380.0
 30
0.0
 11
638.22092421632169
 21
-380.0
 31
0.0
  0
LINE
  5
141
  8
SIZE
  6
CONTINUOUS
 62
    30
 10
616.06115700000021
 20
-404.0
 30
0.0
 11
638.22092421632169
 21
-404.0
 31
0.0
  0
LINE
  5
142
  8
SIZE
  6
CONTINUOUS
 62
    30
 10
608.22092421632169
 20
-380.0
 30
0.0
 11
608.22092421632169
 21
-340.0
 31
0.0
  0
LINE
  5
143
  8
SIZE
  6
CONTINUOUS
 62
    30
 10
608.22092421632169
 20
-404.0
 30
0.0
 11
608.22092421632169
 21
-539.983406447216
 31
0.0
  0
LINE
  5
144
  8
SIZE
  6
CONTINUOUS
 62
    30
 10
608.22092421632169
 20
-380.0
 30
0.0
 11
608.22092421632169
 21
-404.0
 31
0.0
  0
LINE
  5
145
  8
NOTE
  6
CONTINUOUS
 62
     4
 10
385.264318
 20
-437.56060899999989
 30
0.0
 11
363.5
 21
-404.0
 31
0.0
  0
LINE
  5
146
  8
NOTE
  6
CONTINUOUS
 62
     4
 10
363.5
 20
-404.0
 30
0.0
 11
365.56814800000012
 21
-443.94649900000002
 31
0.0
  0
LINE
  5
147
  8
NOTE
  6
CONTINUOUS
 62
     4
 10
482.18344145151792
 20
-419.28395097947202
 30
0.0
 11
487.0
 21
-380.0
 31
0.0
  0
LINE
  5
148
  8
NOTE
  6
CONTINUOUS
 62
     4
 10
487.0
 20
-380.0
 30
0.0
 11
460.79283435513202
 21
-408.14819585030813
 31
0.0
  0
LINE
  5
149
  8
NOTE
  6
CONTINUOUS
 62
     4
 10
505.03146699999968
 20
-261.97534099999967
 30
0.0
 11
484.0
 21
-296.0
 31
0.0
  0
LINE
  5
14A
  8
NOTE
  6
CONTINUOUS
 62
     4
 10
484.0
 20
-296.0
 30
0.0
 11
524.14518533186481
 21
-280.17768474751028
 31
0.0
  0
TEXT
  5
14B
  8
SIZE
  6
CONTINUOUS
 62
    30
 10
583.22092421632169
 20
-525.49473897071584
 30
0.0
 40
64.0
  1
24
 50
90.0
 41
0.9
  0
TEXT
  5
14C
  8
SIZE
  6
CONTINUOUS
 62
    30
 10
718.53477674257374
 20
-571.37550266292385
 30
0.0
 40
64.0
  1
108
 50
90.0
 41
0.9
  0
LINE
  5
14D
  8
SIZE
  6
CONTINUOUS
 62
    30
 10
-837.0
 20
-424.0
 30
0.0
 11
-837.0
 21
-1065.073782891269
 31
0.0
  0
LINE
  5
14E
  8
SIZE
  6
CONTINUOUS
 62
    30
 10
418.0
 20
-424.0
 30
0.0
 11
418.0
 21
-1065.073782891269
 31
0.0
  0
LINE
  5
14F
  8
SIZE
  6
CONTINUOUS
 62
    30
 10
-837.0
 20
-1035.073782891269
 30
0.0
 11
418.0
 21
-1035.073782891269
 31
0.0
  0
TEXT
  5
150
  8
SIZE
  6
CONTINUOUS
 62
    30
 10
-305.5
 20
-1010.073782891269
 30
0.0
 40
64.0
  1
1255
 41
0.9
  0
LINE
  5
151
  8
NOTE
  6
CONTINUOUS
 62
     4
 10
-422.15538099999992
 20
-371.50213500000001
 30
0.0
 11
-402.0
 21
-336.95129400000002
 31
0.0
  0
LINE
  5
152
  8
NOTE
  6
CONTINUOUS
 62
     4
 10
-402.0
 20
-336.95129400000002
 30
0.0
 11
-436.73049300000002
 21
-356.79550899999992
 31
0.0
  0
LINE
  5
153
  8
NOTE
  6
CONTINUOUS
 62
     4
 10
-753.53189000000032
 20
-2.4165160000000001
 30
0.0
 11
-782.5
 21
-30.0
 31
0.0
  0
LINE
  5
154
  8
NOTE
  6
CONTINUOUS
 62
     4
 10
-782.5
 20
-30.0
 30
0.0
 11
-743.62113899999974
 21
-20.596058000000081
 31
0.0
  0
LINE
  5
155
  8
NOTE
  6
CONTINUOUS
 62
     4
 10
-24.260936835364191
 20
-251.8687190971132
 30
0.0
 11
-4.1556128643031789
 21
-222.40487832964999
 31
0.0
  0
LINE
  5
156
  8
NOTE
  6
CONTINUOUS
 62
     4
 10
-4.1556128643031789
 20
-222.40487832964999
 30
0.0
 11
-39.832471457879358
 21
-237.02481048110261
 31
0.0
  0
LINE
  5
157
  8
SIZE
  6
CONTINUOUS
 62
    30
 10
981.85681485132864
 20
-169.0
 30
0.0
 11
1271.322432823325
 21
-169.0
 31
0.0
  0
LINE
  5
158
  8
SIZE
  6
CONTINUOUS
 62
    30
 10
1340.3589999999999
 20
-404.0
 30
0.0
 11
1211.322432823325
 21
-404.0
 31
0.0
  0
LINE
  5
159
  8
SIZE
  6
CONTINUOUS
 62
    30
 10
1241.322432823325
 20
-169.0
 30
0.0
 11
1241.322432823325
 21
-404.0
 31
0.0
  0
LINE
  5
15A
  8
NOTE
  6
CONTINUOUS
 62
     4
 10
323.0016218901801
 20
-30.750643990677428
 30
0.0
 11
363.5
 21
-30.261279000000052
 31
0.0
  0
LINE
  5
15B
  8
NOTE
  6
CONTINUOUS
 62
     4
 10
363.5
 20
-30.261279000000052
 30
0.0
 11
332.66688406764592
 21
-10.225041570964089
 31
0.0
  0
LINE
  5
15C
  8
NOTE
  6
CONTINUOUS
 62
     4
 10
834.7006550000001
 20
-87.651151680526155
 30
0.0
 11
809.5
 21
-118.71442568052611
 31
0.0
  0
LINE
  5
15D
  8
NOTE
  6
CONTINUOUS
 62
     4
 10
809.5
 20
-118.71442568052611
 30
0.0
 11
846.856044
 21
-104.4131686805262
 31
0.0
  0
TEXT
  5
15E
  8
SIZE
  6
CONTINUOUS
 62
    30
 10
1216.322432823325
 20
-360.55714285714271
 30
0.0
 40
64.0
  1
235
 50
90.0
 41
0.9
  0
CIRCLE
  5
15F
  8
SIZE
  6
CONTINUOUS
 62
    30
 10
484.0
 20
-230.28106778964869
 30
0.0
 40
6.0
  0
CIRCLE
  5
160
  8
SIZE
  6
CONTINUOUS
 62
    30
 10
837.0
 20
-230.28106778964869
 30
0.0
 40
6.0
  0
LINE
  5
161
  8
SIZE
  6
CONTINUOUS
 62
    30
 10
484.0
 20
-256.0
 30
0.0
 11
484.0
 21
-200.28106778964869
 31
0.0
  0
LINE
  5
162
  8
SIZE
  6
CONTINUOUS
 62
    30
 10
837.0
 20
-256.0
 30
0.0
 11
837.0
 21
-200.28106778964869
 31
0.0
  0
LINE
  5
163
  8
SIZE
  6
CONTINUOUS
 62
    30
 10
484.0
 20
-230.28106778964869
 30
0.0
 11
837.0
 21
-230.28106778964869
 31
0.0
  0
TEXT
  5
164
  8
SIZE
  6
CONTINUOUS
 62
    30
 10
586.44285714285695
 20
-205.28106778964869
 30
0.0
 40
64.0
  1
353
 41
0.9
  0
CIRCLE
  5
165
  8
SIZE
  6
CONTINUOUS
 62
    30
 10
-688.0
 20
182.73433648472181
 30
0.0
 40
6.0
  0
CIRCLE
  5
166
  8
SIZE
  6
CONTINUOUS
 62
    30
 10
-837.0
 20
182.73433648472181
 30
0.0
 40
6.0
  0
LINE
  5
167
  8
SIZE
  6
CONTINUOUS
 62
    30
 10
-688.0
 20
-22.824532040787741
 30
0.0
 11
-688.0
 21
212.73433648472181
 31
0.0
  0
LINE
  5
168
  8
SIZE
  6
CONTINUOUS
 62
    30
 10
-837.0
 20
200.08802299999999
 30
0.0
 11
-837.0
 21
212.73433648472181
 31
0.0
  0
LINE
  5
169
  8
SIZE
  6
CONTINUOUS
 62
    30
 10
-688.0
 20
182.73433648472181
 30
0.0
 11
-837.0
 21
182.73433648472181
 31
0.0
  0
LINE
  5
16A
  8
SIZE
  6
CONTINUOUS
 62
    30
 10
-837.0
 20
182.73433648472181
 30
0.0
 11
-1142.925575171128
 21
182.73433648472181
 31
0.0
  0
TEXT
  5
16B
  8
SIZE
  6
CONTINUOUS
 62
    30
 10
-1117.925575171128
 20
207.73433648472181
 30
0.0
 40
64.0
  1
149
 41
0.9
  0
TEXT
  5
16C
  8
ETC
  6
CONTINUOUS
 62
    61
 10
1177.79182810207
 20
1054.2516797932719
 30
0.0
 40
64.0
  1
ロスナイ
 41
0.9
  0
TEXT
  5
16D
  8
ETC
  6
CONTINUOUS
 62
    61
 10
1188.0848281020701
 20
1169.178529793272
 30
0.0
 40
64.0
  1
LGH-N100RKS-50_5
 41
0.9
  0
TEXT
  5
16E
  8
ETC
  6
CONTINUOUS
 62
    61
 10
1373.8868340519341
 20
960.28464191755484
 30
0.0
 40
50.0
  1
LGH-N100RKS-50
 41
0.9
  0
TEXT
  5
16F
  8
ETC
  6
CONTINUOUS
 62
    61
 10
1373.8868340519341
 20
867.44292197598202
 30
0.0
 40
50.0
  1
LGH-N100RKSD-50
 41
0.9
  0
TEXT
  5
170
  8
ETC
  6
CONTINUOUS
 62
    61
 10
1373.8868340519341
 20
774.60120203440954
 30
0.0
 40
50.0
  1
LGH-N100RKX-50
 41
0.9
  0
TEXT
  5
171
  8
ETC
  6
CONTINUOUS
 62
    61
 10
1373.8868340519341
 20
681.7594820928349
 30
0.0
 40
50.0
  1
LGH-N100RKXD-50
 41
0.9
  0
TEXT
  5
172
  8
ETC
  6
CONTINUOUS
 62
    61
 10
1371.7966639818201
 20
593.81118670492481
 30
0.0
 40
50.0
  1
LGH-N100RKS-60
 41
0.9
  0
TEXT
  5
173
  8
ETC
  6
CONTINUOUS
 62
    61
 10
1371.7966639818201
 20
500.96946676335187
 30
0.0
 40
50.0
  1
LGH-N100RKSD-60
 41
0.9
  0
TEXT
  5
174
  8
ETC
  6
CONTINUOUS
 62
    61
 10
1371.7966639818201
 20
408.12774682177923
 30
0.0
 40
50.0
  1
LGH-N100RKX-60
 41
0.9
  0
TEXT
  5
175
  8
ETC
  6
CONTINUOUS
 62
    61
 10
1371.7966639818201
 20
315.28602688020487
 30
0.0
 40
50.0
  1
LGH-N100RKXD-60
 41
0.9
  0
TEXT
  5
176
  8
NOTE
  6
CONTINUOUS
 62
     4
 10
946.69423223376555
 20
-263.68062937498871
 30
0.0
 40
64.0
  1
RA
 41
0.9
  0
TEXT
  5
177
  8
NOTE
  6
CONTINUOUS
 62
     4
 10
946.69423223376555
 20
-185.06959382916091
 30
0.0
 40
64.0
  1
SA
 41
0.9
  0
TEXT
  5
178
  8
NOTE
  6
CONTINUOUS
 62
     4
 10
-1032.1265921785271
 20
-191.19659358044191
 30
0.0
 40
64.0
  1
OA
 41
0.9
  0
TEXT
  5
179
  8
NOTE
  6
CONTINUOUS
 62
     4
 10
-1032.1265921785271
 20
-277.42506781062178
 30
0.0
 40
64.0
  1
EA
 41
0.9
  0
LINE
  5
17A
  8
NOTE
  6
CONTINUOUS
 62
     4
 10
171.87366594571481
 20
-330.96350110407661
 30
0.0
 11
171.87366594571481
 21
-290.96350110407661
 31
0.0
  0
LINE
  5
17B
  8
NOTE
  6
CONTINUOUS
 62
     4
 10
151.87366594571481
 20
-310.96350110407661
 30
0.0
 11
191.87366594571481
 21
-310.96350110407661
 31
0.0
  0
LINE
  5
17C
  8
NOTE
  6
CONTINUOUS
 62
     4
 10
171.87366594571481
 20
-120.413297596172
 30
0.0
 11
171.87366594571481
 21
-80.413297596172015
 31
0.0
  0
LINE
  5
17D
  8
NOTE
  6
CONTINUOUS
 62
     4
 10
151.87366594571481
 20
-100.413297596172
 30
0.0
 11
191.87366594571481
 21
-100.413297596172
 31
0.0
  0
TEXT
  5
17E
  8
NOTE
  6
CONTINUOUS
 62
     4
 10
-1486.069374792874
 20
-1177.9629026819659
 30
0.0
 40
64.0
  1
EL(スタンダードタイプ)
 41
0.9
 72
     2
 11
-707.64651765001679
 21
-1177.9629026819659
 31
0.0
  0
TEXT
  5
17F
  8
NOTE
  6
CONTINUOUS
 62
     4
 10
-1618.079727706262
 20
-979.1036763659622
 30
0.0
 40
64.0
  1
EL(マイコンタイプ)
 41
0.9
 72
     2
 11
-977.89687056340506
 21
-979.1036763659622
 31
0.0
  0
LINE
  5
180
  8
DETAIL
  6
CONTINUOUS
 62
     4
 10
144.848549669725
 20
-115.7188708464371
 30
0.0
 11
171.87366594571481
 21
-100.413297596172
 31
0.0
  0
LINE
  5
181
  8
DETAIL
  6
CONTINUOUS
 62
     4
 10
171.87366594571481
 20
-100.413297596172
 30
0.0
 11
156.1220556728569
 21
-127.1808947252008
 31
0.0
  0
LINE
  5
182
  8
DETAIL
  6
CONTINUOUS
 62
     4
 10
171.87366594571481
 20
-100.413297596172
 30
0.0
 11
129.09693939686699
 21
-142.4864679754659
 31
0.0
  0
LINE
  5
183
  8
NOTE
  6
CONTINUOUS
 62
     4
 10
129.0969393968671
 20
-142.4864679754659
 30
0.0
 11
-735.75255370298328
 21
-992.07275957155446
 31
0.0
  0
LINE
  5
184
  8
NOTE
  6
CONTINUOUS
 62
     4
 10
-735.75255370298328
 20
-992.07275957155446
 30
0.0
 11
-1637.3077323943251
 21
-994.2342672512674
 31
0.0
  0
LINE
  5
185
  8
DETAIL
  6
CONTINUOUS
 62
     4
 10
145.76952767070131
 20
-327.79179415979007
 30
0.0
 11
171.87366594571481
 21
-310.96350110407661
 31
0.0
  0
LINE
  5
186
  8
DETAIL
  6
CONTINUOUS
 62
     4
 10
171.87366594571481
 20
-310.96350110407661
 30
0.0
 11
157.68100721404821
 21
-338.58932091773011
 31
0.0
  0
LINE
  5
187
  8
DETAIL
  6
CONTINUOUS
 62
     4
 10
171.87366594571481
 20
-310.96350110407661
 30
0.0
 11
131.57686893903471
 21
-355.41761397344351
 31
0.0
  0
LINE
  5
188
  8
NOTE
  6
CONTINUOUS
 62
     4
 10
131.57686893903471
 20
-355.41761397344351
 30
0.0
 11
-628.53210395689518
 21
-1193.945054964167
 31
0.0
  0
LINE
  5
189
  8
NOTE
  6
CONTINUOUS
 62
     4
 10
-628.53210395689518
 20
-1193.945054964167
 30
0.0
 11
-1499.132580894056
 21
-1195.52829540678
 31
0.0
  0
ARC
  5
18A
  8
DETAIL
  6
CONTINUOUS
 62
     5
 10
183.15242980539679
 20
-83.434395058585793
 30
0.0
 40
3.021097462413969
 50
0.0
 51
90.0
  0
ARC
  5
18B
  8
DETAIL
  6
CONTINUOUS
 62
     5
 10
183.15242980539679
 20
-97.53284988318569
 30
0.0
 40
3.0210974624163112
 50
270.0
 51
0.0
  0
LINE
  5
18C
  8
DETAIL
  6
CONTINUOUS
 62
     5
 10
171.87366594571481
 20
-80.413297596172015
 30
0.0
 11
183.15242980539679
 21
-80.413297596172015
 31
0.0
  0
LINE
  5
18D
  8
DETAIL
  6
CONTINUOUS
 62
     5
 10
183.15242980539679
 20
-100.553947345602
 30
0.0
 11
171.87366594571481
 21
-100.553947345602
 31
0.0
  0
LINE
  5
18E
  8
DETAIL
  6
CONTINUOUS
 62
     5
 10
186.1735272678111
 20
-83.434395058585793
 30
0.0
 11
186.1735272678111
 21
-97.53284988318569
 31
0.0
  0
ARC
  5
18F
  8
DETAIL
  6
CONTINUOUS
 62
     5
 10
183.15242980539679
 20
-335.19251692646083
 30
0.0
 40
3.0210974624140592
 50
270.0
 51
0.0
  0
ARC
  5
190
  8
DETAIL
  6
CONTINUOUS
 62
     5
 10
183.15242980539679
 20
-321.09406210185881
 30
0.0
 40
3.021097462413969
 50
0.0
 51
90.0
  0
LINE
  5
191
  8
DETAIL
  6
CONTINUOUS
 62
     5
 10
186.1735272678111
 20
-321.09406210185881
 30
0.0
 11
186.1735272678111
 21
-335.19251692646083
 31
0.0
  0
LINE
  5
192
  8
DETAIL
  6
CONTINUOUS
 62
     5
 10
181.74258432293561
 20
-318.07296463944482
 30
0.0
 11
183.15242980539679
 21
-318.07296463944482
 31
0.0
  0
LINE
  5
193
  8
DETAIL
  6
CONTINUOUS
 62
     5
 10
171.87366594571481
 20
-318.07296463944482
 30
0.0
 11
181.74258432293561
 21
-318.07296463944482
 31
0.0
  0
LINE
  5
194
  8
DETAIL
  6
CONTINUOUS
 62
     5
 10
183.15242980539679
 20
-338.21361438887487
 30
0.0
 11
171.87366594571481
 21
-338.21361438887487
 31
0.0
  0
CIRCLE
  5
195
  8
DETAIL
  6
CONTINUOUS
 62
     5
 10
179.1242998555098
 20
-91.994171202092943
 30
0.0
 40
4.7330526911160398
  0
CIRCLE
  5
196
  8
DETAIL
  6
CONTINUOUS
 62
     5
 10
179.02813316284531
 20
-326.72890747562559
 30
0.0
 40
4.7330526911160398
  0
LINE
  5
197
  8
DETAIL
  6
CONTINUOUS
 62
     5
 10
177.52212097885601
 20
-93.596350078948731
 30
0.0
 11
180.72647872330319
 21
-90.391992334301904
 31
0.0
  0
LINE
  5
198
  8
DETAIL
  6
CONTINUOUS
 62
     5
 10
177.52212097885601
 20
-90.391992325438409
 30
0.0
 11
180.72647872330319
 21
-93.596350069885844
 31
0.0
  0
LINE
  5
199
  8
DETAIL
  6
CONTINUOUS
 62
     5
 10
177.52212097885601
 20
-328.23491965980719
 30
0.0
 11
180.5341453379713
 21
-325.22289530050438
 31
0.0
  0
LINE
  5
19A
  8
DETAIL
  6
CONTINUOUS
 62
     5
 10
177.52212097885601
 20
-325.03056190629951
 30
0.0
 11
180.5341453379713
 21
-328.04258626541292
 31
0.0
  0
LINE
  5
19B
  8
DETAIL
  6
CONTINUOUS
 62
     5
 10
-4.1556128643031789
 20
-184.13764380573591
 30
0.0
 11
-4.1556128643031789
 21
-202.26422858022491
 31
0.0
  0
ARC
  5
19C
  8
DETAIL
  6
CONTINUOUS
 62
     5
 10
-1.1345154018866881
 20
-81.823143078630636
 30
0.0
 40
3.0210974624141791
 50
90.0
 51
180.0
  0
LINE
  5
19D
  8
DETAIL
  6
CONTINUOUS
 62
     5
 10
-1.1345154018866881
 20
-78.802045616216674
 30
0.0
 11
9.9428419602986633
 21
-78.802045616216674
 31
0.0
  0
LINE
  5
19E
  8
DETAIL
  6
CONTINUOUS
 62
     5
 10
-4.1556128643031789
 20
-149.89853923170381
 30
0.0
 11
-4.1556128643031789
 21
-81.823143078630636
 31
0.0
  0
ARC
  5
19F
  8
DETAIL
  6
CONTINUOUS
 62
     5
 10
-7.1767103267171697
 20
-149.89853923170381
 30
0.0
 40
3.0210974624140592
 50
270.0
 51
0.0
  0
LINE
  5
1A0
  8
DETAIL
  6
CONTINUOUS
 62
     5
 10
-7.1767103267171697
 20
-152.91963669411831
 30
0.0
 11
-12.21187276407454
 21
-152.91963669411831
 31
0.0
  0
ARC
  5
1A1
  8
DETAIL
  6
CONTINUOUS
 62
     5
 10
-7.1767103267171697
 20
-184.13764380573591
 30
0.0
 40
3.021097462413969
 50
0.0
 51
90.0
  0
LINE
  5
1A2
  8
DETAIL
  6
CONTINUOUS
 62
     5
 10
-7.1767103267171697
 20
-181.11654634332189
 30
0.0
 11
-12.21187276407454
 21
-181.11654634332189
 31
0.0
  0
LINE
  5
1A3
  8
DETAIL
  6
CONTINUOUS
 62
     5
 10
0.2753300805719618
 20
-209.31345599252339
 30
0.0
 11
0.2753300805719618
 21
-78.802045616216674
 31
0.0
  0
ARC
  5
1A4
  8
DETAIL
  6
CONTINUOUS
 62
     5
 10
9.9428419602986633
 20
-81.823143078630636
 30
0.0
 40
3.021097462413969
 50
0.0
 51
90.0
  0
LINE
  5
1A5
  8
DETAIL
  6
CONTINUOUS
 62
     5
 10
12.963939422712659
 20
-78.197826123734075
 30
0.0
 11
12.963939422712659
 21
-77.593606631252456
 31
0.0
  0
LINE
  5
1A6
  8
DETAIL
  6
CONTINUOUS
 62
     5
 10
12.963939422712659
 20
-77.593606631252456
 30
0.0
 11
1.4837690655390361
 21
-77.593606631252456
 31
0.0
  0
LINE
  5
1A7
  8
DETAIL
  6
CONTINUOUS
 62
     5
 10
12.963939422712659
 20
-78.197826123734075
 30
0.0
 11
1.4837690655390361
 21
-78.197826123734075
 31
0.0
  0
ARC
  5
1A8
  8
DETAIL
  6
CONTINUOUS
 62
     5
 10
1.4837690655390361
 20
-78.802045616216674
 30
0.0
 40
1.208438984964572
 50
90.0
 51
180.0
  0
ARC
  5
1A9
  8
DETAIL
  6
CONTINUOUS
 62
     5
 10
1.4837690655390361
 20
-78.802045616216674
 30
0.0
 40
0.6042194924822714
 50
90.0
 51
180.0
  0
LINE
  5
1AA
  8
DETAIL
  6
CONTINUOUS
 62
     5
 10
1.4837690655390361
 20
-78.399232621228521
 30
0.0
 11
1.4837690655390361
 21
-78.802045616216674
 31
0.0
  0
LINE
  5
1AB
  8
DETAIL
  6
CONTINUOUS
 62
     5
 10
12.963939422712659
 20
-209.31345599252339
 30
0.0
 11
12.963939422712659
 21
-81.823143078630636
 31
0.0
  0
LINE
  5
1AC
  8
DETAIL
  6
CONTINUOUS
 62
     5
 10
-4.1556128643031789
 20
-278.79869762805538
 30
0.0
 11
-2.1415478893596851
 21
-275.31023476171282
 31
0.0
  0
LINE
  5
1AD
  8
DETAIL
  6
CONTINUOUS
 62
     5
 10
-4.1556128643031789
 20
-278.79869762805538
 30
0.0
 11
-4.1556128643031789
 21
-336.80376890641378
 31
0.0
  0
ARC
  5
1AE
  8
DETAIL
  6
CONTINUOUS
 62
     5
 10
-1.1345154018866881
 20
-336.80376890641378
 30
0.0
 40
3.0210974624165199
 50
180.0
 51
270.0
  0
LINE
  5
1AF
  8
DETAIL
  6
CONTINUOUS
 62
     5
 10
-1.1345154018866881
 20
-339.82486636882982
 30
0.0
 11
9.9428419602986633
 21
-339.82486636882982
 31
0.0
  0
LINE
  5
1B0
  8
DETAIL
  6
CONTINUOUS
 62
     5
 10
0.2753300805719618
 20
-209.31345599252339
 30
0.0
 11
0.2753300805719618
 21
-339.82486636882982
 31
0.0
  0
LINE
  5
1B1
  8
DETAIL
  6
CONTINUOUS
 62
     5
 10
12.963939422712659
 20
-209.31345599252339
 30
0.0
 11
12.963939422712659
 21
-336.80376890641378
 31
0.0
  0
ARC
  5
1B2
  8
DETAIL
  6
CONTINUOUS
 62
     5
 10
9.9428419602986633
 20
-336.80376890641378
 30
0.0
 40
3.0210974624163112
 50
270.0
 51
0.0
  0
LINE
  5
1B3
  8
DETAIL
  6
CONTINUOUS
 62
     5
 10
12.963939422712659
 20
-340.42908586131261
 30
0.0
 11
12.963939422712659
 21
-341.0333053537945
 31
0.0
  0
LINE
  5
1B4
  8
DETAIL
  6
CONTINUOUS
 62
     5
 10
12.963939422712659
 20
-341.0333053537945
 30
0.0
 11
1.4837690655390361
 21
-341.0333053537945
 31
0.0
  0
LINE
  5
1B5
  8
DETAIL
  6
CONTINUOUS
 62
     5
 10
12.963939422712659
 20
-340.42908586131261
 30
0.0
 11
1.4837690655390361
 21
-340.42908586131261
 31
0.0
  0
ARC
  5
1B6
  8
DETAIL
  6
CONTINUOUS
 62
     5
 10
1.4837690655390361
 20
-339.82486636882982
 30
0.0
 40
1.2084389849671251
 50
180.0
 51
270.0
  0
ARC
  5
1B7
  8
DETAIL
  6
CONTINUOUS
 62
     5
 10
1.4837690655390361
 20
-339.82486636882982
 30
0.0
 40
0.6042194924848535
 50
180.0
 51
270.0
  0
LINE
  5
1B8
  8
DETAIL
  6
CONTINUOUS
 62
     5
 10
1.4837690655390361
 20
-340.22767936381842
 30
0.0
 11
1.4837690655390361
 21
-339.82486636882982
 31
0.0
  0
LINE
  5
1B9
  8
DETAIL
  6
CONTINUOUS
 62
     5
 10
-2.1415478893596851
 20
-262.1465107449701
 30
0.0
 11
-2.1415478893596851
 21
-275.31023476171282
 31
0.0
  0
LINE
  5
1BA
  8
DETAIL
  6
CONTINUOUS
 62
     5
 10
-2.1415478893596851
 20
-205.7526914465673
 30
0.0
 11
-2.1415478893596851
 21
-218.91641546330791
 31
0.0
  0
LINE
  5
1BB
  8
DETAIL
  6
CONTINUOUS
 62
     5
 10
-4.1556128643031789
 20
-222.40487832964999
 30
0.0
 11
-4.1556128643031789
 21
-258.65804787862561
 31
0.0
  0
LINE
  5
1BC
  8
DETAIL
  6
CONTINUOUS
 62
     5
 10
-4.1556128643031789
 20
-258.65804787862561
 30
0.0
 11
-2.1415478893570712
 21
-262.14651074497277
 31
0.0
  0
LINE
  5
1BD
  8
DETAIL
  6
CONTINUOUS
 62
     5
 10
-4.1556128643031789
 20
-222.40487832965229
 30
0.0
 11
-2.1415478893596851
 21
-218.91641546330791
 31
0.0
  0
LINE
  5
1BE
  8
DETAIL
  6
CONTINUOUS
 62
     5
 10
-4.1556128643031789
 20
-202.26422858022241
 30
0.0
 11
-2.1415478893596851
 21
-205.7526914465673
 31
0.0
  0
ARC
  5
1BF
  8
DETAIL
  6
CONTINUOUS
 62
     5
 10
-12.21187276407454
 20
-178.09544888090571
 30
0.0
 40
3.021097462413969
 50
180.0
 51
270.0
  0
LINE
  5
1C0
  8
DETAIL
  6
CONTINUOUS
 62
     5
 10
-15.232970226488529
 20
-155.94073415653429
 30
0.0
 11
-15.232970226488529
 21
-178.09544888090571
 31
0.0
  0
ARC
  5
1C1
  8
DETAIL
  6
CONTINUOUS
 62
     5
 10
-12.21187276407454
 20
-155.94073415653429
 30
0.0
 40
3.0210974624163112
 50
90.0
 51
180.0
  0
LINE
  5
1C2
  8
DETAIL
  6
CONTINUOUS
 62
     5
 10
1.4837690655390361
 20
-78.399232621228521
 30
0.0
 11
170.6652269607504
 21
-78.399232621228521
 31
0.0
  0
LINE
  5
1C3
  8
DETAIL
  6
CONTINUOUS
 62
     5
 10
170.6652269607504
 20
-79.607671606193193
 30
0.0
 11
170.6652269607504
 21
-78.399232621228521
 31
0.0
  0
LINE
  5
1C4
  8
DETAIL
  6
CONTINUOUS
 62
     5
 10
170.6652269607504
 20
-79.607671606193193
 30
0.0
 11
171.87366594571481
 21
-79.607671606193193
 31
0.0
  0
LINE
  5
1C5
  8
DETAIL
  6
CONTINUOUS
 62
     5
 10
171.87366594571481
 20
-339.01924037885118
 30
0.0
 11
171.87366594571481
 21
-79.607671606193193
 31
0.0
  0
LINE
  5
1C6
  8
DETAIL
  6
CONTINUOUS
 62
     5
 10
1.4837690655390361
 20
-340.22767936381842
 30
0.0
 11
170.6652269607504
 21
-340.22767936381842
 31
0.0
  0
LINE
  5
1C7
  8
DETAIL
  6
CONTINUOUS
 62
     5
 10
170.6652269607504
 20
-339.01924037885118
 30
0.0
 11
171.87366594571481
 21
-339.01924037885118
 31
0.0
  0
LINE
  5
1C8
  8
DETAIL
  6
CONTINUOUS
 62
     5
 10
170.6652269607504
 20
-340.22767936381842
 30
0.0
 11
170.6652269607504
 21
-339.01924037885118
 31
0.0
  0
ENDSEC
  0
EOF
