  0
SECTION
  2
HEADER
  9
$ACADVER
  1
AC1009
  9
$INSBASE
 10
0.0
 20
0.0
 30
0.0
  9
$EXTMIN
 10
-635.63672973383291
 20
-343.71679905448678
 30
0.0
  9
$EXTMAX
 10
1541.36558933589
 20
1055.8921894096441
 30
50.0
  9
$LIMMIN
 10
-2970.0
 20
-2100.0
  9
$LIMMAX
 10
2970.0
 20
2100.0
  9
$ORTHOMODE
 70
     1
  9
$REGENMODE
 70
     1
  9
$FILLMODE
 70
     1
  9
$QTEXTMODE
 70
     0
  9
$MIRRTEXT
 70
     0
  9
$DRAGMODE
 70
     2
  9
$LTSCALE
 40
20.0
  9
$OSMODE
 70
    55
  9
$ATTMODE
 70
     1
  9
$TEXTSIZE
 40
64.0
  9
$TRACEWID
 40
0.05
  9
$TEXTSTYLE
  7
STANDARD
  9
$CLAYER
  8
SIZE
  9
$CELTYPE
  6
CONTINUOUS
  9
$CECOLOR
 62
     7
  9
$DIMSCALE
 40
1.0
  9
$DIMASZ
 40
12.0
  9
$DIMEXO
 40
20.0
  9
$DIMDLI
 40
200.0
  9
$DIMRND
 40
0.0
  9
$DIMDLE
 40
0.0
  9
$DIMEXE
 40
20.0
  9
$DIMTP
 40
0.0
  9
$DIMTM
 40
0.0
  9
$DIMTXT
 40
64.0
  9
$DIMCEN
 40
0.09
  9
$DIMTSZ
 40
0.0
  9
$DIMTOL
 70
     0
  9
$DIMLIM
 70
     0
  9
$DIMTIH
 70
     0
  9
$DIMTOH
 70
     0
  9
$DIMSE1
 70
     0
  9
$DIMSE2
 70
     0
  9
$DIMTAD
 70
     1
  9
$DIMZIN
 70
     8
  9
$DIMBLK
  1

  9
$DIMASO
 70
     1
  9
$DIMSHO
 70
     0
  9
$DIMPOST
  1

  9
$DIMAPOST
  1

  9
$DIMALT
 70
     0
  9
$DIMALTD
 70
     2
  9
$DIMALTF
 40
25.399999999999999
  9
$DIMLFAC
 40
1.0
  9
$DIMTOFL
 70
     1
  9
$DIMTVP
 40
0.0
  9
$DIMTIX
 70
     1
  9
$DIMSOXD
 70
     0
  9
$DIMSAH
 70
     0
  9
$DIMBLK1
  1

  9
$DIMBLK2
  1

  9
$DIMSTYLE
  2
STANDARD
  9
$DIMCLRD
 70
     7
  9
$DIMCLRE
 70
     7
  9
$DIMCLRT
 70
     7
  9
$DIMTFAC
 40
1.0
  9
$DIMGAP
 40
25.0
  9
$LUNITS
 70
     2
  9
$LUPREC
 70
     4
  9
$SKETCHINC
 40
0.1
  9
$FILLETRAD
 40
3.0
  9
$AUNITS
 70
     1
  9
$AUPREC
 70
     3
  9
$MENU
  1
ACAD
  9
$ELEVATION
 40
0.0
  9
$PELEVATION
 40
0.0
  9
$THICKNESS
 40
50.0
  9
$LIMCHECK
 70
     0
  9
$BLIPMODE
 70
     0
  9
$CHAMFERA
 40
0.0
  9
$CHAMFERB
 40
0.0
  9
$SKPOLY
 70
     0
  9
$TDCREATE
 40
2453019.6230103709
  9
$TDUPDATE
 40
2456289.691615162
  9
$TDINDWG
 40
1.6711591319000001
  9
$TDUSRTIMER
 40
1.6711589582999999
  9
$USRTIMER
 70
     1
  9
$ANGBASE
 50
0.0
  9
$ANGDIR
 70
     0
  9
$PDMODE
 70
     3
  9
$PDSIZE
 40
-2.0
  9
$PLINEWID
 40
0.0
  9
$COORDS
 70
     1
  9
$SPLFRAME
 70
     0
  9
$SPLINETYPE
 70
     6
  9
$SPLINESEGS
 70
     8
  9
$ATTDIA
 70
     0
  9
$ATTREQ
 70
     1
  9
$HANDLING
 70
     1
  9
$HANDSEED
  5
4A5
  9
$SURFTAB1
 70
     6
  9
$SURFTAB2
 70
     6
  9
$SURFTYPE
 70
     6
  9
$SURFU
 70
     6
  9
$SURFV
 70
     6
  9
$UCSNAME
  2

  9
$UCSORG
 10
0.0
 20
0.0
 30
0.0
  9
$UCSXDIR
 10
1.0
 20
0.0
 30
0.0
  9
$UCSYDIR
 10
0.0
 20
1.0
 30
0.0
  9
$PUCSNAME
  2

  9
$PUCSORG
 10
0.0
 20
0.0
 30
0.0
  9
$PUCSXDIR
 10
1.0
 20
0.0
 30
0.0
  9
$PUCSYDIR
 10
0.0
 20
1.0
 30
0.0
  9
$USERI1
 70
     0
  9
$USERI2
 70
     0
  9
$USERI3
 70
     0
  9
$USERI4
 70
     0
  9
$USERI5
 70
     0
  9
$USERR1
 40
20.0
  9
$USERR2
 40
0.0
  9
$USERR3
 40
0.0
  9
$USERR4
 40
0.0
  9
$USERR5
 40
0.0
  9
$WORLDVIEW
 70
     1
  9
$SHADEDGE
 70
     3
  9
$SHADEDIF
 70
    70
  9
$TILEMODE
 70
     1
  9
$MAXACTVP
 70
    48
  9
$PLIMCHECK
 70
     0
  9
$PEXTMIN
 10
-1.0000000000000000E+020
 20
-1.0000000000000000E+020
 30
-1.0000000000000000E+020
  9
$PEXTMAX
 10
1.0000000000000000E+020
 20
1.0000000000000000E+020
 30
1.0000000000000000E+020
  9
$PLIMMIN
 10
0.0
 20
0.0
  9
$PLIMMAX
 10
12.0
 20
9.0
  9
$UNITMODE
 70
     0
  9
$VISRETAIN
 70
     0
  9
$PLINEGEN
 70
     0
  9
$PSLTSCALE
 70
     0
  0
ENDSEC
  0
SECTION
  2
TABLES
  0
TABLE
  2
VPORT
 70
     1
  0
VPORT
  2
*ACTIVE
 70
     0
 10
0.0
 20
0.0
 11
1.0
 21
1.0
 12
838.05808680374412
 22
416.8221475280701
 13
0.0
 23
0.0
 14
1.0
 24
1.0
 15
0.0
 25
0.0
 16
0.0
 26
0.0
 36
1.0
 17
0.0
 27
0.0
 37
0.0
 40
1445.7706523368749
 41
1.693029490616621
 42
50.0
 43
0.0
 44
0.0
 50
0.0
 51
0.0
 71
     0
 72
  1000
 73
     1
 74
     0
 75
     0
 76
     0
 77
     0
 78
     0
  0
ENDTAB
  0
TABLE
  2
LTYPE
 70
     3
  0
LTYPE
  2
CONTINUOUS
 70
     0
  3
実線
 72
    65
 73
     0
 40
0.0
  0
LTYPE
  2
DASHDOT
 70
     0
  3
____ _ ____ _ ____ _ ____ _ ____ _ ____ _ ____
 72
    65
 73
     4
 40
5.5
 49
4.0
 49
-0.6
 49
0.3
 49
-0.6
  0
ENDTAB
  0
TABLE
  2
LAYER
 70
    12
  0
LAYER
  2
0
 70
     0
 62
     7
  6
CONTINUOUS
  0
LAYER
  2
SIZE
 70
     0
 62
    30
  6
CONTINUOUS
  0
LAYER
  2
DEFPOINTS
 70
     0
 62
     7
  6
CONTINUOUS
  0
LAYER
  2
BASIS
 70
     0
 62
     6
  6
DASHDOT
  0
LAYER
  2
OUTLINE
 70
     0
 62
     3
  6
CONTINUOUS
  0
LAYER
  2
DETAIL
 70
     0
 62
     5
  6
CONTINUOUS
  0
LAYER
  2
ARRANGE
 70
     4
 62
     1
  6
CONTINUOUS
  0
LAYER
  2
ETC
 70
     0
 62
    61
  6
CONTINUOUS
  0
LAYER
  2
FIX
 70
     0
 62
    11
  6
CONTINUOUS
  0
LAYER
  2
NOTE
 70
     0
 62
     4
  6
CONTINUOUS
  0
LAYER
  2
SERVICESPACE
 70
     0
 62
     2
  6
DASHDOT
  0
LAYER
  2
SYMBOLLINE
 70
     0
 62
    15
  6
CONTINUOUS
  0
ENDTAB
  0
TABLE
  2
STYLE
 70
     2
  0
STYLE
  2
STANDARD
 70
     0
 40
64.0
 41
0.9
 50
0.0
 71
     0
 42
64.0
  3
SIMPLEX.shx
  4
BIGFONT.shx
  0
STYLE
  2
ANNOTATIVE
 70
     0
 40
0.0
 41
1.0
 50
0.0
 71
     0
 42
0.2
  3
txt
  4

  0
ENDTAB
  0
TABLE
  2
VIEW
 70
     1
  0
VIEW
  2
ALL
 70
     0
 40
4282.6198079999976
 10
0.0
 20
41.309904000000003
 41
5940.0
 11
0.0
 21
0.0
 31
1.0
 12
0.0
 22
0.0
 32
0.0
 42
50.0
 43
0.0
 44
0.0
 50
0.0
 71
     0
  0
ENDTAB
  0
TABLE
  2
UCS
 70
     0
  0
ENDTAB
  0
TABLE
  2
APPID
 70
    18
  0
APPID
  2
ACAD
 70
     0
  0
APPID
  2
ACADANNOTATIVE
 70
     0
  0
APPID
  2
AUTOCAD_POSTSCRIPT_FIGURE
 70
     0
  0
APPID
  2
ACAD_EXEMPT_FROM_CAD_STANDARDS
 70
     0
  0
APPID
  2
ACAD_PSEXT
 70
     0
  0
APPID
  2
ACAUTHENVIRON
 70
     0
  0
APPID
  2
GENIUS_GENOENT_13
 70
     0
  0
APPID
  2
GENIUS_GENCFG_13
 70
     0
  0
APPID
  2
GENIUS_GENCFG0_13
 70
     0
  0
APPID
  2
GENIUS_GENCFG1_13
 70
     0
  0
APPID
  2
GENIUS_GENCFG2_13
 70
     0
  0
APPID
  2
GENIUS_GENCFG3_13
 70
     0
  0
APPID
  2
GENIUS_GENCFG4_13
 70
     0
  0
APPID
  2
GENIUS_GEVCFG0_13
 70
     0
  0
APPID
  2
CONTENTBLOCKICON
 70
     0
  0
APPID
  2
CONTENTBLOCKDESCRIPTION
 70
     0
  0
APPID
  2
ACAD_NAV_VCDISPLAY
 70
     0
  0
APPID
  2
ACAD_MLEADERVER
 70
     0
  0
ENDTAB
  0
TABLE
  2
DIMSTYLE
 70
     2
  0
DIMSTYLE
  2
STANDARD
 70
     0
  3

  4

  5

  6

  7

 40
1.0
 41
0.18
 42
0.0625
 43
0.38
 44
0.18
 45
0.0
 46
0.0
 47
0.0
 48
0.0
140
0.18
141
0.09
142
0.0
143
25.399999999999999
144
1.0
145
0.0
146
1.0
147
0.09
 71
     0
 72
     0
 73
     1
 74
     1
 75
     0
 76
     0
 77
     0
 78
     0
170
     0
171
     2
172
     0
173
     0
174
     0
175
     0
176
     7
177
     7
178
     7
  0
DIMSTYLE
  2
ANNOTATIVE
 70
     0
  3

  4

  5

  6

  7

 40
1.0
 41
0.18
 42
0.0625
 43
0.38
 44
0.18
 45
0.0
 46
0.0
 47
0.0
 48
0.0
140
0.18
141
0.09
142
0.0
143
25.399999999999999
144
1.0
145
0.0
146
1.0
147
0.09
 71
     0
 72
     0
 73
     1
 74
     1
 75
     0
 76
     0
 77
     0
 78
     0
170
     0
171
     2
172
     0
173
     0
174
     0
175
     0
176
     0
177
     0
178
     0
  0
ENDTAB
  0
ENDSEC
  0
SECTION
  2
BLOCKS
  0
BLOCK
  8
0
  2
$MODEL_SPACE
 70
     0
 10
0.0
 20
0.0
 30
0.0
  3
$MODEL_SPACE
  1

  0
ENDBLK
  5
6D
  8
0
  0
BLOCK
 67
     1
  8
0
  2
$PAPER_SPACE
 70
     0
 10
0.0
 20
0.0
 30
0.0
  3
$PAPER_SPACE
  1

  0
ENDBLK
  5
69
 67
     1
  8
0
  0
BLOCK
  8
0
  2
_ORIGIN
 70
     0
 10
0.0
 20
0.0
 30
0.0
  3
_ORIGIN
  1

  0
CIRCLE
  5
90
  8
0
  6
CONTINUOUS
 62
     7
 10
0.0
 20
0.0
 30
0.0
 40
0.5
  0
LINE
  5
91
  8
0
  6
CONTINUOUS
 62
     7
 10
0.0
 20
0.0
 30
0.0
 11
-1.0
 21
0.0
 31
0.0
  0
ENDBLK
  5
92
  8
0
  0
ENDSEC
  0
SECTION
  2
ENTITIES
  0
TEXT
  5
93
  8
ETC
  6
CONTINUOUS
 62
    61
 10
918.73701790731775
 20
983.54282596354756
 30
0.0
 40
64.0
  1
LGH-N25CS_3
 41
0.9
  0
TEXT
  5
94
  8
ETC
  6
CONTINUOUS
 62
    61
 10
914.55102390731724
 20
865.58751594871637
 30
0.0
 40
64.0
  1
ロスナイ
 41
0.9
  0
TEXT
  5
95
  8
ETC
  6
CONTINUOUS
 62
    61
 10
965.25242215587309
 20
757.43874306249131
 30
0.0
 40
40.0
  1
LGH-N25CS
 41
0.9
  0
TEXT
  5
96
  8
ETC
  6
CONTINUOUS
 62
    61
 10
965.25242215587309
 20
691.4387430624912
 30
0.0
 40
40.0
  1
LGH-N25CSD
 41
0.9
  0
TEXT
  5
97
  8
ETC
  6
CONTINUOUS
 62
    61
 10
965.25242215587309
 20
625.4387430624912
 30
0.0
 40
40.0
  1
LGH-N25CX
 41
0.9
  0
TEXT
  5
98
  8
ETC
  6
CONTINUOUS
 62
    61
 10
965.25242215587309
 20
559.43874306249108
 30
0.0
 40
40.0
  1
LGH-N25CXD
 41
0.9
  0
POINT
  5
99
  8
ARRANGE
  6
CONTINUOUS
 62
     1
 10
0.0
 20
0.0
 30
0.0
 39
50.0
  0
LINE
  5
9A
  8
NOTE
  6
CONTINUOUS
 62
     4
 10
-454.00000100499147
 20
301.92132359250081
 30
0.0
 11
-454.00000100499147
 21
248.9213395925008
 31
0.0
  0
LINE
  5
9B
  8
NOTE
  6
CONTINUOUS
 62
     4
 10
-427.50000900499163
 20
275.42133159250079
 30
0.0
 11
-480.49999300499161
 21
275.42133159250079
 31
0.0
  0
LINE
  5
9C
  8
NOTE
  6
CONTINUOUS
 62
     4
 10
454.00000100499147
 20
304.92132259250081
 30
0.0
 11
454.00000100499147
 21
245.9213405925008
 31
0.0
  0
LINE
  5
9D
  8
NOTE
  6
CONTINUOUS
 62
     4
 10
480.4999930049915
 20
275.42133159250079
 30
0.0
 11
427.50000900499168
 21
275.42133159250079
 31
0.0
  0
LINE
  5
9E
  8
BASIS
  6
DASHDOT
 62
     6
 10
344.64301526250739
 20
-0.0000000000000057
 30
0.0
 11
-344.64301526250671
 21
0.0000000000000759
 31
0.0
  0
CIRCLE
  5
9F
  8
FIX
  6
CONTINUOUS
 62
    11
 39
50.0
 10
454.00000100499147
 20
275.42133159250079
 30
0.0
 40
6.5
  0
CIRCLE
  5
A0
  8
FIX
  6
CONTINUOUS
 62
    11
 39
50.0
 10
-454.00000100499147
 20
275.42133159250079
 30
0.0
 40
6.5
  0
LINE
  5
A1
  8
BASIS
  6
DASHDOT
 62
     6
 10
0.0
 20
428.11732438170191
 30
0.0
 11
0.0
 21
-75.382918050122484
 31
0.0
  0
TEXT
  5
A2
  8
NOTE
  6
CONTINUOUS
 62
     4
 10
723.78101512772685
 20
-171.54588229426369
 30
0.0
 40
64.0
  1
AH 4-\U+03C611\U+00D720
 41
0.9
 72
     2
 11
1324.466729413441
 21
-171.54588229426369
 31
0.0
  0
LINE
  5
A3
  8
DETAIL
  6
CONTINUOUS
 62
     5
 10
406.57070783530969
 20
126.55575171250101
 30
0.0
 11
405.97884620499917
 21
126.55575171250101
 31
0.0
  0
LINE
  5
A4
  8
DETAIL
  6
CONTINUOUS
 62
     5
 10
-406.5707078358011
 20
126.55575171250101
 30
0.0
 11
-405.97884620499929
 21
126.55575171250101
 31
0.0
  0
LINE
  5
A5
  8
DETAIL
  6
CONTINUOUS
 62
     5
 10
-406.57911063999433
 20
392.17276420000047
 30
0.0
 11
-406.57911063999433
 21
392.27280827250053
 31
0.0
  0
LINE
  5
A6
  8
DETAIL
  6
CONTINUOUS
 62
     5
 10
406.57911063999398
 20
126.55575171250101
 30
0.0
 11
406.57070783530969
 21
126.55575171250101
 31
0.0
  0
LINE
  5
A7
  8
DETAIL
  6
CONTINUOUS
 62
     5
 10
-406.57911063999433
 20
126.55575171250101
 30
0.0
 11
-406.5707078358011
 21
126.55575171250101
 31
0.0
  0
LINE
  5
A8
  8
DETAIL
  6
CONTINUOUS
 62
     5
 10
406.57911063999398
 20
392.27280827250053
 30
0.0
 11
406.57911063999398
 21
392.17276420000047
 31
0.0
  0
LINE
  5
A9
  8
DETAIL
  6
CONTINUOUS
 62
     5
 10
283.72496263860887
 20
125.05509062499981
 30
0.0
 11
283.12472517499248
 21
125.05509062499981
 31
0.0
  0
LINE
  5
AA
  8
DETAIL
  6
CONTINUOUS
 62
     5
 10
-269.61877538750741
 20
126.55575171250101
 30
0.0
 11
-269.61877538750741
 21
125.5553109875007
 31
0.0
  0
LINE
  5
AB
  8
DETAIL
  6
CONTINUOUS
 62
     5
 10
-269.61877538750741
 20
126.55575171250101
 30
0.0
 11
-270.5191720400087
 21
126.55575171250101
 31
0.0
  0
LINE
  5
AC
  8
DETAIL
  6
CONTINUOUS
 62
     5
 10
-266.61745321249651
 20
126.0555313499999
 30
0.0
 11
-266.61745321249651
 21
125.5553109875007
 31
0.0
  0
LINE
  5
AD
  8
DETAIL
  6
CONTINUOUS
 62
     5
 10
169.5747028875071
 20
126.0555313499999
 30
0.0
 11
169.5747028875071
 21
125.5553109875007
 31
0.0
  0
LINE
  5
AE
  8
DETAIL
  6
CONTINUOUS
 62
     5
 10
173.67650986000581
 20
126.55575171250101
 30
0.0
 11
172.57602506249989
 21
126.55575171250101
 31
0.0
  0
LINE
  5
AF
  8
DETAIL
  6
CONTINUOUS
 62
     5
 10
172.57602506249989
 20
126.0555313499999
 30
0.0
 11
-269.61877538750741
 21
126.0555313499999
 31
0.0
  0
LINE
  5
B0
  8
DETAIL
  6
CONTINUOUS
 62
     5
 10
172.57602506249989
 20
125.5553109875007
 30
0.0
 11
-269.61877538750741
 21
125.5553109875007
 31
0.0
  0
LINE
  5
B1
  8
DETAIL
  6
CONTINUOUS
 62
     5
 10
172.57602506249989
 20
126.0555313499999
 30
0.0
 11
172.57602506249989
 21
126.55575171250101
 31
0.0
  0
LINE
  5
B2
  8
DETAIL
  6
CONTINUOUS
 62
     5
 10
172.57602506249989
 20
126.0555313499999
 30
0.0
 11
172.57602506249989
 21
125.5553109875007
 31
0.0
  0
ARC
  5
B3
  8
DETAIL
  6
CONTINUOUS
 62
     5
 10
405.57866991499043
 20
392.17276420000047
 30
0.0
 40
0.5002203625033016
 50
0.000000000000007
 51
79.61425114933445
  0
ARC
  5
B4
  8
DETAIL
  6
CONTINUOUS
 62
     5
 10
405.57866991499043
 20
392.17276420000047
 30
0.0
 40
1.0004407250002201
 50
88.761178591569362
 51
90.0
  0
ARC
  5
B5
  8
DETAIL
  6
CONTINUOUS
 62
     5
 10
405.57866991499043
 20
392.17276420000047
 30
0.0
 40
1.0004407250004601
 50
0.000000000000007
 51
84.836229661737264
  0
LINE
  5
B6
  8
DETAIL
  6
CONTINUOUS
 62
     5
 10
406.57911063999398
 20
392.17276420000047
 30
0.0
 11
406.07889027750122
 21
392.17276420000047
 31
0.0
  0
LINE
  5
B7
  8
DETAIL
  6
CONTINUOUS
 62
     5
 10
405.70806237387359
 20
391.56249535775009
 30
0.0
 11
406.57911063999398
 21
391.56249535775009
 31
0.0
  0
LINE
  5
B8
  8
DETAIL
  6
CONTINUOUS
 62
     5
 10
405.70806237387359
 20
392.17276420000047
 30
0.0
 11
405.70806237387359
 21
391.56249535775009
 31
0.0
  0
LINE
  5
B9
  8
DETAIL
  6
CONTINUOUS
 62
     5
 10
406.07889027750122
 20
392.17276420000047
 30
0.0
 11
406.07889027750122
 21
391.56249535775009
 31
0.0
  0
ARC
  5
BA
  8
DETAIL
  6
CONTINUOUS
 62
     5
 10
405.57866991499043
 20
392.17276420000047
 30
0.0
 40
1.000440725000699
 50
84.836229661737264
 51
88.761178591569362
  0
LINE
  5
BB
  8
DETAIL
  6
CONTINUOUS
 62
     5
 10
405.70806237387359
 20
392.17276420000047
 30
0.0
 11
405.66870958025851
 21
392.17276420000047
 31
0.0
  0
LINE
  5
BC
  8
DETAIL
  6
CONTINUOUS
 62
     5
 10
405.66870958025851
 20
393.17320492500062
 30
0.0
 11
405.66870958025851
 21
392.17276420000047
 31
0.0
  0
LINE
  5
BD
  8
DETAIL
  6
CONTINUOUS
 62
     5
 10
-405.66870958025902
 20
393.17320492500062
 30
0.0
 11
405.66870958025851
 21
393.17320492500062
 31
0.0
  0
ARC
  5
BE
  8
DETAIL
  6
CONTINUOUS
 62
     5
 10
-405.57866991500879
 20
392.17276420000047
 30
0.0
 40
0.500220362492717
 50
100.38574884861239
 51
180.0
  0
ARC
  5
BF
  8
DETAIL
  6
CONTINUOUS
 62
     5
 10
-405.57866991500879
 20
392.17276420000047
 30
0.0
 40
1.000440724985433
 50
95.163770337216562
 51
180.0
  0
LINE
  5
C0
  8
DETAIL
  6
CONTINUOUS
 62
     5
 10
-406.07889027750161
 20
391.56249535775009
 30
0.0
 11
-406.07889027750161
 21
392.17276420000047
 31
0.0
  0
LINE
  5
C1
  8
DETAIL
  6
CONTINUOUS
 62
     5
 10
-405.70806237436511
 20
392.17276420000047
 30
0.0
 11
-405.70806237436511
 21
391.56249535775009
 31
0.0
  0
LINE
  5
C2
  8
DETAIL
  6
CONTINUOUS
 62
     5
 10
-406.57911063999433
 20
392.17276420000047
 30
0.0
 11
-406.07889027750161
 21
392.17276420000047
 31
0.0
  0
LINE
  5
C3
  8
DETAIL
  6
CONTINUOUS
 62
     5
 10
-405.70806237436511
 20
391.56249535775009
 30
0.0
 11
-406.57911063999433
 21
391.56249535775009
 31
0.0
  0
ARC
  5
C4
  8
DETAIL
  6
CONTINUOUS
 62
     5
 10
-405.57866991500879
 20
392.17276420000047
 30
0.0
 40
1.0004407249988181
 50
90.0
 51
95.163770337216562
  0
LINE
  5
C5
  8
DETAIL
  6
CONTINUOUS
 62
     5
 10
-405.66870958025902
 20
392.17276420000047
 30
0.0
 11
-405.70806237436511
 21
392.17276420000047
 31
0.0
  0
LINE
  5
C6
  8
DETAIL
  6
CONTINUOUS
 62
     5
 10
-405.66870958025902
 20
393.17320492500062
 30
0.0
 11
-405.66870958025902
 21
392.17276420000047
 31
0.0
  0
ARC
  5
C7
  8
DETAIL
  6
CONTINUOUS
 62
     5
 10
-397.4751000424958
 20
233.3027770700005
 30
0.0
 40
6.4028206400123651
 50
90.0
 51
180.0
  0
ARC
  5
C8
  8
DETAIL
  6
CONTINUOUS
 62
     5
 10
-395.47421859250659
 20
233.3027770700005
 30
0.0
 40
7.003085075010083
 50
270.0
 51
23.127808470168649
  0
LINE
  5
C9
  8
DETAIL
  6
CONTINUOUS
 62
     5
 10
-403.87792068250809
 20
226.29969199500101
 30
0.0
 11
-403.87792068250809
 21
233.3027770700005
 31
0.0
  0
LINE
  5
CA
  8
DETAIL
  6
CONTINUOUS
 62
     5
 10
-389.0339646829882
 20
236.0534733730733
 30
0.0
 11
-389.27794410345052
 21
236.63025181076679
 31
0.0
  0
LINE
  5
CB
  8
DETAIL
  6
CONTINUOUS
 62
     5
 10
-389.29890637798172
 20
236.68065256385259
 30
0.0
 11
-389.23500583733022
 21
236.5215450730955
 31
0.0
  0
LINE
  5
CC
  8
DETAIL
  6
CONTINUOUS
 62
     5
 10
-389.33419608767991
 20
236.7672969413737
 30
0.0
 11
-389.29890637798172
 21
236.68065256385259
 31
0.0
  0
LINE
  5
CD
  8
DETAIL
  6
CONTINUOUS
 62
     5
 10
-389.29588599091409
 20
236.6685479203841
 30
0.0
 11
-389.37899793978818
 21
236.88085488265051
 31
0.0
  0
LINE
  5
CE
  8
DETAIL
  6
CONTINUOUS
 62
     5
 10
-389.45397115129492
 20
237.08045753427589
 30
0.0
 11
-389.4982277922129
 21
237.20553661697011
 31
0.0
  0
LINE
  5
CF
  8
DETAIL
  6
CONTINUOUS
 62
     5
 10
-389.40560617802851
 20
236.94878345078041
 30
0.0
 11
-389.45397115129492
 21
237.08045753427589
 31
0.0
  0
LINE
  5
D0
  8
DETAIL
  6
CONTINUOUS
 62
     5
 10
-389.35277864736889
 20
236.81127753318111
 30
0.0
 11
-389.40560617802851
 21
236.94878345078041
 31
0.0
  0
LINE
  5
D1
  8
DETAIL
  6
CONTINUOUS
 62
     5
 10
-389.4314015176692
 20
237.01939771154051
 30
0.0
 11
-389.37899793978818
 21
236.88085488265051
 31
0.0
  0
LINE
  5
D2
  8
DETAIL
  6
CONTINUOUS
 62
     5
 10
-389.48851001923452
 20
237.17790660909941
 30
0.0
 11
-389.4314015176692
 21
237.01939771154051
 31
0.0
  0
LINE
  5
D3
  8
DETAIL
  6
CONTINUOUS
 62
     5
 10
-389.5265475559363
 20
237.2877118647007
 30
0.0
 11
-389.48851001923452
 21
237.17790660909941
 31
0.0
  0
LINE
  5
D4
  8
DETAIL
  6
CONTINUOUS
 62
     5
 10
-389.66805174039428
 20
237.72404083207039
 30
0.0
 11
-389.7215129617237
 21
237.89902717595311
 31
0.0
  0
LINE
  5
D5
  8
DETAIL
  6
CONTINUOUS
 62
     5
 10
-389.63925067814478
 20
237.63211747999799
 30
0.0
 11
-389.66805174039428
 21
237.72404083207039
 31
0.0
  0
LINE
  5
D6
  8
DETAIL
  6
CONTINUOUS
 62
     5
 10
-389.60846660881128
 20
237.53550435643771
 30
0.0
 11
-389.63925067814478
 21
237.63211747999799
 31
0.0
  0
LINE
  5
D7
  8
DETAIL
  6
CONTINUOUS
 62
     5
 10
-389.57508132656278
 20
237.43301213845331
 30
0.0
 11
-389.60846660881128
 21
237.53550435643771
 31
0.0
  0
LINE
  5
D8
  8
DETAIL
  6
CONTINUOUS
 62
     5
 10
-389.53843282576321
 20
237.3228773666892
 30
0.0
 11
-389.57508132656278
 21
237.43301213845331
 31
0.0
  0
LINE
  5
D9
  8
DETAIL
  6
CONTINUOUS
 62
     5
 10
-389.5265475559363
 20
237.2877118647007
 30
0.0
 11
-389.53843282576321
 21
237.3228773666892
 31
0.0
  0
LINE
  5
DA
  8
DETAIL
  6
CONTINUOUS
 62
     5
 10
-389.7215129617237
 20
237.89902717595311
 30
0.0
 11
-389.77226251695453
 21
238.0703429863517
 31
0.0
  0
LINE
  5
DB
  8
DETAIL
  6
CONTINUOUS
 62
     5
 10
-389.77226251695453
 20
238.0703429863517
 30
0.0
 11
-389.82179361944083
 21
238.24280792947999
 31
0.0
  0
LINE
  5
DC
  8
DETAIL
  6
CONTINUOUS
 62
     5
 10
-390.0197340748216
 20
239.03042078773959
 30
0.0
 11
-390.06057176958569
 21
239.21916185750251
 31
0.0
  0
LINE
  5
DD
  8
DETAIL
  6
CONTINUOUS
 62
     5
 10
-389.99942264200001
 20
238.93958514533639
 30
0.0
 11
-390.0197340748216
 21
239.03042078773959
 31
0.0
  0
LINE
  5
DE
  8
DETAIL
  6
CONTINUOUS
 62
     5
 10
-389.9789886657029
 20
238.85056655140011
 30
0.0
 11
-389.99942264200001
 21
238.93958514533639
 31
0.0
  0
LINE
  5
DF
  8
DETAIL
  6
CONTINUOUS
 62
     5
 10
-389.95829961804361
 20
238.7630560728353
 30
0.0
 11
-389.9789886657029
 21
238.85056655140011
 31
0.0
  0
LINE
  5
E0
  8
DETAIL
  6
CONTINUOUS
 62
     5
 10
-389.93717062657402
 20
238.67636186836401
 30
0.0
 11
-389.95829961804361
 21
238.7630560728353
 31
0.0
  0
LINE
  5
E1
  8
DETAIL
  6
CONTINUOUS
 62
     5
 10
-389.9153556048775
 20
238.58966281075459
 30
0.0
 11
-389.93717062657402
 21
238.67636186836401
 31
0.0
  0
LINE
  5
E2
  8
DETAIL
  6
CONTINUOUS
 62
     5
 10
-389.89290567099442
 20
238.50303782527641
 30
0.0
 11
-389.9153556048775
 21
238.58966281075459
 31
0.0
  0
LINE
  5
E3
  8
DETAIL
  6
CONTINUOUS
 62
     5
 10
-389.86974286756799
 20
238.4162133549188
 30
0.0
 11
-389.89290567099442
 21
238.50303782527641
 31
0.0
  0
LINE
  5
E4
  8
DETAIL
  6
CONTINUOUS
 62
     5
 10
-389.84600833626638
 20
238.3294257202879
 30
0.0
 11
-389.86974286756799
 21
238.4162133549188
 31
0.0
  0
LINE
  5
E5
  8
DETAIL
  6
CONTINUOUS
 62
     5
 10
-389.82179361944083
 20
238.24280792947999
 30
0.0
 11
-389.84600833626638
 21
238.3294257202879
 31
0.0
  0
LINE
  5
E6
  8
DETAIL
  6
CONTINUOUS
 62
     5
 10
-390.06057176958569
 20
239.21916185750251
 30
0.0
 11
-390.1014711855305
 21
239.4152889210236
 31
0.0
  0
LINE
  5
E7
  8
DETAIL
  6
CONTINUOUS
 62
     5
 10
-390.1014711855305
 20
239.4152889210236
 30
0.0
 11
-390.14246069318079
 21
239.6185690501909
 31
0.0
  0
LINE
  5
E8
  8
DETAIL
  6
CONTINUOUS
 62
     5
 10
-390.14246069318079
 20
239.6185690501909
 30
0.0
 11
-390.18489484823778
 21
239.83603010649469
 31
0.0
  0
LINE
  5
E9
  8
DETAIL
  6
CONTINUOUS
 62
     5
 10
-390.18489484823778
 20
239.83603010649469
 30
0.0
 11
-390.23018825286732
 21
240.07627274778949
 31
0.0
  0
LINE
  5
EA
  8
DETAIL
  6
CONTINUOUS
 62
     5
 10
-390.23018825286732
 20
240.07627274778949
 30
0.0
 11
-390.27946694516282
 21
240.34793954689371
 31
0.0
  0
LINE
  5
EB
  8
DETAIL
  6
CONTINUOUS
 62
     5
 10
-390.27946694516282
 20
240.34793954689371
 30
0.0
 11
-390.33222995238202
 21
240.65167338751959
 31
0.0
  0
LINE
  5
EC
  8
DETAIL
  6
CONTINUOUS
 62
     5
 10
-390.33222995238202
 20
240.65167338751959
 30
0.0
 11
-390.38724905299631
 21
240.98265807898699
 31
0.0
  0
LINE
  5
ED
  8
DETAIL
  6
CONTINUOUS
 62
     5
 10
-390.38724905299631
 20
240.98265807898699
 30
0.0
 11
-390.44353233752258
 21
241.33593157685999
 31
0.0
  0
LINE
  5
EE
  8
DETAIL
  6
CONTINUOUS
 62
     5
 10
-390.44353233752258
 20
241.33593157685999
 30
0.0
 11
-390.50029941317962
 21
241.70647916000081
 31
0.0
  0
LINE
  5
EF
  8
DETAIL
  6
CONTINUOUS
 62
     5
 10
-390.50029941317962
 20
239.7055977100006
 30
0.0
 11
-390.50029941317962
 21
241.70647916000081
 31
0.0
  0
LINE
  5
F0
  8
DETAIL
  6
CONTINUOUS
 62
     5
 10
-391.04741599490478
 20
242.860411467278
 30
0.0
 11
-391.5360556802525
 21
243.9697147275821
 31
0.0
  0
LINE
  5
F1
  8
DETAIL
  6
CONTINUOUS
 62
     5
 10
-390.50029941317962
 20
241.70647916000081
 30
0.0
 11
-391.04741599490478
 21
242.860411467278
 31
0.0
  0
LINE
  5
F2
  8
DETAIL
  6
CONTINUOUS
 62
     5
 10
-389.10380853586139
 20
236.21398791768181
 30
0.0
 11
-389.23500583733022
 21
236.5215450730955
 31
0.0
  0
LINE
  5
F3
  8
DETAIL
  6
CONTINUOUS
 62
     5
 10
-389.0339646829882
 20
236.0534733730733
 30
0.0
 11
-389.10380853586139
 21
236.21398791768181
 31
0.0
  0
LINE
  5
F4
  8
DETAIL
  6
CONTINUOUS
 62
     5
 10
-397.4751000424958
 20
239.7055977100006
 30
0.0
 11
-390.50029941317962
 21
239.7055977100006
 31
0.0
  0
CIRCLE
  5
F5
  8
DETAIL
  6
CONTINUOUS
 62
     5
 10
-397.4751000424958
 20
233.3027770700005
 30
0.0
 40
2.5011018124999991
  0
LINE
  5
F6
  8
DETAIL
  6
CONTINUOUS
 62
     5
 10
-404.57822919000512
 20
242.80696395750101
 30
0.0
 11
-428.28867437249482
 21
242.80696395750101
 31
0.0
  0
ARC
  5
F7
  8
DETAIL
  6
CONTINUOUS
 62
     5
 10
-404.57822919000512
 20
247.809167582501
 30
0.0
 40
5.002203624999999
 50
270.0
 51
90.0
  0
LINE
  5
F8
  8
DETAIL
  6
CONTINUOUS
 62
     5
 10
-391.96156673599381
 20
245.03401048669531
 30
0.0
 11
-392.33790436334351
 21
246.0544341057757
 31
0.0
  0
LINE
  5
F9
  8
DETAIL
  6
CONTINUOUS
 62
     5
 10
-391.5360556802525
 20
243.9697147275821
 30
0.0
 11
-391.96156673599381
 21
245.03401048669531
 31
0.0
  0
LINE
  5
FA
  8
DETAIL
  6
CONTINUOUS
 62
     5
 10
-394.31781760418983
 20
252.99178068343991
 30
0.0
 11
-394.48652669674738
 21
253.7629172248742
 31
0.0
  0
LINE
  5
FB
  8
DETAIL
  6
CONTINUOUS
 62
     5
 10
-394.13710924557921
 20
252.20529239508801
 30
0.0
 11
-394.31781760418983
 21
252.99178068343991
 31
0.0
  0
LINE
  5
FC
  8
DETAIL
  6
CONTINUOUS
 62
     5
 10
-393.94240264833138
 20
251.4014420577177
 30
0.0
 11
-394.13710924557921
 21
252.20529239508801
 31
0.0
  0
LINE
  5
FD
  8
DETAIL
  6
CONTINUOUS
 62
     5
 10
-393.73302219577357
 20
250.58073149789971
 30
0.0
 11
-393.94240264833138
 21
251.4014420577177
 31
0.0
  0
LINE
  5
FE
  8
DETAIL
  6
CONTINUOUS
 62
     5
 10
-394.64325411200639
 20
254.51685983434999
 30
0.0
 11
-394.78886864070091
 21
255.25412578674491
 31
0.0
  0
LINE
  5
FF
  8
DETAIL
  6
CONTINUOUS
 62
     5
 10
-394.48652669674738
 20
253.7629172248742
 30
0.0
 11
-394.64325411200639
 21
254.51685983434999
 31
0.0
  0
LINE
  5
100
  8
DETAIL
  6
CONTINUOUS
 62
     5
 10
-393.50498023376542
 20
249.73746651916511
 30
0.0
 11
-393.73302219577357
 21
250.58073149789971
 31
0.0
  0
LINE
  5
101
  8
DETAIL
  6
CONTINUOUS
 62
     5
 10
-393.25543587025908
 20
248.86759721340309
 30
0.0
 11
-393.50498023376542
 21
249.73746651916511
 31
0.0
  0
LINE
  5
102
  8
DETAIL
  6
CONTINUOUS
 62
     5
 10
-392.9802732041224
 20
247.96669254510559
 30
0.0
 11
-393.25543587025908
 21
248.86759721340309
 31
0.0
  0
LINE
  5
103
  8
DETAIL
  6
CONTINUOUS
 62
     5
 10
-392.67641013707919
 20
247.03018491310601
 30
0.0
 11
-392.9802732041224
 21
247.96669254510559
 31
0.0
  0
LINE
  5
104
  8
DETAIL
  6
CONTINUOUS
 62
     5
 10
-392.33790436334351
 20
246.0544341057757
 30
0.0
 11
-392.67641013707919
 21
247.03018491310601
 31
0.0
  0
ARC
  5
105
  8
DETAIL
  6
CONTINUOUS
 62
     5
 10
-403.02043197527757
 20
264.41648361750072
 30
0.0
 40
7.0030850750004596
 50
4.1383442202988761
 51
90.0
  0
LINE
  5
106
  8
DETAIL
  6
CONTINUOUS
 62
     5
 10
-396.00223094073073
 20
264.48069030452689
 30
0.0
 11
-396.03560596596321
 21
264.92186089127881
 31
0.0
  0
LINE
  5
107
  8
DETAIL
  6
CONTINUOUS
 62
     5
 10
-395.96633482338012
 20
264.03800281803342
 30
0.0
 11
-396.00223094073073
 21
264.48069030452689
 31
0.0
  0
LINE
  5
108
  8
DETAIL
  6
CONTINUOUS
 62
     5
 10
-395.92781311388308
 20
263.59333115845038
 30
0.0
 11
-395.96633482338012
 21
264.03800281803342
 31
0.0
  0
LINE
  5
109
  8
DETAIL
  6
CONTINUOUS
 62
     5
 10
-395.88697931283491
 20
263.14807714532338
 30
0.0
 11
-395.92781311388308
 21
263.59333115845038
 31
0.0
  0
LINE
  5
10A
  8
DETAIL
  6
CONTINUOUS
 62
     5
 10
-395.84405870747747
 20
262.70314581134568
 30
0.0
 11
-395.88697931283491
 21
263.14807714532338
 31
0.0
  0
LINE
  5
10B
  8
DETAIL
  6
CONTINUOUS
 62
     5
 10
-395.79921143988082
 20
262.25956024322028
 30
0.0
 11
-395.84405870747747
 21
262.70314581134568
 31
0.0
  0
LINE
  5
10C
  8
DETAIL
  6
CONTINUOUS
 62
     5
 10
-395.75277048220408
 20
261.81951551694328
 30
0.0
 11
-395.79921143988082
 21
262.25956024322028
 31
0.0
  0
LINE
  5
10D
  8
DETAIL
  6
CONTINUOUS
 62
     5
 10
-395.65447050353077
 20
260.94328569767958
 30
0.0
 11
-395.75277048220408
 21
261.81951551694328
 31
0.0
  0
LINE
  5
10E
  8
DETAIL
  6
CONTINUOUS
 62
     5
 10
-395.60157958794639
 20
260.49932301142121
 30
0.0
 11
-395.65447050353077
 21
260.94328569767958
 31
0.0
  0
LINE
  5
10F
  8
DETAIL
  6
CONTINUOUS
 62
     5
 10
-395.5450961367377
 20
260.04239123787897
 30
0.0
 11
-395.60157958794639
 21
260.49932301142121
 31
0.0
  0
LINE
  5
110
  8
DETAIL
  6
CONTINUOUS
 62
     5
 10
-395.48346044982821
 20
259.56538193706871
 30
0.0
 11
-395.5450961367377
 21
260.04239123787897
 31
0.0
  0
LINE
  5
111
  8
DETAIL
  6
CONTINUOUS
 62
     5
 10
-395.41556676256079
 20
259.06134390576739
 30
0.0
 11
-395.48346044982821
 21
259.56538193706871
 31
0.0
  0
LINE
  5
112
  8
DETAIL
  6
CONTINUOUS
 62
     5
 10
-395.3393795257337
 20
258.5236840365103
 30
0.0
 11
-395.41556676256079
 21
259.06134390576739
 31
0.0
  0
LINE
  5
113
  8
DETAIL
  6
CONTINUOUS
 62
     5
 10
-395.25264672224722
 20
257.94156510616432
 30
0.0
 11
-395.3393795257337
 21
258.5236840365103
 31
0.0
  0
LINE
  5
114
  8
DETAIL
  6
CONTINUOUS
 62
     5
 10
-395.1549119915918
 20
257.32076825650302
 30
0.0
 11
-395.25264672224722
 21
257.94156510616432
 31
0.0
  0
LINE
  5
115
  8
DETAIL
  6
CONTINUOUS
 62
     5
 10
-395.04480719552743
 20
256.66082459146043
 30
0.0
 11
-395.1549119915918
 21
257.32076825650302
 31
0.0
  0
LINE
  5
116
  8
DETAIL
  6
CONTINUOUS
 62
     5
 10
-394.92281564899957
 20
255.96964700241259
 30
0.0
 11
-395.04480719552743
 21
256.66082459146043
 31
0.0
  0
LINE
  5
117
  8
DETAIL
  6
CONTINUOUS
 62
     5
 10
-394.78886864070091
 20
255.25412578674491
 30
0.0
 11
-394.92281564899957
 21
255.96964700241259
 31
0.0
  0
LINE
  5
118
  8
DETAIL
  6
CONTINUOUS
 62
     5
 10
-417.08373825250521
 20
271.41956869250112
 30
0.0
 11
-417.08373825250521
 21
275.42133159250079
 31
0.0
  0
ARC
  5
119
  8
DETAIL
  6
CONTINUOUS
 62
     5
 10
-411.08109390250149
 20
271.41956869250112
 30
0.0
 40
2.0008814499993202
 50
0.000000000000007
 51
90.0
  0
ARC
  5
11A
  8
DETAIL
  6
CONTINUOUS
 62
     5
 10
-411.08109390250149
 20
271.41956869250112
 30
0.0
 40
4.0017628999997781
 50
12.83856814096117
 51
90.0
  0
LINE
  5
11B
  8
DETAIL
  6
CONTINUOUS
 62
     5
 10
-411.08109390250149
 20
271.41956869250112
 30
0.0
 11
-411.08109390250149
 21
273.42045014250061
 31
0.0
  0
LINE
  5
11C
  8
DETAIL
  6
CONTINUOUS
 62
     5
 10
-411.08109390250149
 20
273.42045014250061
 30
0.0
 11
-417.08373825250521
 21
273.42045014250061
 31
0.0
  0
LINE
  5
11D
  8
DETAIL
  6
CONTINUOUS
 62
     5
 10
-403.02043197527757
 20
271.41956869250112
 30
0.0
 11
-417.08373825250521
 21
271.41956869250112
 31
0.0
  0
LINE
  5
11E
  8
DETAIL
  6
CONTINUOUS
 62
     5
 10
-411.08109390250149
 20
275.42133159250079
 30
0.0
 11
-439.4162261333031
 21
275.42133159250079
 31
0.0
  0
LINE
  5
11F
  8
DETAIL
  6
CONTINUOUS
 62
     5
 10
-411.08109390250149
 20
275.42133159250079
 30
0.0
 11
-474.00881550500122
 21
275.42133159250079
 31
0.0
  0
LINE
  5
120
  8
DETAIL
  6
CONTINUOUS
 62
     5
 10
-428.28867437249482
 20
252.811371207501
 30
0.0
 11
-404.57822919000512
 21
252.811371207501
 31
0.0
  0
ARC
  5
121
  8
DETAIL
  6
CONTINUOUS
 62
     5
 10
-428.28867437249482
 20
247.809167582501
 30
0.0
 40
5.002203624999999
 50
90.0
 51
270.0
  0
ARC
  5
122
  8
DETAIL
  6
CONTINUOUS
 62
     5
 10
-442.99565831609073
 20
233.3027770700005
 30
0.0
 40
7.0030850749993201
 50
224.9999999999747
 51
270.0
  0
ARC
  5
123
  8
DETAIL
  6
CONTINUOUS
 62
     5
 10
-467.00573043000293
 20
257.3128491844061
 30
0.0
 40
7.0030850750013389
 50
180.0
 51
224.9999999999747
  0
LINE
  5
124
  8
DETAIL
  6
CONTINUOUS
 62
     5
 10
-474.00881550500122
 20
257.3128491844061
 30
0.0
 11
-474.00881550500122
 21
275.42133159250079
 31
0.0
  0
LINE
  5
125
  8
DETAIL
  6
CONTINUOUS
 62
     5
 10
-447.94758726205242
 20
228.35084812454849
 30
0.0
 11
-471.95765937595559
 21
252.3609202384539
 31
0.0
  0
CIRCLE
  5
126
  8
DETAIL
  6
CONTINUOUS
 62
     5
 10
-454.0000010049921
 20
251.41075419250109
 30
0.0
 40
3.001322174999979
  0
LINE
  5
127
  8
DETAIL
  6
CONTINUOUS
 62
     5
 10
-468.00617115499767
 20
270.4191279675008
 30
0.0
 11
-468.00617115499767
 21
275.42133159250079
 31
0.0
  0
LINE
  5
128
  8
DETAIL
  6
CONTINUOUS
 62
     5
 10
-467.31400678624402
 20
275.41620125242741
 30
0.0
 11
-467.42856643330492
 21
275.42133159250079
 31
0.0
  0
LINE
  5
129
  8
DETAIL
  6
CONTINUOUS
 62
     5
 10
-467.20565693279292
 20
275.40059884708671
 30
0.0
 11
-467.31400678624402
 21
275.41620125242741
 31
0.0
  0
LINE
  5
12A
  8
DETAIL
  6
CONTINUOUS
 62
     5
 10
-467.10354855040077
 20
275.37470653022228
 30
0.0
 11
-467.20565693279292
 21
275.40059884708671
 31
0.0
  0
LINE
  5
12B
  8
DETAIL
  6
CONTINUOUS
 62
     5
 10
-467.00758660820361
 20
275.33797783810019
 30
0.0
 11
-467.10354855040077
 21
275.37470653022228
 31
0.0
  0
LINE
  5
12C
  8
DETAIL
  6
CONTINUOUS
 62
     5
 10
-466.91753069929808
 20
275.29020970226321
 30
0.0
 11
-467.00758660820361
 21
275.33797783810019
 31
0.0
  0
LINE
  5
12D
  8
DETAIL
  6
CONTINUOUS
 62
     5
 10
-466.83384862676712
 20
275.23055409212662
 30
0.0
 11
-466.91753069929808
 21
275.29020970226321
 31
0.0
  0
LINE
  5
12E
  8
DETAIL
  6
CONTINUOUS
 62
     5
 10
-466.7566712327432
 20
275.15850007961149
 30
0.0
 11
-466.83384862676712
 21
275.23055409212662
 31
0.0
  0
LINE
  5
12F
  8
DETAIL
  6
CONTINUOUS
 62
     5
 10
-466.68676900015362
 20
275.07283328774759
 30
0.0
 11
-466.7566712327432
 21
275.15850007961149
 31
0.0
  0
LINE
  5
130
  8
DETAIL
  6
CONTINUOUS
 62
     5
 10
-466.62445061898518
 20
274.97213503205921
 30
0.0
 11
-466.68676900015362
 21
275.07283328774759
 31
0.0
  0
LINE
  5
131
  8
DETAIL
  6
CONTINUOUS
 62
     5
 10
-466.57123231317752
 20
274.85650730648013
 30
0.0
 11
-466.62445061898518
 21
274.97213503205921
 31
0.0
  0
LINE
  5
132
  8
DETAIL
  6
CONTINUOUS
 62
     5
 10
-466.52845886214988
 20
274.72502447673702
 30
0.0
 11
-466.57123231317752
 21
274.85650730648013
 31
0.0
  0
LINE
  5
133
  8
DETAIL
  6
CONTINUOUS
 62
     5
 10
-466.49695328747322
 20
274.57935074296392
 30
0.0
 11
-466.52845886214988
 21
274.72502447673702
 31
0.0
  0
LINE
  5
134
  8
DETAIL
  6
CONTINUOUS
 62
     5
 10
-466.47803139479942
 20
274.42046359677443
 30
0.0
 11
-466.49695328747322
 21
274.57935074296392
 31
0.0
  0
LINE
  5
135
  8
DETAIL
  6
CONTINUOUS
 62
     5
 10
-466.47155960877973
 20
274.24949753244948
 30
0.0
 11
-466.47803139479942
 21
274.42046359677443
 31
0.0
  0
LINE
  5
136
  8
DETAIL
  6
CONTINUOUS
 62
     5
 10
-466.47799470263402
 20
274.06735063512252
 30
0.0
 11
-466.47155960877973
 21
274.24949753244948
 31
0.0
  0
LINE
  5
137
  8
DETAIL
  6
CONTINUOUS
 62
     5
 10
-466.49688143432343
 20
273.8757096288482
 30
0.0
 11
-466.47799470263402
 21
274.06735063512252
 31
0.0
  0
LINE
  5
138
  8
DETAIL
  6
CONTINUOUS
 62
     5
 10
-466.52835468175851
 20
273.6754757941668
 30
0.0
 11
-466.49688143432343
 21
273.8757096288482
 31
0.0
  0
LINE
  5
139
  8
DETAIL
  6
CONTINUOUS
 62
     5
 10
-466.57110085126078
 20
273.46990354975259
 30
0.0
 11
-466.52835468175851
 21
273.6754757941668
 31
0.0
  0
LINE
  5
13A
  8
DETAIL
  6
CONTINUOUS
 62
     5
 10
-466.62429933533991
 20
273.26207931826781
 30
0.0
 11
-466.57110085126078
 21
273.46990354975259
 31
0.0
  0
LINE
  5
13B
  8
DETAIL
  6
CONTINUOUS
 62
     5
 10
-466.68660605236641
 20
273.05340836777651
 30
0.0
 11
-466.62429933533991
 21
273.26207931826781
 31
0.0
  0
LINE
  5
13C
  8
DETAIL
  6
CONTINUOUS
 62
     5
 10
-466.75650666023728
 20
272.84661817781961
 30
0.0
 11
-466.68660605236641
 21
273.05340836777651
 31
0.0
  0
LINE
  5
13D
  8
DETAIL
  6
CONTINUOUS
 62
     5
 10
-466.83369133447201
 20
272.64082853763489
 30
0.0
 11
-466.75650666023728
 21
272.84661817781961
 31
0.0
  0
LINE
  5
13E
  8
DETAIL
  6
CONTINUOUS
 62
     5
 10
-466.91738996780231
 20
272.43616141595481
 30
0.0
 11
-466.83369133447201
 21
272.64082853763489
 31
0.0
  0
LINE
  5
13F
  8
DETAIL
  6
CONTINUOUS
 62
     5
 10
-467.00746906492259
 20
272.23233775534442
 30
0.0
 11
-466.91738996780231
 21
272.43616141595481
 31
0.0
  0
LINE
  5
140
  8
DETAIL
  6
CONTINUOUS
 62
     5
 10
-467.10345914350989
 20
272.02932456627252
 30
0.0
 11
-467.00746906492259
 21
272.23233775534442
 31
0.0
  0
LINE
  5
141
  8
DETAIL
  6
CONTINUOUS
 62
     5
 10
-467.20559805385278
 20
271.82650560976498
 30
0.0
 11
-467.10345914350989
 21
272.02932456627252
 31
0.0
  0
LINE
  5
142
  8
DETAIL
  6
CONTINUOUS
 62
     5
 10
-467.31397731975892
 20
271.62317524796867
 30
0.0
 11
-467.20559805385278
 21
271.82650560976498
 31
0.0
  0
LINE
  5
143
  8
DETAIL
  6
CONTINUOUS
 62
     5
 10
-467.42856643330492
 20
271.41956869250112
 30
0.0
 11
-467.31397731975892
 21
271.62317524796867
 31
0.0
  0
LINE
  5
144
  8
DETAIL
  6
CONTINUOUS
 62
     5
 10
-467.42856643330492
 20
271.41956869250112
 30
0.0
 11
-468.00617115499767
 21
270.4191279675008
 31
0.0
  0
LINE
  5
145
  8
DETAIL
  6
CONTINUOUS
 62
     5
 10
-468.6983355242516
 20
275.41620125242741
 30
0.0
 11
-468.58377587719963
 21
275.42133159250079
 31
0.0
  0
LINE
  5
146
  8
DETAIL
  6
CONTINUOUS
 62
     5
 10
-468.8066853777118
 20
275.40059884708671
 30
0.0
 11
-468.6983355242516
 21
275.41620125242741
 31
0.0
  0
LINE
  5
147
  8
DETAIL
  6
CONTINUOUS
 62
     5
 10
-468.90879375960372
 20
275.37470653022228
 30
0.0
 11
-468.8066853777118
 21
275.40059884708671
 31
0.0
  0
LINE
  5
148
  8
DETAIL
  6
CONTINUOUS
 62
     5
 10
-469.00475570179151
 20
275.33797783810019
 30
0.0
 11
-468.90879375960372
 21
275.37470653022228
 31
0.0
  0
LINE
  5
149
  8
DETAIL
  6
CONTINUOUS
 62
     5
 10
-469.09481161120652
 20
275.29020970226321
 30
0.0
 11
-469.00475570179151
 21
275.33797783810019
 31
0.0
  0
LINE
  5
14A
  8
DETAIL
  6
CONTINUOUS
 62
     5
 10
-469.17849368323692
 20
275.23055409212662
 30
0.0
 11
-469.09481161120652
 21
275.29020970226321
 31
0.0
  0
LINE
  5
14B
  8
DETAIL
  6
CONTINUOUS
 62
     5
 10
-469.25567107776152
 20
275.15850007961149
 30
0.0
 11
-469.17849368323692
 21
275.23055409212662
 31
0.0
  0
LINE
  5
14C
  8
DETAIL
  6
CONTINUOUS
 62
     5
 10
-469.32557331035088
 20
275.07283328774759
 30
0.0
 11
-469.25567107776152
 21
275.15850007961149
 31
0.0
  0
LINE
  5
14D
  8
DETAIL
  6
CONTINUOUS
 62
     5
 10
-469.38789169151943
 20
274.97213503205921
 30
0.0
 11
-469.32557331035088
 21
275.07283328774759
 31
0.0
  0
LINE
  5
14E
  8
DETAIL
  6
CONTINUOUS
 62
     5
 10
-469.44110999732709
 20
274.85650730648013
 30
0.0
 11
-469.38789169151943
 21
274.97213503205921
 31
0.0
  0
LINE
  5
14F
  8
DETAIL
  6
CONTINUOUS
 62
     5
 10
-469.48388344834541
 20
274.72502447673702
 30
0.0
 11
-469.44110999732709
 21
274.85650730648013
 31
0.0
  0
LINE
  5
150
  8
DETAIL
  6
CONTINUOUS
 62
     5
 10
-469.51538902302241
 20
274.57935074296392
 30
0.0
 11
-469.48388344834541
 21
274.72502447673702
 31
0.0
  0
LINE
  5
151
  8
DETAIL
  6
CONTINUOUS
 62
     5
 10
-469.53431091570508
 20
274.42046359677443
 30
0.0
 11
-469.51538902302241
 21
274.57935074296392
 31
0.0
  0
LINE
  5
152
  8
DETAIL
  6
CONTINUOUS
 62
     5
 10
-469.54078270172482
 20
274.24949753244948
 30
0.0
 11
-469.53431091570508
 21
274.42046359677443
 31
0.0
  0
LINE
  5
153
  8
DETAIL
  6
CONTINUOUS
 62
     5
 10
-469.53434760737031
 20
274.06735063512252
 30
0.0
 11
-469.54078270172482
 21
274.24949753244948
 31
0.0
  0
LINE
  5
154
  8
DETAIL
  6
CONTINUOUS
 62
     5
 10
-469.51546087618112
 20
273.8757096288482
 30
0.0
 11
-469.53434760737031
 21
274.06735063512252
 31
0.0
  0
LINE
  5
155
  8
DETAIL
  6
CONTINUOUS
 62
     5
 10
-469.48398762824559
 20
273.6754757941668
 30
0.0
 11
-469.51546087618112
 21
273.8757096288482
 31
0.0
  0
LINE
  5
156
  8
DETAIL
  6
CONTINUOUS
 62
     5
 10
-469.44124145873451
 20
273.46990354975259
 30
0.0
 11
-469.48398762824559
 21
273.6754757941668
 31
0.0
  0
LINE
  5
157
  8
DETAIL
  6
CONTINUOUS
 62
     5
 10
-469.38804297516452
 20
273.26207931826781
 30
0.0
 11
-469.44124145873451
 21
273.46990354975259
 31
0.0
  0
LINE
  5
158
  8
DETAIL
  6
CONTINUOUS
 62
     5
 10
-469.32573625812921
 20
273.05340836777651
 30
0.0
 11
-469.38804297516452
 21
273.26207931826781
 31
0.0
  0
LINE
  5
159
  8
DETAIL
  6
CONTINUOUS
 62
     5
 10
-469.25583565025818
 20
272.84661817781961
 30
0.0
 11
-469.32573625812921
 21
273.05340836777651
 31
0.0
  0
LINE
  5
15A
  8
DETAIL
  6
CONTINUOUS
 62
     5
 10
-469.17865097603249
 20
272.64082853763489
 30
0.0
 11
-469.25583565025818
 21
272.84661817781961
 31
0.0
  0
LINE
  5
15B
  8
DETAIL
  6
CONTINUOUS
 62
     5
 10
-469.09495234220191
 20
272.43616141595481
 30
0.0
 11
-469.17865097603249
 21
272.64082853763489
 31
0.0
  0
LINE
  5
15C
  8
DETAIL
  6
CONTINUOUS
 62
     5
 10
-469.00487324558202
 20
272.23233775534442
 30
0.0
 11
-469.09495234220191
 21
272.43616141595481
 31
0.0
  0
LINE
  5
15D
  8
DETAIL
  6
CONTINUOUS
 62
     5
 10
-468.90888316648511
 20
272.02932456627252
 30
0.0
 11
-469.00487324558202
 21
272.23233775534442
 31
0.0
  0
LINE
  5
15E
  8
DETAIL
  6
CONTINUOUS
 62
     5
 10
-468.80674425665183
 20
271.82650560976498
 30
0.0
 11
-468.90888316648511
 21
272.02932456627252
 31
0.0
  0
LINE
  5
15F
  8
DETAIL
  6
CONTINUOUS
 62
     5
 10
-468.69836499073631
 20
271.62317524796867
 30
0.0
 11
-468.80674425665183
 21
271.82650560976498
 31
0.0
  0
LINE
  5
160
  8
DETAIL
  6
CONTINUOUS
 62
     5
 10
-468.58377587719963
 20
271.41956869250112
 30
0.0
 11
-468.69836499073631
 21
271.62317524796867
 31
0.0
  0
LINE
  5
161
  8
DETAIL
  6
CONTINUOUS
 62
     5
 10
-468.58377587719963
 20
271.41956869250112
 30
0.0
 11
-468.00617115499767
 21
270.4191279675008
 31
0.0
  0
LINE
  5
162
  8
DETAIL
  6
CONTINUOUS
 62
     5
 10
-440.57143557719792
 20
271.41956869249998
 30
0.0
 11
-440.68602349020011
 21
271.6231731950636
 31
0.0
  0
LINE
  5
163
  8
DETAIL
  6
CONTINUOUS
 62
     5
 10
-440.68602349020011
 20
271.6231731950636
 30
0.0
 11
-440.79440098734221
 21
271.82649988124132
 31
0.0
  0
LINE
  5
164
  8
DETAIL
  6
CONTINUOUS
 62
     5
 10
-440.79440098734221
 20
271.82649988124132
 30
0.0
 11
-440.89653731753992
 21
272.02931313673679
 31
0.0
  0
LINE
  5
165
  8
DETAIL
  6
CONTINUOUS
 62
     5
 10
-440.89653731753992
 20
272.02931313673679
 30
0.0
 11
-440.99252473195321
 21
272.23231980593738
 31
0.0
  0
LINE
  5
166
  8
DETAIL
  6
CONTINUOUS
 62
     5
 10
-440.99252473195321
 20
272.23231980593738
 30
0.0
 11
-441.08260164361349
 21
272.43613688964967
 31
0.0
  0
LINE
  5
167
  8
DETAIL
  6
CONTINUOUS
 62
     5
 10
-441.08260164361349
 20
272.43613688964967
 30
0.0
 11
-441.16629881380442
 21
272.64079830181407
 31
0.0
  0
LINE
  5
168
  8
DETAIL
  6
CONTINUOUS
 62
     5
 10
-441.16629881380442
 20
272.64079830181407
 30
0.0
 11
-441.2434832484272
 21
272.8465841733389
 31
0.0
  0
LINE
  5
169
  8
DETAIL
  6
CONTINUOUS
 62
     5
 10
-441.2434832484272
 20
272.8465841733389
 30
0.0
 11
-441.31338462364062
 21
273.05337285212948
 31
0.0
  0
LINE
  5
16A
  8
DETAIL
  6
CONTINUOUS
 62
     5
 10
-441.31338462364062
 20
273.05337285212948
 30
0.0
 11
-441.37569326952712
 21
273.26204547685848
 31
0.0
  0
LINE
  5
16B
  8
DETAIL
  6
CONTINUOUS
 62
     5
 10
-441.37569326952712
 20
273.26204547685848
 30
0.0
 11
-441.42889423017829
 21
273.46987379914589
 31
0.0
  0
LINE
  5
16C
  8
DETAIL
  6
CONTINUOUS
 62
     5
 10
-441.42889423017829
 20
273.46987379914589
 30
0.0
 11
-441.47164300432911
 21
273.67545244137932
 31
0.0
  0
LINE
  5
16D
  8
DETAIL
  6
CONTINUOUS
 62
     5
 10
-441.47164300432911
 20
273.67545244137932
 30
0.0
 11
-441.50311855829477
 21
273.87569392743029
 31
0.0
  0
LINE
  5
16E
  8
DETAIL
  6
CONTINUOUS
 62
     5
 10
-441.50311855829477
 20
273.87569392743029
 30
0.0
 11
-441.5220067336063
 21
274.06734294223293
 31
0.0
  0
LINE
  5
16F
  8
DETAIL
  6
CONTINUOUS
 62
     5
 10
-441.5220067336063
 20
274.06734294223293
 30
0.0
 11
-441.52844240173198
 21
274.24949762649038
 31
0.0
  0
LINE
  5
170
  8
DETAIL
  6
CONTINUOUS
 62
     5
 10
-441.52844240173198
 20
274.24949762649038
 30
0.0
 11
-441.52197002643669
 21
274.42047046980252
 31
0.0
  0
LINE
  5
171
  8
DETAIL
  6
CONTINUOUS
 62
     5
 10
-441.52197002643669
 20
274.42047046980252
 30
0.0
 11
-441.50304667512768
 21
274.57936310991067
 31
0.0
  0
LINE
  5
172
  8
DETAIL
  6
CONTINUOUS
 62
     5
 10
-441.50304667512768
 20
274.57936310991067
 30
0.0
 11
-441.47153878041729
 21
274.72504048278802
 31
0.0
  0
LINE
  5
173
  8
DETAIL
  6
CONTINUOUS
 62
     5
 10
-441.47153878041729
 20
274.72504048278802
 30
0.0
 11
-441.42876271374979
 21
274.8565251798525
 31
0.0
  0
LINE
  5
174
  8
DETAIL
  6
CONTINUOUS
 62
     5
 10
-441.42876271374979
 20
274.8565251798525
 30
0.0
 11
-441.37554192385431
 21
274.97215268533591
 31
0.0
  0
LINE
  5
175
  8
DETAIL
  6
CONTINUOUS
 62
     5
 10
-441.37554192385431
 20
274.97215268533591
 30
0.0
 11
-441.31322161032273
 21
275.07284925378008
 31
0.0
  0
LINE
  5
176
  8
DETAIL
  6
CONTINUOUS
 62
     5
 10
-441.31322161032273
 20
275.07284925378008
 30
0.0
 11
-441.2433186114007
 21
275.15851318438422
 31
0.0
  0
LINE
  5
177
  8
DETAIL
  6
CONTINUOUS
 62
     5
 10
-441.166141460983
 20
275.23056382541358
 30
0.0
 11
-441.08246086059029
 21
275.29021624664568
 31
0.0
  0
LINE
  5
178
  8
DETAIL
  6
CONTINUOUS
 62
     5
 10
-440.57143557719792
 20
271.41956869249998
 30
0.0
 11
-439.99383085499562
 21
270.4191279675008
 31
0.0
  0
LINE
  5
179
  8
DETAIL
  6
CONTINUOUS
 62
     5
 10
-439.4162261333031
 20
271.41956869249998
 30
0.0
 11
-439.99383085499562
 21
270.4191279675008
 31
0.0
  0
LINE
  5
17A
  8
DETAIL
  6
CONTINUOUS
 62
     5
 10
-439.4162261333031
 20
271.41956869249998
 30
0.0
 11
-439.30163821979107
 21
271.6231731950636
 31
0.0
  0
LINE
  5
17B
  8
DETAIL
  6
CONTINUOUS
 62
     5
 10
-439.30163821979107
 20
271.6231731950636
 30
0.0
 11
-439.19326072315852
 21
271.82649988124132
 31
0.0
  0
LINE
  5
17C
  8
DETAIL
  6
CONTINUOUS
 62
     5
 10
-439.19326072315852
 20
271.82649988124132
 30
0.0
 11
-439.09112439245132
 21
272.02931313673679
 31
0.0
  0
LINE
  5
17D
  8
DETAIL
  6
CONTINUOUS
 62
     5
 10
-439.09112439245132
 20
272.02931313673679
 30
0.0
 11
-438.99513697854758
 21
272.23231980593738
 31
0.0
  0
LINE
  5
17E
  8
DETAIL
  6
CONTINUOUS
 62
     5
 10
-438.99513697854758
 20
272.23231980593738
 30
0.0
 11
-438.90506006637793
 21
272.43613688964967
 31
0.0
  0
LINE
  5
17F
  8
DETAIL
  6
CONTINUOUS
 62
     5
 10
-438.90506006637793
 20
272.43613688964967
 30
0.0
 11
-438.82136289669643
 21
272.64079830181407
 31
0.0
  0
LINE
  5
180
  8
DETAIL
  6
CONTINUOUS
 62
     5
 10
-438.82136289669643
 20
272.64079830181407
 30
0.0
 11
-438.74417846207359
 21
272.8465841733389
 31
0.0
  0
LINE
  5
181
  8
DETAIL
  6
CONTINUOUS
 62
     5
 10
-438.74417846207359
 20
272.8465841733389
 30
0.0
 11
-438.6742770863691
 21
273.05337285212948
 31
0.0
  0
LINE
  5
182
  8
DETAIL
  6
CONTINUOUS
 62
     5
 10
-438.6742770863691
 20
273.05337285212948
 30
0.0
 11
-438.61196844048249
 21
273.26204547685848
 31
0.0
  0
LINE
  5
183
  8
DETAIL
  6
CONTINUOUS
 62
     5
 10
-438.61196844048249
 20
273.26204547685848
 30
0.0
 11
-438.5587674803225
 21
273.46987379914589
 31
0.0
  0
LINE
  5
184
  8
DETAIL
  6
CONTINUOUS
 62
     5
 10
-438.5587674803225
 20
273.46987379914589
 30
0.0
 11
-438.5160187056623
 21
273.67545244137932
 31
0.0
  0
LINE
  5
185
  8
DETAIL
  6
CONTINUOUS
 62
     5
 10
-438.5160187056623
 20
273.67545244137932
 30
0.0
 11
-438.48454315171477
 21
273.87569392743029
 31
0.0
  0
LINE
  5
186
  8
DETAIL
  6
CONTINUOUS
 62
     5
 10
-438.48454315171477
 20
273.87569392743029
 30
0.0
 11
-438.46565497687618
 21
274.06734294223293
 31
0.0
  0
LINE
  5
187
  8
DETAIL
  6
CONTINUOUS
 62
     5
 10
-438.46565497687618
 20
274.06734294223293
 30
0.0
 11
-438.45921930876881
 21
274.24949762649038
 31
0.0
  0
LINE
  5
188
  8
DETAIL
  6
CONTINUOUS
 62
     5
 10
-438.45921930876881
 20
274.24949762649038
 30
0.0
 11
-438.4656916840641
 21
274.42047046980252
 31
0.0
  0
LINE
  5
189
  8
DETAIL
  6
CONTINUOUS
 62
     5
 10
-438.4656916840641
 20
274.42047046980252
 30
0.0
 11
-438.48461503488159
 21
274.57936310991067
 31
0.0
  0
LINE
  5
18A
  8
DETAIL
  6
CONTINUOUS
 62
     5
 10
-438.48461503488159
 20
274.57936310991067
 30
0.0
 11
-438.51612292957401
 21
274.72504048278802
 31
0.0
  0
LINE
  5
18B
  8
DETAIL
  6
CONTINUOUS
 62
     5
 10
-438.51612292957401
 20
274.72504048278802
 30
0.0
 11
-438.55889899675111
 21
274.8565251798525
 31
0.0
  0
LINE
  5
18C
  8
DETAIL
  6
CONTINUOUS
 62
     5
 10
-438.55889899675111
 20
274.8565251798525
 30
0.0
 11
-438.61211978664647
 21
274.97215268533591
 31
0.0
  0
LINE
  5
18D
  8
DETAIL
  6
CONTINUOUS
 62
     5
 10
-438.61211978664647
 20
274.97215268533591
 30
0.0
 11
-438.67444010017829
 21
275.07284925378008
 31
0.0
  0
LINE
  5
18E
  8
DETAIL
  6
CONTINUOUS
 62
     5
 10
-438.67444010017829
 20
275.07284925378008
 30
0.0
 11
-438.74434309910021
 21
275.15851318438422
 31
0.0
  0
LINE
  5
18F
  8
DETAIL
  6
CONTINUOUS
 62
     5
 10
-438.74434309910021
 20
275.15851318438422
 30
0.0
 11
-438.8215202495179
 21
275.23056382541358
 31
0.0
  0
LINE
  5
190
  8
DETAIL
  6
CONTINUOUS
 62
     5
 10
-438.8215202495179
 20
275.23056382541358
 30
0.0
 11
-438.90520084940113
 21
275.29021624664568
 31
0.0
  0
LINE
  5
191
  8
DETAIL
  6
CONTINUOUS
 62
     5
 10
-438.90520084940113
 20
275.29021624664568
 30
0.0
 11
-438.9952545633472
 21
275.33798157874799
 31
0.0
  0
LINE
  5
192
  8
DETAIL
  6
CONTINUOUS
 62
     5
 10
-438.9952545633472
 20
275.33798157874799
 30
0.0
 11
-439.09121382985109
 21
275.3747083570272
 31
0.0
  0
LINE
  5
193
  8
DETAIL
  6
CONTINUOUS
 62
     5
 10
-439.19331962111539
 20
275.40059943584612
 30
0.0
 11
-439.30166769527489
 21
275.4162012269162
 31
0.0
  0
LINE
  5
194
  8
DETAIL
  6
CONTINUOUS
 62
     5
 10
-439.30166769527489
 20
275.4162012269162
 30
0.0
 11
-439.4162261333031
 21
275.42133159250079
 31
0.0
  0
LINE
  5
195
  8
DETAIL
  6
CONTINUOUS
 62
     5
 10
-439.99383085499562
 20
270.4191279675008
 30
0.0
 11
-439.99383085499562
 21
275.42133159250079
 31
0.0
  0
LINE
  5
196
  8
DETAIL
  6
CONTINUOUS
 62
     5
 10
-440.99240714666229
 20
275.33798157874799
 30
0.0
 11
-440.89644788014027
 21
275.3747083570272
 31
0.0
  0
LINE
  5
197
  8
DETAIL
  6
CONTINUOUS
 62
     5
 10
-440.89644788014027
 20
275.3747083570272
 30
0.0
 11
-440.79434208889421
 21
275.40059943584612
 31
0.0
  0
LINE
  5
198
  8
DETAIL
  6
CONTINUOUS
 62
     5
 10
-440.68599401471658
 20
275.4162012269162
 30
0.0
 11
-440.57143557719792
 21
275.42133159250079
 31
0.0
  0
LINE
  5
199
  8
DETAIL
  6
CONTINUOUS
 62
     5
 10
-441.08246086059029
 20
275.29021624664568
 30
0.0
 11
-440.99240714666229
 21
275.33798157874799
 31
0.0
  0
LINE
  5
19A
  8
DETAIL
  6
CONTINUOUS
 62
     5
 10
-441.2433186114007
 20
275.15851318438422
 30
0.0
 11
-441.166141460983
 21
275.23056382541358
 31
0.0
  0
LINE
  5
19B
  8
DETAIL
  6
CONTINUOUS
 62
     5
 10
-440.79434208889421
 20
275.40059943584612
 30
0.0
 11
-440.68599401471658
 21
275.4162012269162
 31
0.0
  0
LINE
  5
19C
  8
DETAIL
  6
CONTINUOUS
 62
     5
 10
-439.09121382985109
 20
275.3747083570272
 30
0.0
 11
-439.19331962111539
 21
275.40059943584612
 31
0.0
  0
LINE
  5
19D
  8
DETAIL
  6
CONTINUOUS
 62
     5
 10
-395.47421859250659
 20
226.29969199500101
 30
0.0
 11
-442.99565831609073
 21
226.29969199500101
 31
0.0
  0
ARC
  5
19E
  8
DETAIL
  6
CONTINUOUS
 62
     5
 10
403.02043197476792
 20
264.41648361750072
 30
0.0
 40
7.0030850749969167
 50
90.0
 51
175.8616557797011
  0
ARC
  5
19F
  8
DETAIL
  6
CONTINUOUS
 62
     5
 10
404.578229190005
 20
247.809167582501
 30
0.0
 40
5.002203624999999
 50
90.0
 51
270.0
  0
LINE
  5
1A0
  8
DETAIL
  6
CONTINUOUS
 62
     5
 10
397.47510004249563
 20
239.7055977100006
 30
0.0
 11
390.50029941317939
 21
239.7055977100006
 31
0.0
  0
ARC
  5
1A1
  8
DETAIL
  6
CONTINUOUS
 62
     5
 10
397.47510004249563
 20
233.3027770700005
 30
0.0
 40
6.4028206399998604
 50
0.000000000000007
 51
90.0
  0
LINE
  5
1A2
  8
DETAIL
  6
CONTINUOUS
 62
     5
 10
389.40560617802839
 20
236.94878345078041
 30
0.0
 11
389.45397115080351
 21
237.08045753427589
 31
0.0
  0
LINE
  5
1A3
  8
DETAIL
  6
CONTINUOUS
 62
     5
 10
389.35277864687708
 20
236.81127753318111
 30
0.0
 11
389.40560617802839
 21
236.94878345078041
 31
0.0
  0
LINE
  5
1A4
  8
DETAIL
  6
CONTINUOUS
 62
     5
 10
389.37899793978772
 20
236.88085488265051
 30
0.0
 11
389.43140151717768
 21
237.01939771154051
 31
0.0
  0
LINE
  5
1A5
  8
DETAIL
  6
CONTINUOUS
 62
     5
 10
389.29588599040449
 20
236.6685479203841
 30
0.0
 11
389.37899793978772
 21
236.88085488265051
 31
0.0
  0
LINE
  5
1A6
  8
DETAIL
  6
CONTINUOUS
 62
     5
 10
389.29890637747201
 20
236.68065256385259
 30
0.0
 11
389.33419608767991
 21
236.7672969413737
 31
0.0
  0
LINE
  5
1A7
  8
DETAIL
  6
CONTINUOUS
 62
     5
 10
389.03396468298803
 20
236.0534733730733
 30
0.0
 11
389.27794410345052
 21
236.63025181076679
 31
0.0
  0
LINE
  5
1A8
  8
DETAIL
  6
CONTINUOUS
 62
     5
 10
389.23500583731197
 20
236.5215450730955
 30
0.0
 11
389.29890637747201
 21
236.68065256385259
 31
0.0
  0
LINE
  5
1A9
  8
DETAIL
  6
CONTINUOUS
 62
     5
 10
389.10380853586088
 20
236.21398791768181
 30
0.0
 11
389.23500583731197
 21
236.5215450730955
 31
0.0
  0
LINE
  5
1AA
  8
DETAIL
  6
CONTINUOUS
 62
     5
 10
389.03396468298803
 20
236.0534733730733
 30
0.0
 11
389.10380853586088
 21
236.21398791768181
 31
0.0
  0
LINE
  5
1AB
  8
DETAIL
  6
CONTINUOUS
 62
     5
 10
403.87792068250792
 20
226.29969199500101
 30
0.0
 11
403.87792068250792
 21
233.3027770700005
 31
0.0
  0
ARC
  5
1AC
  8
DETAIL
  6
CONTINUOUS
 62
     5
 10
306.23070013272007
 20
271.41956869250112
 30
0.0
 40
90.039665250002287
 50
337.27070504709678
 51
355.8616557797011
  0
ARC
  5
1AD
  8
DETAIL
  6
CONTINUOUS
 62
     5
 10
395.4742185925063
 20
233.3027770700005
 30
0.0
 40
7.0030850749993201
 50
156.87219152983141
 51
270.0
  0
CIRCLE
  5
1AE
  8
DETAIL
  6
CONTINUOUS
 62
     5
 10
397.47510004249563
 20
233.3027770700005
 30
0.0
 40
2.5011018124999991
  0
ARC
  5
1AF
  8
DETAIL
  6
CONTINUOUS
 62
     5
 10
411.08109390250121
 20
271.41956869250112
 30
0.0
 40
2.0008814500072831
 50
90.0
 51
180.0
  0
ARC
  5
1B0
  8
DETAIL
  6
CONTINUOUS
 62
     5
 10
411.08109390250121
 20
271.41956869250112
 30
0.0
 40
4.0017628999966384
 50
90.0
 51
167.39299160129991
  0
CIRCLE
  5
1B1
  8
DETAIL
  6
CONTINUOUS
 62
     5
 10
454.00000100499187
 20
251.41075419250109
 30
0.0
 40
3.001322174999979
  0
ARC
  5
1B2
  8
DETAIL
  6
CONTINUOUS
 62
     5
 10
428.28867437249482
 20
247.809167582501
 30
0.0
 40
5.002203624999999
 50
270.0
 51
90.0
  0
ARC
  5
1B3
  8
DETAIL
  6
CONTINUOUS
 62
     5
 10
467.00573043000281
 20
257.3128491844061
 30
0.0
 40
7.0030850749890732
 50
315.0000000000253
 51
0.000000000000007
  0
ARC
  5
1B4
  8
DETAIL
  6
CONTINUOUS
 62
     5
 10
442.99565831609061
 20
233.3027770700005
 30
0.0
 40
7.0030850750013389
 50
270.0
 51
315.0000000000253
  0
LINE
  5
1B5
  8
DETAIL
  6
CONTINUOUS
 62
     5
 10
474.00881550499167
 20
275.42133159250079
 30
0.0
 11
411.08109390250121
 21
275.42133159250079
 31
0.0
  0
LINE
  5
1B6
  8
DETAIL
  6
CONTINUOUS
 62
     5
 10
411.08109390250121
 20
273.42045014250061
 30
0.0
 11
417.0837382525051
 21
273.42045014250061
 31
0.0
  0
LINE
  5
1B7
  8
DETAIL
  6
CONTINUOUS
 62
     5
 10
417.0837382525051
 20
271.41956869250112
 30
0.0
 11
403.02043197476792
 21
271.41956869250112
 31
0.0
  0
LINE
  5
1B8
  8
DETAIL
  6
CONTINUOUS
 62
     5
 10
428.28867437249482
 20
252.811371207501
 30
0.0
 11
404.578229190005
 21
252.811371207501
 31
0.0
  0
LINE
  5
1B9
  8
DETAIL
  6
CONTINUOUS
 62
     5
 10
404.578229190005
 20
242.80696395750101
 30
0.0
 11
428.28867437249482
 21
242.80696395750101
 31
0.0
  0
LINE
  5
1BA
  8
DETAIL
  6
CONTINUOUS
 62
     5
 10
395.4742185925063
 20
226.29969199500101
 30
0.0
 11
442.99565831609061
 21
226.29969199500101
 31
0.0
  0
LINE
  5
1BB
  8
DETAIL
  6
CONTINUOUS
 62
     5
 10
447.94758726154231
 20
228.35084812454849
 30
0.0
 11
471.95765937545468
 21
252.3609202384539
 31
0.0
  0
LINE
  5
1BC
  8
DETAIL
  6
CONTINUOUS
 62
     5
 10
440.68599401471641
 20
275.4162012269162
 30
0.0
 11
440.57143557668809
 21
275.42133159250079
 31
0.0
  0
LINE
  5
1BD
  8
DETAIL
  6
CONTINUOUS
 62
     5
 10
440.79434208889398
 20
275.40059943584612
 30
0.0
 11
440.68599401471641
 21
275.4162012269162
 31
0.0
  0
LINE
  5
1BE
  8
DETAIL
  6
CONTINUOUS
 62
     5
 10
440.8964478801401
 20
275.3747083570272
 30
0.0
 11
440.79434208889398
 21
275.40059943584612
 31
0.0
  0
LINE
  5
1BF
  8
DETAIL
  6
CONTINUOUS
 62
     5
 10
440.992407146662
 20
275.33798157874799
 30
0.0
 11
440.8964478801401
 21
275.3747083570272
 31
0.0
  0
LINE
  5
1C0
  8
DETAIL
  6
CONTINUOUS
 62
     5
 10
441.08246086058978
 20
275.29021624664688
 30
0.0
 11
440.992407146662
 21
275.33798157874799
 31
0.0
  0
LINE
  5
1C1
  8
DETAIL
  6
CONTINUOUS
 62
     5
 10
441.16614146049142
 20
275.23056382541472
 30
0.0
 11
441.08246086058978
 21
275.29021624664688
 31
0.0
  0
LINE
  5
1C2
  8
DETAIL
  6
CONTINUOUS
 62
     5
 10
441.24331861089092
 20
275.15851318438422
 30
0.0
 11
441.16614146049142
 21
275.23056382541472
 31
0.0
  0
LINE
  5
1C3
  8
DETAIL
  6
CONTINUOUS
 62
     5
 10
441.31322160983109
 20
275.07284925378121
 30
0.0
 11
441.24331861089092
 21
275.15851318438422
 31
0.0
  0
LINE
  5
1C4
  8
DETAIL
  6
CONTINUOUS
 62
     5
 10
441.37554192334431
 20
274.97215268533591
 30
0.0
 11
441.31322160983109
 21
275.07284925378121
 31
0.0
  0
LINE
  5
1C5
  8
DETAIL
  6
CONTINUOUS
 62
     5
 10
441.42876271323968
 20
274.85652517985392
 30
0.0
 11
441.37554192334431
 21
274.97215268533591
 31
0.0
  0
LINE
  5
1C6
  8
DETAIL
  6
CONTINUOUS
 62
     5
 10
441.47153878041689
 20
274.72504048278802
 30
0.0
 11
441.42876271323968
 21
274.85652517985392
 31
0.0
  0
LINE
  5
1C7
  8
DETAIL
  6
CONTINUOUS
 62
     5
 10
441.50304667512739
 20
274.57936310991181
 30
0.0
 11
441.47153878041689
 21
274.72504048278802
 31
0.0
  0
LINE
  5
1C8
  8
DETAIL
  6
CONTINUOUS
 62
     5
 10
441.52197002594528
 20
274.42047046980252
 30
0.0
 11
441.50304667512739
 21
274.57936310991181
 31
0.0
  0
LINE
  5
1C9
  8
DETAIL
  6
CONTINUOUS
 62
     5
 10
441.52844240122232
 20
274.24949762649038
 30
0.0
 11
441.52197002594528
 21
274.42047046980252
 31
0.0
  0
LINE
  5
1CA
  8
DETAIL
  6
CONTINUOUS
 62
     5
 10
441.52200673311472
 20
274.06734294223401
 30
0.0
 11
441.52844240122232
 21
274.24949762649038
 31
0.0
  0
LINE
  5
1CB
  8
DETAIL
  6
CONTINUOUS
 62
     5
 10
441.50311855829449
 20
273.87569392743029
 30
0.0
 11
441.52200673311472
 21
274.06734294223401
 31
0.0
  0
LINE
  5
1CC
  8
DETAIL
  6
CONTINUOUS
 62
     5
 10
441.47164300432911
 20
273.67545244137932
 30
0.0
 11
441.50311855829449
 21
273.87569392743029
 31
0.0
  0
LINE
  5
1CD
  8
DETAIL
  6
CONTINUOUS
 62
     5
 10
441.42889422968659
 20
273.46987379914589
 30
0.0
 11
441.47164300432911
 21
273.67545244137932
 31
0.0
  0
LINE
  5
1CE
  8
DETAIL
  6
CONTINUOUS
 62
     5
 10
441.37569326952678
 20
273.26204547685961
 30
0.0
 11
441.42889422968659
 21
273.46987379914589
 31
0.0
  0
LINE
  5
1CF
  8
DETAIL
  6
CONTINUOUS
 62
     5
 10
441.31338462364022
 20
273.05337285213091
 30
0.0
 11
441.37569326952678
 21
273.26204547685961
 31
0.0
  0
LINE
  5
1D0
  8
DETAIL
  6
CONTINUOUS
 62
     5
 10
441.24348324793573
 20
272.8465841733389
 30
0.0
 11
441.31338462364022
 21
273.05337285213091
 31
0.0
  0
LINE
  5
1D1
  8
DETAIL
  6
CONTINUOUS
 62
     5
 10
441.16629881329442
 20
272.64079830181532
 30
0.0
 11
441.24348324793573
 21
272.8465841733389
 31
0.0
  0
LINE
  5
1D2
  8
DETAIL
  6
CONTINUOUS
 62
     5
 10
441.0826016436132
 20
272.43613688964967
 30
0.0
 11
441.16629881329442
 21
272.64079830181532
 31
0.0
  0
LINE
  5
1D3
  8
DETAIL
  6
CONTINUOUS
 62
     5
 10
440.99252473195281
 20
272.23231980593738
 30
0.0
 11
441.0826016436132
 21
272.43613688964967
 31
0.0
  0
LINE
  5
1D4
  8
DETAIL
  6
CONTINUOUS
 62
     5
 10
440.89653731753953
 20
272.02931313673679
 30
0.0
 11
440.99252473195281
 21
272.23231980593738
 31
0.0
  0
LINE
  5
1D5
  8
DETAIL
  6
CONTINUOUS
 62
     5
 10
440.79440098683273
 20
271.8264998812424
 30
0.0
 11
440.89653731753953
 21
272.02931313673679
 31
0.0
  0
LINE
  5
1D6
  8
DETAIL
  6
CONTINUOUS
 62
     5
 10
440.68602349019989
 20
271.62317319506468
 30
0.0
 11
440.79440098683273
 21
271.8264998812424
 31
0.0
  0
LINE
  5
1D7
  8
DETAIL
  6
CONTINUOUS
 62
     5
 10
440.57143557668809
 20
271.41956869250112
 30
0.0
 11
440.68602349019989
 21
271.62317319506468
 31
0.0
  0
LINE
  5
1D8
  8
DETAIL
  6
CONTINUOUS
 62
     5
 10
440.57143557668809
 20
271.41956869250112
 30
0.0
 11
439.99383085499528
 21
270.4191279675008
 31
0.0
  0
LINE
  5
1D9
  8
DETAIL
  6
CONTINUOUS
 62
     5
 10
439.41622613279333
 20
271.41956869250112
 30
0.0
 11
439.99383085499528
 21
270.4191279675008
 31
0.0
  0
LINE
  5
1DA
  8
DETAIL
  6
CONTINUOUS
 62
     5
 10
468.69833552425138
 20
275.41620125242741
 30
0.0
 11
468.58377587669918
 21
275.42133159250079
 31
0.0
  0
LINE
  5
1DB
  8
DETAIL
  6
CONTINUOUS
 62
     5
 10
468.8066853772018
 20
275.40059884708671
 30
0.0
 11
468.69833552425138
 21
275.41620125242741
 31
0.0
  0
LINE
  5
1DC
  8
DETAIL
  6
CONTINUOUS
 62
     5
 10
468.90879375959378
 20
275.37470653022228
 30
0.0
 11
468.8066853772018
 21
275.40059884708671
 31
0.0
  0
LINE
  5
1DD
  8
DETAIL
  6
CONTINUOUS
 62
     5
 10
469.00475570179123
 20
275.33797783810019
 30
0.0
 11
468.90879375959378
 21
275.37470653022228
 31
0.0
  0
LINE
  5
1DE
  8
DETAIL
  6
CONTINUOUS
 62
     5
 10
469.09481161069681
 20
275.29020970226321
 30
0.0
 11
469.00475570179123
 21
275.33797783810019
 31
0.0
  0
LINE
  5
1DF
  8
DETAIL
  6
CONTINUOUS
 62
     5
 10
469.17849368322749
 20
275.23055409212662
 30
0.0
 11
469.09481161069681
 21
275.29020970226321
 31
0.0
  0
LINE
  5
1E0
  8
DETAIL
  6
CONTINUOUS
 62
     5
 10
469.2556710772605
 20
275.15850007961149
 30
0.0
 11
469.17849368322749
 21
275.23055409212662
 31
0.0
  0
LINE
  5
1E1
  8
DETAIL
  6
CONTINUOUS
 62
     5
 10
469.32557330984997
 20
275.07283328774759
 30
0.0
 11
469.2556710772605
 21
275.15850007961149
 31
0.0
  0
LINE
  5
1E2
  8
DETAIL
  6
CONTINUOUS
 62
     5
 10
469.38789169101852
 20
274.97213503205921
 30
0.0
 11
469.32557330984997
 21
275.07283328774759
 31
0.0
  0
LINE
  5
1E3
  8
DETAIL
  6
CONTINUOUS
 62
     5
 10
469.44110999682619
 20
274.85650730648013
 30
0.0
 11
469.38789169101852
 21
274.97213503205921
 31
0.0
  0
LINE
  5
1E4
  8
DETAIL
  6
CONTINUOUS
 62
     5
 10
469.48388344785371
 20
274.72502447673702
 30
0.0
 11
469.44110999682619
 21
274.85650730648013
 31
0.0
  0
LINE
  5
1E5
  8
DETAIL
  6
CONTINUOUS
 62
     5
 10
469.51538902253111
 20
274.57935074296392
 30
0.0
 11
469.48388344785371
 21
274.72502447673702
 31
0.0
  0
LINE
  5
1E6
  8
DETAIL
  6
CONTINUOUS
 62
     5
 10
469.53431091520417
 20
274.42046359677443
 30
0.0
 11
469.51538902253111
 21
274.57935074296392
 31
0.0
  0
LINE
  5
1E7
  8
DETAIL
  6
CONTINUOUS
 62
     5
 10
469.54078270121482
 20
274.24949753244948
 30
0.0
 11
469.53431091520417
 21
274.42046359677443
 31
0.0
  0
LINE
  5
1E8
  8
DETAIL
  6
CONTINUOUS
 62
     5
 10
469.53434760736081
 20
274.06735063512252
 30
0.0
 11
469.54078270121482
 21
274.24949753244948
 31
0.0
  0
LINE
  5
1E9
  8
DETAIL
  6
CONTINUOUS
 62
     5
 10
469.51546087567129
 20
273.8757096288482
 30
0.0
 11
469.53434760736081
 21
274.06735063512252
 31
0.0
  0
LINE
  5
1EA
  8
DETAIL
  6
CONTINUOUS
 62
     5
 10
469.48398762823632
 20
273.6754757941668
 30
0.0
 11
469.51546087567129
 21
273.8757096288482
 31
0.0
  0
LINE
  5
1EB
  8
DETAIL
  6
CONTINUOUS
 62
     5
 10
469.441241458734
 20
273.46990354975259
 30
0.0
 11
469.48398762823632
 21
273.6754757941668
 31
0.0
  0
LINE
  5
1EC
  8
DETAIL
  6
CONTINUOUS
 62
     5
 10
469.38804297465481
 20
273.26207931826781
 30
0.0
 11
469.441241458734
 21
273.46990354975259
 31
0.0
  0
LINE
  5
1ED
  8
DETAIL
  6
CONTINUOUS
 62
     5
 10
469.32573625763769
 20
273.05340836777651
 30
0.0
 11
469.38804297465481
 21
273.26207931826781
 31
0.0
  0
LINE
  5
1EE
  8
DETAIL
  6
CONTINUOUS
 62
     5
 10
469.2558356497575
 20
272.84661817781961
 30
0.0
 11
469.32573625763769
 21
273.05340836777651
 31
0.0
  0
LINE
  5
1EF
  8
DETAIL
  6
CONTINUOUS
 62
     5
 10
469.17865097603232
 20
272.64082853763489
 30
0.0
 11
469.2558356497575
 21
272.84661817781961
 31
0.0
  0
LINE
  5
1F0
  8
DETAIL
  6
CONTINUOUS
 62
     5
 10
469.09495234220162
 20
272.43616141595481
 30
0.0
 11
469.17865097603232
 21
272.64082853763489
 31
0.0
  0
LINE
  5
1F1
  8
DETAIL
  6
CONTINUOUS
 62
     5
 10
469.00487324508163
 20
272.23233775534442
 30
0.0
 11
469.09495234220162
 21
272.43616141595481
 31
0.0
  0
LINE
  5
1F2
  8
DETAIL
  6
CONTINUOUS
 62
     5
 10
468.90888316649392
 20
272.02932456627252
 30
0.0
 11
469.00487324508163
 21
272.23233775534442
 31
0.0
  0
LINE
  5
1F3
  8
DETAIL
  6
CONTINUOUS
 62
     5
 10
468.80674425614171
 20
271.82650560976498
 30
0.0
 11
468.90888316649392
 21
272.02932456627252
 31
0.0
  0
LINE
  5
1F4
  8
DETAIL
  6
CONTINUOUS
 62
     5
 10
468.69836499023592
 20
271.62317524796867
 30
0.0
 11
468.80674425614171
 21
271.82650560976498
 31
0.0
  0
LINE
  5
1F5
  8
DETAIL
  6
CONTINUOUS
 62
     5
 10
468.58377587669918
 20
271.41956869250112
 30
0.0
 11
468.69836499023592
 21
271.62317524796867
 31
0.0
  0
LINE
  5
1F6
  8
DETAIL
  6
CONTINUOUS
 62
     5
 10
468.58377587669918
 20
271.41956869250112
 30
0.0
 11
468.00617115500631
 21
270.4191279675008
 31
0.0
  0
LINE
  5
1F7
  8
DETAIL
  6
CONTINUOUS
 62
     5
 10
467.4285664328039
 20
271.41956869250112
 30
0.0
 11
468.00617115500631
 21
270.4191279675008
 31
0.0
  0
LINE
  5
1F8
  8
DETAIL
  6
CONTINUOUS
 62
     5
 10
439.30166769527438
 20
275.4162012269162
 30
0.0
 11
439.41622613279333
 21
275.42133159250079
 31
0.0
  0
LINE
  5
1F9
  8
DETAIL
  6
CONTINUOUS
 62
     5
 10
439.19331962111522
 20
275.40059943584612
 30
0.0
 11
439.30166769527438
 21
275.4162012269162
 31
0.0
  0
LINE
  5
1FA
  8
DETAIL
  6
CONTINUOUS
 62
     5
 10
439.0912138298508
 20
275.3747083570272
 30
0.0
 11
439.19331962111522
 21
275.40059943584612
 31
0.0
  0
LINE
  5
1FB
  8
DETAIL
  6
CONTINUOUS
 62
     5
 10
438.99525456334698
 20
275.33798157874799
 30
0.0
 11
439.0912138298508
 21
275.3747083570272
 31
0.0
  0
LINE
  5
1FC
  8
DETAIL
  6
CONTINUOUS
 62
     5
 10
438.90520084940079
 20
275.29021624664688
 30
0.0
 11
438.99525456334698
 21
275.33798157874799
 31
0.0
  0
LINE
  5
1FD
  8
DETAIL
  6
CONTINUOUS
 62
     5
 10
438.82152024900802
 20
275.23056382541472
 30
0.0
 11
438.90520084940079
 21
275.29021624664688
 31
0.0
  0
LINE
  5
1FE
  8
DETAIL
  6
CONTINUOUS
 62
     5
 10
438.74434309859072
 20
275.15851318438422
 30
0.0
 11
438.82152024900802
 21
275.23056382541472
 31
0.0
  0
LINE
  5
1FF
  8
DETAIL
  6
CONTINUOUS
 62
     5
 10
438.67444009966852
 20
275.07284925378121
 30
0.0
 11
438.74434309859072
 21
275.15851318438422
 31
0.0
  0
LINE
  5
200
  8
DETAIL
  6
CONTINUOUS
 62
     5
 10
438.61211978615501
 20
274.97215268533591
 30
0.0
 11
438.67444009966852
 21
275.07284925378121
 31
0.0
  0
LINE
  5
201
  8
DETAIL
  6
CONTINUOUS
 62
     5
 10
438.55889899625981
 20
274.85652517985392
 30
0.0
 11
438.61211978615501
 21
274.97215268533591
 31
0.0
  0
LINE
  5
202
  8
DETAIL
  6
CONTINUOUS
 62
     5
 10
438.51612292957373
 20
274.72504048278802
 30
0.0
 11
438.55889899625981
 21
274.85652517985392
 31
0.0
  0
LINE
  5
203
  8
DETAIL
  6
CONTINUOUS
 62
     5
 10
438.48461503488159
 20
274.57936310991181
 30
0.0
 11
438.51612292957373
 21
274.72504048278802
 31
0.0
  0
LINE
  5
204
  8
DETAIL
  6
CONTINUOUS
 62
     5
 10
438.46569168355433
 20
274.42047046980252
 30
0.0
 11
438.48461503488159
 21
274.57936310991181
 31
0.0
  0
LINE
  5
205
  8
DETAIL
  6
CONTINUOUS
 62
     5
 10
438.45921930827728
 20
274.24949762649038
 30
0.0
 11
438.46569168355433
 21
274.42047046980252
 31
0.0
  0
LINE
  5
206
  8
DETAIL
  6
CONTINUOUS
 62
     5
 10
438.46565497638471
 20
274.06734294223401
 30
0.0
 11
438.45921930827728
 21
274.24949762649038
 31
0.0
  0
LINE
  5
207
  8
DETAIL
  6
CONTINUOUS
 62
     5
 10
438.48454315171472
 20
273.87569392743029
 30
0.0
 11
438.46565497638471
 21
274.06734294223401
 31
0.0
  0
LINE
  5
208
  8
DETAIL
  6
CONTINUOUS
 62
     5
 10
438.51601870566191
 20
273.67545244137932
 30
0.0
 11
438.48454315171472
 21
273.87569392743029
 31
0.0
  0
LINE
  5
209
  8
DETAIL
  6
CONTINUOUS
 62
     5
 10
438.55876747981267
 20
273.46987379914589
 30
0.0
 11
438.51601870566191
 21
273.67545244137932
 31
0.0
  0
LINE
  5
20A
  8
DETAIL
  6
CONTINUOUS
 62
     5
 10
438.61196844048231
 20
273.26204547685961
 30
0.0
 11
438.55876747981267
 21
273.46987379914589
 31
0.0
  0
LINE
  5
20B
  8
DETAIL
  6
CONTINUOUS
 62
     5
 10
438.6742770863691
 20
273.05337285213091
 30
0.0
 11
438.61196844048231
 21
273.26204547685961
 31
0.0
  0
LINE
  5
20C
  8
DETAIL
  6
CONTINUOUS
 62
     5
 10
438.74417846156388
 20
272.8465841733389
 30
0.0
 11
438.6742770863691
 21
273.05337285213091
 31
0.0
  0
LINE
  5
20D
  8
DETAIL
  6
CONTINUOUS
 62
     5
 10
438.82136289620479
 20
272.64079830181532
 30
0.0
 11
438.74417846156388
 21
272.8465841733389
 31
0.0
  0
LINE
  5
20E
  8
DETAIL
  6
CONTINUOUS
 62
     5
 10
438.90506006637793
 20
272.43613688964967
 30
0.0
 11
438.82136289620479
 21
272.64079830181532
 31
0.0
  0
LINE
  5
20F
  8
DETAIL
  6
CONTINUOUS
 62
     5
 10
438.99513697803792
 20
272.23231980593738
 30
0.0
 11
438.90506006637793
 21
272.43613688964967
 31
0.0
  0
LINE
  5
210
  8
DETAIL
  6
CONTINUOUS
 62
     5
 10
439.09112439245132
 20
272.02931313673679
 30
0.0
 11
438.99513697803792
 21
272.23231980593738
 31
0.0
  0
LINE
  5
211
  8
DETAIL
  6
CONTINUOUS
 62
     5
 10
439.19326072266688
 20
271.8264998812424
 30
0.0
 11
439.09112439245132
 21
272.02931313673679
 31
0.0
  0
LINE
  5
212
  8
DETAIL
  6
CONTINUOUS
 62
     5
 10
439.3016382197909
 20
271.62317319506468
 30
0.0
 11
439.19326072266688
 21
271.8264998812424
 31
0.0
  0
LINE
  5
213
  8
DETAIL
  6
CONTINUOUS
 62
     5
 10
439.41622613279333
 20
271.41956869250112
 30
0.0
 11
439.3016382197909
 21
271.62317319506468
 31
0.0
  0
LINE
  5
214
  8
DETAIL
  6
CONTINUOUS
 62
     5
 10
467.31400678574312
 20
275.41620125242741
 30
0.0
 11
467.4285664328039
 21
275.42133159250079
 31
0.0
  0
LINE
  5
215
  8
DETAIL
  6
CONTINUOUS
 62
     5
 10
467.20565693228281
 20
275.40059884708671
 30
0.0
 11
467.31400678574312
 21
275.41620125242741
 31
0.0
  0
LINE
  5
216
  8
DETAIL
  6
CONTINUOUS
 62
     5
 10
467.10354855040038
 20
275.37470653022228
 30
0.0
 11
467.20565693228281
 21
275.40059884708671
 31
0.0
  0
LINE
  5
217
  8
DETAIL
  6
CONTINUOUS
 62
     5
 10
467.00758660820333
 20
275.33797783810019
 30
0.0
 11
467.10354855040038
 21
275.37470653022228
 31
0.0
  0
LINE
  5
218
  8
DETAIL
  6
CONTINUOUS
 62
     5
 10
466.9175306988065
 20
275.29020970226321
 30
0.0
 11
467.00758660820333
 21
275.33797783810019
 31
0.0
  0
LINE
  5
219
  8
DETAIL
  6
CONTINUOUS
 62
     5
 10
466.83384862676701
 20
275.23055409212662
 30
0.0
 11
466.9175306988065
 21
275.29020970226321
 31
0.0
  0
LINE
  5
21A
  8
DETAIL
  6
CONTINUOUS
 62
     5
 10
466.7566712322423
 20
275.15850007961149
 30
0.0
 11
466.83384862676701
 21
275.23055409212662
 31
0.0
  0
LINE
  5
21B
  8
DETAIL
  6
CONTINUOUS
 62
     5
 10
466.68676899965283
 20
275.07283328774759
 30
0.0
 11
466.7566712322423
 21
275.15850007961149
 31
0.0
  0
LINE
  5
21C
  8
DETAIL
  6
CONTINUOUS
 62
     5
 10
466.62445061848427
 20
274.97213503205921
 30
0.0
 11
466.68676899965283
 21
275.07283328774759
 31
0.0
  0
LINE
  5
21D
  8
DETAIL
  6
CONTINUOUS
 62
     5
 10
466.57123231267678
 20
274.85650730648013
 30
0.0
 11
466.62445061848427
 21
274.97213503205921
 31
0.0
  0
LINE
  5
21E
  8
DETAIL
  6
CONTINUOUS
 62
     5
 10
466.5284588616496
 20
274.72502447673702
 30
0.0
 11
466.57123231267678
 21
274.85650730648013
 31
0.0
  0
LINE
  5
21F
  8
DETAIL
  6
CONTINUOUS
 62
     5
 10
466.49695328697248
 20
274.57935074296392
 30
0.0
 11
466.5284588616496
 21
274.72502447673702
 31
0.0
  0
LINE
  5
220
  8
DETAIL
  6
CONTINUOUS
 62
     5
 10
466.4780313942988
 20
274.42046359677443
 30
0.0
 11
466.49695328697248
 21
274.57935074296392
 31
0.0
  0
LINE
  5
221
  8
DETAIL
  6
CONTINUOUS
 62
     5
 10
466.47155960826967
 20
274.24949753244948
 30
0.0
 11
466.4780313942988
 21
274.42046359677443
 31
0.0
  0
LINE
  5
222
  8
DETAIL
  6
CONTINUOUS
 62
     5
 10
466.47799470263391
 20
274.06735063512252
 30
0.0
 11
466.47155960826967
 21
274.24949753244948
 31
0.0
  0
LINE
  5
223
  8
DETAIL
  6
CONTINUOUS
 62
     5
 10
466.49688143381343
 20
273.8757096288482
 30
0.0
 11
466.47799470263391
 21
274.06735063512252
 31
0.0
  0
LINE
  5
224
  8
DETAIL
  6
CONTINUOUS
 62
     5
 10
466.52835468175851
 20
273.6754757941668
 30
0.0
 11
466.49688143381343
 21
273.8757096288482
 31
0.0
  0
LINE
  5
225
  8
DETAIL
  6
CONTINUOUS
 62
     5
 10
466.57110085126061
 20
273.46990354975259
 30
0.0
 11
466.52835468175851
 21
273.6754757941668
 31
0.0
  0
LINE
  5
226
  8
DETAIL
  6
CONTINUOUS
 62
     5
 10
466.62429933483031
 20
273.26207931826781
 30
0.0
 11
466.57110085126061
 21
273.46990354975259
 31
0.0
  0
LINE
  5
227
  8
DETAIL
  6
CONTINUOUS
 62
     5
 10
466.68660605186562
 20
273.05340836777651
 30
0.0
 11
466.62429933483031
 21
273.26207931826781
 31
0.0
  0
LINE
  5
228
  8
DETAIL
  6
CONTINUOUS
 62
     5
 10
466.7565066597457
 20
272.84661817781961
 30
0.0
 11
466.68660605186562
 21
273.05340836777651
 31
0.0
  0
LINE
  5
229
  8
DETAIL
  6
CONTINUOUS
 62
     5
 10
466.83369133396212
 20
272.64082853763489
 30
0.0
 11
466.7565066597457
 21
272.84661817781961
 31
0.0
  0
LINE
  5
22A
  8
DETAIL
  6
CONTINUOUS
 62
     5
 10
466.91738996779321
 20
272.43616141595481
 30
0.0
 11
466.83369133396212
 21
272.64082853763489
 31
0.0
  0
LINE
  5
22B
  8
DETAIL
  6
CONTINUOUS
 62
     5
 10
467.00746906442191
 20
272.23233775534442
 30
0.0
 11
466.91738996779321
 21
272.43616141595481
 31
0.0
  0
LINE
  5
22C
  8
DETAIL
  6
CONTINUOUS
 62
     5
 10
467.10345914351922
 20
272.02932456627252
 30
0.0
 11
467.00746906442191
 21
272.23233775534442
 31
0.0
  0
LINE
  5
22D
  8
DETAIL
  6
CONTINUOUS
 62
     5
 10
467.20559805336109
 20
271.82650560976498
 30
0.0
 11
467.10345914351922
 21
272.02932456627252
 31
0.0
  0
LINE
  5
22E
  8
DETAIL
  6
CONTINUOUS
 62
     5
 10
467.31397731926751
 20
271.62317524796867
 30
0.0
 11
467.20559805336109
 21
271.82650560976498
 31
0.0
  0
LINE
  5
22F
  8
DETAIL
  6
CONTINUOUS
 62
     5
 10
467.4285664328039
 20
271.41956869250112
 30
0.0
 11
467.31397731926751
 21
271.62317524796867
 31
0.0
  0
LINE
  5
230
  8
DETAIL
  6
CONTINUOUS
 62
     5
 10
411.08109390250121
 20
271.41956869250112
 30
0.0
 11
411.08109390250121
 21
273.42045014250061
 31
0.0
  0
LINE
  5
231
  8
DETAIL
  6
CONTINUOUS
 62
     5
 10
417.0837382525051
 20
271.41956869250112
 30
0.0
 11
417.0837382525051
 21
275.42133159250079
 31
0.0
  0
LINE
  5
232
  8
DETAIL
  6
CONTINUOUS
 62
     5
 10
439.99383085499528
 20
270.4191279675008
 30
0.0
 11
439.99383085499528
 21
275.42133159250079
 31
0.0
  0
LINE
  5
233
  8
DETAIL
  6
CONTINUOUS
 62
     5
 10
468.00617115500631
 20
270.4191279675008
 30
0.0
 11
468.00617115500631
 21
275.42133159250079
 31
0.0
  0
LINE
  5
234
  8
DETAIL
  6
CONTINUOUS
 62
     5
 10
474.00881550499167
 20
257.3128491844061
 30
0.0
 11
474.00881550499167
 21
275.42133159250079
 31
0.0
  0
LINE
  5
235
  8
DETAIL
  6
CONTINUOUS
 62
     5
 10
285.12560662499982
 20
124.9550465525012
 30
0.0
 11
284.52534219000518
 21
124.9550465525012
 31
0.0
  0
LINE
  5
236
  8
DETAIL
  6
CONTINUOUS
 62
     5
 10
-289.40760305453051
 20
124.9550465525012
 30
0.0
 11
-405.97884620499929
 21
124.9550465525012
 31
0.0
  0
LINE
  5
237
  8
DETAIL
  6
CONTINUOUS
 62
     5
 10
-284.52534219000518
 20
124.9550465525012
 30
0.0
 11
-285.12560662499999
 21
124.9550465525012
 31
0.0
  0
LINE
  5
238
  8
DETAIL
  6
CONTINUOUS
 62
     5
 10
-406.57911063999433
 20
390.27192682250092
 30
0.0
 11
-407.17937507500739
 21
390.27192682250092
 31
0.0
  0
LINE
  5
239
  8
DETAIL
  6
CONTINUOUS
 62
     5
 10
-406.57911063999433
 20
392.27280827250053
 30
0.0
 11
-407.17937507500739
 21
392.27280827250053
 31
0.0
  0
LINE
  5
23A
  8
DETAIL
  6
CONTINUOUS
 62
     5
 10
-407.17937507500739
 20
392.27280827250053
 30
0.0
 11
-407.17937507500739
 21
271.41956869250112
 31
0.0
  0
LINE
  5
23B
  8
DETAIL
  6
CONTINUOUS
 62
     5
 10
-406.57911063999433
 20
271.41956869250112
 30
0.0
 11
-406.57911063999433
 21
392.27280827250053
 31
0.0
  0
LINE
  5
23C
  8
DETAIL
  6
CONTINUOUS
 62
     5
 10
-407.17937507500739
 20
226.29969199500101
 30
0.0
 11
-407.17937507500739
 21
126.15557542250011
 31
0.0
  0
LINE
  5
23D
  8
DETAIL
  6
CONTINUOUS
 62
     5
 10
-406.57911063999433
 20
126.15557542250011
 30
0.0
 11
-406.57911063999433
 21
226.29969199500101
 31
0.0
  0
ARC
  5
23E
  8
DETAIL
  6
CONTINUOUS
 62
     5
 10
-405.97884620499929
 20
126.15557542250011
 30
0.0
 40
0.6002644349994597
 50
180.0
 51
270.0
  0
ARC
  5
23F
  8
DETAIL
  6
CONTINUOUS
 62
     5
 10
-405.97884620499929
 20
126.15557542250011
 30
0.0
 40
1.200528869998899
 50
180.0
 51
270.0
  0
LINE
  5
240
  8
DETAIL
  6
CONTINUOUS
 62
     5
 10
-405.97884620499929
 20
137.96077597750059
 30
0.0
 11
-403.97796475499217
 21
139.96165742750119
 31
0.0
  0
LINE
  5
241
  8
DETAIL
  6
CONTINUOUS
 62
     5
 10
-405.97884620499929
 20
124.9550465525012
 30
0.0
 11
-405.97884620499929
 21
137.96077597750059
 31
0.0
  0
LINE
  5
242
  8
DETAIL
  6
CONTINUOUS
 62
     5
 10
-272.52005348999768
 20
139.96165742750119
 30
0.0
 11
-270.5191720400087
 21
137.96077597750059
 31
0.0
  0
LINE
  5
243
  8
DETAIL
  6
CONTINUOUS
 62
     5
 10
-270.5191720400087
 20
137.96077597750059
 30
0.0
 11
-270.5191720400087
 21
125.0550906250014
 31
0.0
  0
LINE
  5
244
  8
DETAIL
  6
CONTINUOUS
 62
     5
 10
-403.97796475499217
 20
139.96165742750119
 30
0.0
 11
-272.52005348999768
 21
139.96165742750119
 31
0.0
  0
LINE
  5
245
  8
DETAIL
  6
CONTINUOUS
 62
     5
 10
405.97884620499917
 20
124.9550465525012
 30
0.0
 11
289.40707589661372
 21
124.9550465525012
 31
0.0
  0
LINE
  5
246
  8
DETAIL
  6
CONTINUOUS
 62
     5
 10
173.67650986000581
 20
125.0550906250014
 30
0.0
 11
173.67650986000581
 21
137.96077597750059
 31
0.0
  0
LINE
  5
247
  8
DETAIL
  6
CONTINUOUS
 62
     5
 10
173.67650986000581
 20
137.96077597750059
 30
0.0
 11
175.67739130999479
 21
139.96165742750119
 31
0.0
  0
LINE
  5
248
  8
DETAIL
  6
CONTINUOUS
 62
     5
 10
406.57911063999398
 20
271.41956869250112
 30
0.0
 11
406.57911063999398
 21
392.17276420000047
 31
0.0
  0
LINE
  5
249
  8
DETAIL
  6
CONTINUOUS
 62
     5
 10
407.17937507500682
 20
390.27192682250092
 30
0.0
 11
406.57911063999398
 21
390.27192682250092
 31
0.0
  0
LINE
  5
24A
  8
DETAIL
  6
CONTINUOUS
 62
     5
 10
407.17937507500682
 20
392.27280827250053
 30
0.0
 11
406.57911063999398
 21
392.27280827250053
 31
0.0
  0
LINE
  5
24B
  8
DETAIL
  6
CONTINUOUS
 62
     5
 10
407.17937507500682
 20
271.41956869250112
 30
0.0
 11
407.17937507500682
 21
392.27280827250053
 31
0.0
  0
LINE
  5
24C
  8
DETAIL
  6
CONTINUOUS
 62
     5
 10
406.57911063999398
 20
226.29969199500101
 30
0.0
 11
406.57911063999398
 21
126.15557542250011
 31
0.0
  0
LINE
  5
24D
  8
DETAIL
  6
CONTINUOUS
 62
     5
 10
407.17937507500682
 20
126.15557542250011
 30
0.0
 11
407.17937507500682
 21
226.29969199500101
 31
0.0
  0
ARC
  5
24E
  8
DETAIL
  6
CONTINUOUS
 62
     5
 10
405.97884620499917
 20
126.15557542250011
 30
0.0
 40
1.200528870008003
 50
270.0
 51
0.000000000000007
  0
ARC
  5
24F
  8
DETAIL
  6
CONTINUOUS
 62
     5
 10
405.97884620499917
 20
126.15557542250011
 30
0.0
 40
0.6002644349948977
 50
270.0
 51
0.000000000000007
  0
LINE
  5
250
  8
DETAIL
  6
CONTINUOUS
 62
     5
 10
405.97884620499917
 20
137.96077597750059
 30
0.0
 11
405.97884620499917
 21
124.9550465525012
 31
0.0
  0
LINE
  5
251
  8
DETAIL
  6
CONTINUOUS
 62
     5
 10
175.67739130999479
 20
139.96165742750119
 30
0.0
 11
403.97796475499177
 21
139.96165742750119
 31
0.0
  0
LINE
  5
252
  8
DETAIL
  6
CONTINUOUS
 62
     5
 10
403.97796475499177
 20
139.96165742750119
 30
0.0
 11
405.97884620499917
 21
137.96077597750059
 31
0.0
  0
LINE
  5
253
  8
DETAIL
  6
CONTINUOUS
 62
     5
 10
272.62009756250001
 20
124.45482618999949
 30
0.0
 11
266.61745321249617
 21
124.45482618999949
 31
0.0
  0
LINE
  5
254
  8
DETAIL
  6
CONTINUOUS
 62
     5
 10
284.52534219000518
 20
125.05509062499981
 30
0.0
 11
284.52534219000518
 21
123.85456175499981
 31
0.0
  0
LINE
  5
255
  8
DETAIL
  6
CONTINUOUS
 62
     5
 10
289.52754581500528
 20
123.85456175499981
 30
0.0
 11
284.52534219000518
 21
123.85456175499981
 31
0.0
  0
LINE
  5
256
  8
DETAIL
  6
CONTINUOUS
 62
     5
 10
285.12560662499982
 20
125.05509062499981
 30
0.0
 11
285.12560662499982
 21
124.45482618999949
 31
0.0
  0
LINE
  5
257
  8
DETAIL
  6
CONTINUOUS
 62
     5
 10
288.92728137999188
 20
125.05509062499981
 30
0.0
 11
285.12560662499982
 21
125.05509062499981
 31
0.0
  0
LINE
  5
258
  8
DETAIL
  6
CONTINUOUS
 62
     5
 10
290.10141313225517
 20
124.10492987788071
 30
0.0
 11
290.12033243178121
 21
123.9827907888443
 31
0.0
  0
LINE
  5
259
  8
DETAIL
  6
CONTINUOUS
 62
     5
 10
290.12033243178121
 20
123.9827907888443
 30
0.0
 11
290.12781024999981
 21
123.85456175499981
 31
0.0
  0
LINE
  5
25A
  8
DETAIL
  6
CONTINUOUS
 62
     5
 10
286.98478486385687
 20
123.85456175499981
 30
0.0
 11
286.38452042886212
 21
124.45482618999949
 31
0.0
  0
LINE
  5
25B
  8
DETAIL
  6
CONTINUOUS
 62
     5
 10
290.02925008620582
 20
124.3309382220277
 30
0.0
 11
290.07057224738838
 21
124.2210694394407
 31
0.0
  0
LINE
  5
25C
  8
DETAIL
  6
CONTINUOUS
 62
     5
 10
290.07057224738838
 20
124.2210694394407
 30
0.0
 11
290.10141313225517
 21
124.10492987788071
 31
0.0
  0
LINE
  5
25D
  8
DETAIL
  6
CONTINUOUS
 62
     5
 10
289.51026776197682
 20
123.9975452176259
 30
0.0
 11
289.52261833729608
 21
123.9280252159206
 31
0.0
  0
LINE
  5
25E
  8
DETAIL
  6
CONTINUOUS
 62
     5
 10
289.52261833729608
 20
123.9280252159206
 30
0.0
 11
289.52754581500528
 21
123.85456175499981
 31
0.0
  0
LINE
  5
25F
  8
DETAIL
  6
CONTINUOUS
 62
     5
 10
289.52754581500528
 20
123.85456175499981
 30
0.0
 11
290.12781024999981
 21
123.85456175499981
 31
0.0
  0
ARC
  5
260
  8
DETAIL
  6
CONTINUOUS
 62
     5
 10
288.92728137999188
 20
123.85456175499981
 30
0.0
 40
1.20052887000004
 50
0.000000000000007
 51
90.0
  0
ARC
  5
261
  8
DETAIL
  6
CONTINUOUS
 62
     5
 10
288.92728137999188
 20
123.85456175499981
 30
0.0
 40
0.6002644349994597
 50
0.000000000000007
 51
90.0
  0
LINE
  5
262
  8
DETAIL
  6
CONTINUOUS
 62
     5
 10
288.92728137999188
 20
124.45482618999949
 30
0.0
 11
284.52534219000518
 21
124.45482618999949
 31
0.0
  0
LINE
  5
263
  8
DETAIL
  6
CONTINUOUS
 62
     5
 10
288.92728137999188
 20
60.0264434999999
 30
0.0
 11
288.92728137999188
 21
123.85456175499981
 31
0.0
  0
LINE
  5
264
  8
DETAIL
  6
CONTINUOUS
 62
     5
 10
290.12781024999981
 20
61.427060514999987
 30
0.0
 11
290.12781024999981
 21
123.85456175499981
 31
0.0
  0
LINE
  5
265
  8
DETAIL
  6
CONTINUOUS
 62
     5
 10
289.52754581500528
 20
61.427060514999987
 30
0.0
 11
289.52754581500528
 21
123.85456175499981
 31
0.0
  0
LINE
  5
266
  8
DETAIL
  6
CONTINUOUS
 62
     5
 10
284.52534219000518
 20
125.05509062499981
 30
0.0
 11
-266.61745321249651
 21
125.05509062499981
 31
0.0
  0
LINE
  5
267
  8
DETAIL
  6
CONTINUOUS
 62
     5
 10
-272.62009756250018
 20
124.45482618999949
 30
0.0
 11
-266.61745321249651
 21
124.45482618999949
 31
0.0
  0
LINE
  5
268
  8
DETAIL
  6
CONTINUOUS
 62
     5
 10
-266.61745321249651
 20
125.05509062499981
 30
0.0
 11
-284.52534219000518
 21
125.05509062499981
 31
0.0
  0
LINE
  5
269
  8
DETAIL
  6
CONTINUOUS
 62
     5
 10
-284.52534219000518
 20
125.05509062499981
 30
0.0
 11
-284.52534219000518
 21
123.85456175499981
 31
0.0
  0
LINE
  5
26A
  8
DETAIL
  6
CONTINUOUS
 62
     5
 10
-284.52534219000518
 20
123.85456175499981
 30
0.0
 11
-290.12781024999998
 21
123.85456175499981
 31
0.0
  0
LINE
  5
26B
  8
DETAIL
  6
CONTINUOUS
 62
     5
 10
-288.9272813800103
 20
124.45482618999949
 30
0.0
 11
-284.52534219000518
 21
124.45482618999949
 31
0.0
  0
ARC
  5
26C
  8
DETAIL
  6
CONTINUOUS
 62
     5
 10
-288.9272813800103
 20
123.85456175499981
 30
0.0
 40
0.6002644349948977
 50
90.0
 51
180.0
  0
LINE
  5
26D
  8
DETAIL
  6
CONTINUOUS
 62
     5
 10
-286.98478486385739
 20
123.85456175499981
 30
0.0
 11
-286.38452042886229
 21
124.45482618999949
 31
0.0
  0
LINE
  5
26E
  8
DETAIL
  6
CONTINUOUS
 62
     5
 10
-288.9272813800103
 20
60.0264434999999
 30
0.0
 11
-288.9272813800103
 21
123.85456175499981
 31
0.0
  0
LINE
  5
26F
  8
DETAIL
  6
CONTINUOUS
 62
     5
 10
-289.52754581500528
 20
61.427060514999987
 30
0.0
 11
-289.52754581500528
 21
123.85456175499981
 31
0.0
  0
LINE
  5
270
  8
DETAIL
  6
CONTINUOUS
 62
     5
 10
-290.12781024999998
 20
61.427060514999987
 30
0.0
 11
-290.12781024999998
 21
123.85456175499981
 31
0.0
  0
ARC
  5
271
  8
DETAIL
  6
CONTINUOUS
 62
     5
 10
-288.9272813800103
 20
123.85456175499981
 30
0.0
 40
1.200528869989814
 50
90.0
 51
180.0
  0
LINE
  5
272
  8
DETAIL
  6
CONTINUOUS
 62
     5
 10
-285.12560662499999
 20
124.45482618999949
 30
0.0
 11
-285.12560662499999
 21
125.05509062499981
 31
0.0
  0
LINE
  5
273
  8
DETAIL
  6
CONTINUOUS
 62
     5
 10
-285.12560662499999
 20
125.05509062499981
 30
0.0
 11
-288.9272813800103
 21
125.05509062499981
 31
0.0
  0
LINE
  5
274
  8
DETAIL
  6
CONTINUOUS
 62
     5
 10
-325.1432356250001
 20
-3.001322175000722
 30
0.0
 11
-310.13662475000001
 21
-6.0026443500004243
 31
0.0
  0
LINE
  5
275
  8
DETAIL
  6
CONTINUOUS
 62
     5
 10
-334.14720214999647
 20
-40.017629000000063
 30
0.0
 11
-335.14764287500009
 21
-40.017629000000063
 31
0.0
  0
LINE
  5
276
  8
DETAIL
  6
CONTINUOUS
 62
     5
 10
-310.13662475000001
 20
-35.015425375000063
 30
0.0
 11
-307.63552293750013
 21
-35.015425375000063
 31
0.0
  0
LINE
  5
277
  8
DETAIL
  6
CONTINUOUS
 62
     5
 10
-310.13662475000001
 20
-6.0026443500004243
 30
0.0
 11
-307.63552293750013
 21
-6.0026443500004243
 31
0.0
  0
LINE
  5
278
  8
DETAIL
  6
CONTINUOUS
 62
     5
 10
-325.1432356250001
 20
-0.5002203625007269
 30
0.0
 11
-324.64301526250739
 21
-0.5002203625007269
 31
0.0
  0
LINE
  5
279
  8
DETAIL
  6
CONTINUOUS
 62
     5
 10
-284.12516589999649
 20
56.630835080246229
 30
0.0
 11
-261.11502922500358
 21
56.630835080246229
 31
0.0
  0
LINE
  5
27A
  8
DETAIL
  6
CONTINUOUS
 62
     5
 10
-261.11502922500358
 20
57.231099515246569
 30
0.0
 11
-284.12516589999649
 21
57.231099515246569
 31
0.0
  0
LINE
  5
27B
  8
DETAIL
  6
CONTINUOUS
 62
     5
 10
-271.61965683749639
 20
59.450453827781082
 30
0.0
 11
-267.61789393750013
 21
59.450453827781082
 31
0.0
  0
LINE
  5
27C
  8
DETAIL
  6
CONTINUOUS
 62
     5
 10
-259.91450035499588
 20
60.0264434999999
 30
0.0
 11
-257.91361890500662
 21
60.0264434999999
 31
0.0
  0
LINE
  5
27D
  8
DETAIL
  6
CONTINUOUS
 62
     5
 10
-286.24499659031682
 20
60.0264434999999
 30
0.0
 11
-289.52754581500528
 21
60.0264434999999
 31
0.0
  0
LINE
  5
27E
  8
DETAIL
  6
CONTINUOUS
 62
     5
 10
-257.91361890500662
 20
60.626707935000461
 30
0.0
 11
-259.91450035499588
 21
60.626707935000461
 31
0.0
  0
LINE
  5
27F
  8
DETAIL
  6
CONTINUOUS
 62
     5
 10
-290.92816282999928
 20
60.626707935000461
 30
0.0
 11
-299.03173270249431
 21
60.626707935000461
 31
0.0
  0
LINE
  5
280
  8
DETAIL
  6
CONTINUOUS
 62
     5
 10
-296.83076310750079
 20
61.727192732500733
 30
0.0
 11
-292.42882391749561
 21
61.727192732500733
 31
0.0
  0
LINE
  5
281
  8
DETAIL
  6
CONTINUOUS
 62
     5
 10
-266.61745321249651
 20
63.027765674999607
 30
0.0
 11
-272.62009756250018
 21
63.027765674999607
 31
0.0
  0
LINE
  5
282
  8
DETAIL
  6
CONTINUOUS
 62
     5
 10
-299.03173270249431
 20
60.0264434999999
 30
0.0
 11
-290.9200600169645
 21
60.026466938324347
 31
0.0
  0
LINE
  5
283
  8
DETAIL
  6
CONTINUOUS
 62
     5
 10
-290.9200600169645
 20
60.626748953068599
 30
0.0
 11
-290.92816282999928
 21
60.626707935000461
 31
0.0
  0
LINE
  5
284
  8
DETAIL
  6
CONTINUOUS
 62
     5
 10
-267.61789393750013
 20
59.450453827781082
 30
0.0
 11
-267.51107572677779
 21
59.454533180361508
 31
0.0
  0
LINE
  5
285
  8
DETAIL
  6
CONTINUOUS
 62
     5
 10
-267.51107572677779
 20
59.454533180361508
 30
0.0
 11
-267.40665174129288
 21
59.466403384553132
 31
0.0
  0
LINE
  5
286
  8
DETAIL
  6
CONTINUOUS
 62
     5
 10
-267.40665174129288
 20
59.466403384553132
 30
0.0
 11
-267.30405697212967
 21
59.486197408431607
 31
0.0
  0
LINE
  5
287
  8
DETAIL
  6
CONTINUOUS
 62
     5
 10
-267.30405697212967
 20
59.486197408431607
 30
0.0
 11
-267.20498644550747
 21
59.513516350267992
 31
0.0
  0
LINE
  5
288
  8
DETAIL
  6
CONTINUOUS
 62
     5
 10
-267.20498644550747
 20
59.513516350267992
 30
0.0
 11
-267.11061935689168
 21
59.548176396587102
 31
0.0
  0
LINE
  5
289
  8
DETAIL
  6
CONTINUOUS
 62
     5
 10
-267.11061935689168
 20
59.548176396587102
 30
0.0
 11
-267.02193818811912
 21
59.589665248706851
 31
0.0
  0
LINE
  5
28A
  8
DETAIL
  6
CONTINUOUS
 62
     5
 10
-267.02193818811912
 20
59.589665248706851
 30
0.0
 11
-266.94005129841338
 21
59.637624456718179
 31
0.0
  0
LINE
  5
28B
  8
DETAIL
  6
CONTINUOUS
 62
     5
 10
-266.94005129841338
 20
59.637624456718179
 30
0.0
 11
-266.86576024490932
 21
59.69140866331918
 31
0.0
  0
LINE
  5
28C
  8
DETAIL
  6
CONTINUOUS
 62
     5
 10
-324.96593847564668
 20
-3.0367816044723659
 30
0.0
 11
-324.9306527621917
 21
-3.0286265279100921
 31
0.0
  0
LINE
  5
28D
  8
DETAIL
  6
CONTINUOUS
 62
     5
 10
-324.9306527621917
 20
-3.0286265279100921
 30
0.0
 11
-324.89358103845888
 21
-3.021506228197381
 31
0.0
  0
LINE
  5
28E
  8
DETAIL
  6
CONTINUOUS
 62
     5
 10
-324.89358103845888
 20
-3.021506228197381
 30
0.0
 11
-324.85457162961171
 21
-3.015406435051772
 31
0.0
  0
LINE
  5
28F
  8
DETAIL
  6
CONTINUOUS
 62
     5
 10
-324.85457162961171
 20
-3.015406435051772
 30
0.0
 11
-324.81407955910481
 21
-3.0103699598294029
 31
0.0
  0
LINE
  5
290
  8
DETAIL
  6
CONTINUOUS
 62
     5
 10
-324.81407955910481
 20
-3.0103699598294029
 30
0.0
 11
-324.77242919832838
 21
-3.006431962018381
 31
0.0
  0
LINE
  5
291
  8
DETAIL
  6
CONTINUOUS
 62
     5
 10
-324.77242919832838
 20
-3.006431962018381
 30
0.0
 11
-324.72986082714601
 21
-3.003601127949536
 31
0.0
  0
LINE
  5
292
  8
DETAIL
  6
CONTINUOUS
 62
     5
 10
-324.72986082714601
 20
-3.003601127949536
 30
0.0
 11
-324.68676639922109
 21
-3.0019004167344279
 31
0.0
  0
LINE
  5
293
  8
DETAIL
  6
CONTINUOUS
 62
     5
 10
-324.68676639922109
 20
-3.0019004167344279
 30
0.0
 11
-324.64301526250739
 21
-3.001322175000722
 31
0.0
  0
LINE
  5
294
  8
DETAIL
  6
CONTINUOUS
 62
     5
 10
-272.54067692476218
 20
59.881760046975053
 30
0.0
 11
-272.49407210239679
 21
59.814157549490339
 31
0.0
  0
LINE
  5
295
  8
DETAIL
  6
CONTINUOUS
 62
     5
 10
-272.49407210239679
 20
59.814157549490339
 30
0.0
 11
-272.43751200593721
 21
59.750503171773389
 31
0.0
  0
LINE
  5
296
  8
DETAIL
  6
CONTINUOUS
 62
     5
 10
-272.43751200593721
 20
59.750503171773389
 30
0.0
 11
-272.37179053008731
 21
59.69140866331918
 31
0.0
  0
LINE
  5
297
  8
DETAIL
  6
CONTINUOUS
 62
     5
 10
-272.37179053008731
 20
59.69140866331918
 30
0.0
 11
-272.29749947609162
 21
59.637624456718179
 31
0.0
  0
LINE
  5
298
  8
DETAIL
  6
CONTINUOUS
 62
     5
 10
-272.29749947609162
 20
59.637624456718179
 30
0.0
 11
-272.21561258689582
 21
59.589665248706851
 31
0.0
  0
LINE
  5
299
  8
DETAIL
  6
CONTINUOUS
 62
     5
 10
-272.21561258689582
 20
59.589665248706851
 30
0.0
 11
-272.12693141759547
 21
59.548176396587102
 31
0.0
  0
LINE
  5
29A
  8
DETAIL
  6
CONTINUOUS
 62
     5
 10
-272.12693141759547
 20
59.548176396587102
 30
0.0
 11
-272.03256432948911
 21
59.513516350267992
 31
0.0
  0
LINE
  5
29B
  8
DETAIL
  6
CONTINUOUS
 62
     5
 10
-272.03256432948911
 20
59.513516350267992
 30
0.0
 11
-271.93349380286679
 21
59.486197408431607
 31
0.0
  0
LINE
  5
29C
  8
DETAIL
  6
CONTINUOUS
 62
     5
 10
-271.93349380286679
 20
59.486197408431607
 30
0.0
 11
-271.83089903321212
 21
59.466403384553132
 31
0.0
  0
LINE
  5
29D
  8
DETAIL
  6
CONTINUOUS
 62
     5
 10
-271.83089903321212
 20
59.466403384553132
 30
0.0
 11
-271.72647504770907
 21
59.454533180361508
 31
0.0
  0
LINE
  5
29E
  8
DETAIL
  6
CONTINUOUS
 62
     5
 10
-271.72647504770907
 20
59.454533180361508
 30
0.0
 11
-271.61965683749639
 21
59.450453827781082
 31
0.0
  0
LINE
  5
29F
  8
DETAIL
  6
CONTINUOUS
 62
     5
 10
-325.1432356250001
 20
-0.5002203625007269
 30
0.0
 11
-324.64301526250739
 21
0.0
 31
0.0
  0
LINE
  5
2A0
  8
DETAIL
  6
CONTINUOUS
 62
     5
 10
-266.62089209244141
 20
60.099267787844497
 30
0.0
 11
-266.61938250040322
 21
60.114237906644107
 31
0.0
  0
LINE
  5
2A1
  8
DETAIL
  6
CONTINUOUS
 62
     5
 10
-266.61938250040322
 20
60.114237906644107
 30
0.0
 11
-266.61830615625399
 21
60.129686204596062
 31
0.0
  0
LINE
  5
2A2
  8
DETAIL
  6
CONTINUOUS
 62
     5
 10
-266.61830615625399
 20
60.129686204596062
 30
0.0
 11
-266.61766306044888
 21
60.14559284046026
 31
0.0
  0
LINE
  5
2A3
  8
DETAIL
  6
CONTINUOUS
 62
     5
 10
-266.61766306044888
 20
60.14559284046026
 30
0.0
 11
-266.61745321249651
 21
60.161937510291402
 31
0.0
  0
LINE
  5
2A4
  8
DETAIL
  6
CONTINUOUS
 62
     5
 10
-264.7546491663561
 20
56.630835080246229
 30
0.0
 11
-265.65838225415541
 21
0.0
 31
0.0
  0
LINE
  5
2A5
  8
DETAIL
  6
CONTINUOUS
 62
     5
 10
-261.19698292313387
 20
56.631427615776822
 30
0.0
 11
-261.60643520248391
 21
0.0
 31
0.0
  0
LINE
  5
2A6
  8
DETAIL
  6
CONTINUOUS
 62
     5
 10
-259.91450035499588
 20
60.626707935000461
 30
0.0
 11
-259.91450035499588
 21
60.0264434999999
 31
0.0
  0
LINE
  5
2A7
  8
DETAIL
  6
CONTINUOUS
 62
     5
 10
-259.91450035499588
 20
60.634773297540619
 30
0.0
 11
-259.91450035499588
 21
61.226972369999999
 31
0.0
  0
LINE
  5
2A8
  8
DETAIL
  6
CONTINUOUS
 62
     5
 10
-261.11502922500358
 20
56.630835080246229
 30
0.0
 11
-261.11502922500358
 21
61.226972369999999
 31
0.0
  0
LINE
  5
2A9
  8
DETAIL
  6
CONTINUOUS
 62
     5
 10
-266.61745321249651
 20
57.231099515246569
 30
0.0
 11
-266.61745321249651
 21
56.630835080246229
 31
0.0
  0
LINE
  5
2AA
  8
DETAIL
  6
CONTINUOUS
 62
     5
 10
-266.61745321249651
 20
60.161937510291402
 30
0.0
 11
-266.61745321249651
 21
125.05509062499981
 31
0.0
  0
LINE
  5
2AB
  8
DETAIL
  6
CONTINUOUS
 62
     5
 10
-272.62009756250018
 20
57.231099515246569
 30
0.0
 11
-272.62009756250018
 21
56.630835080246229
 31
0.0
  0
LINE
  5
2AC
  8
DETAIL
  6
CONTINUOUS
 62
     5
 10
-272.62009756250018
 20
60.161937510291402
 30
0.0
 11
-272.62009756250018
 21
125.05509062499981
 31
0.0
  0
LINE
  5
2AD
  8
DETAIL
  6
CONTINUOUS
 62
     5
 10
-284.12516589999649
 20
56.630835080246229
 30
0.0
 11
-284.12516589999649
 21
60.523718840126321
 31
0.0
  0
LINE
  5
2AE
  8
DETAIL
  6
CONTINUOUS
 62
     5
 10
-272.62009756250018
 20
60.161937510291402
 30
0.0
 11
-272.61988314053912
 21
60.145506817063961
 31
0.0
  0
LINE
  5
2AF
  8
DETAIL
  6
CONTINUOUS
 62
     5
 10
-272.61988314053912
 20
60.145506817063961
 30
0.0
 11
-272.61923851956698
 21
60.129574798518327
 31
0.0
  0
LINE
  5
2B0
  8
DETAIL
  6
CONTINUOUS
 62
     5
 10
-272.61923851956698
 20
60.129574798518327
 30
0.0
 11
-272.61816370007517
 21
60.114156918466392
 31
0.0
  0
LINE
  5
2B1
  8
DETAIL
  6
CONTINUOUS
 62
     5
 10
-272.61816370007517
 20
60.114156918466392
 30
0.0
 11
-272.61665868206359
 21
60.099267787844497
 31
0.0
  0
LINE
  5
2B2
  8
DETAIL
  6
CONTINUOUS
 62
     5
 10
-272.61665868206359
 20
60.099267787844497
 30
0.0
 11
-272.60220724977228
 21
60.02474066484875
 31
0.0
  0
LINE
  5
2B3
  8
DETAIL
  6
CONTINUOUS
 62
     5
 10
-272.60220724977228
 20
60.02474066484875
 30
0.0
 11
-272.57695900913632
 21
59.95237991770648
 31
0.0
  0
LINE
  5
2B4
  8
DETAIL
  6
CONTINUOUS
 62
     5
 10
-272.57695900913632
 20
59.95237991770648
 30
0.0
 11
-272.54067692476218
 21
59.881760046975053
 31
0.0
  0
LINE
  5
2B5
  8
DETAIL
  6
CONTINUOUS
 62
     5
 10
-266.69687385023428
 20
59.881760046975053
 30
0.0
 11
-266.66059176536868
 21
59.95237991770648
 31
0.0
  0
LINE
  5
2B6
  8
DETAIL
  6
CONTINUOUS
 62
     5
 10
-266.66059176536868
 20
59.95237991770648
 30
0.0
 11
-266.63534352473312
 21
60.02474066484875
 31
0.0
  0
LINE
  5
2B7
  8
DETAIL
  6
CONTINUOUS
 62
     5
 10
-266.63534352473312
 20
60.02474066484875
 30
0.0
 11
-266.62089209244141
 21
60.099267787844497
 31
0.0
  0
LINE
  5
2B8
  8
DETAIL
  6
CONTINUOUS
 62
     5
 10
-288.17974293275012
 20
60.023872822536653
 30
0.0
 11
-289.22746352999991
 21
0.0
 31
0.0
  0
LINE
  5
2B9
  8
DETAIL
  6
CONTINUOUS
 62
     5
 10
-286.1523417860185
 20
60.025634913792018
 30
0.0
 11
-286.6761775658249
 21
0.0
 31
0.0
  0
LINE
  5
2BA
  8
DETAIL
  6
CONTINUOUS
 62
     5
 10
-289.52754581500528
 20
61.342983189844396
 30
0.0
 11
-289.52754581500528
 21
60.0264434999999
 31
0.0
  0
LINE
  5
2BB
  8
DETAIL
  6
CONTINUOUS
 62
     5
 10
-292.42882391749561
 20
61.468719653635283
 30
0.0
 11
-292.42882391749561
 21
61.727192732500733
 31
0.0
  0
LINE
  5
2BC
  8
DETAIL
  6
CONTINUOUS
 62
     5
 10
-296.83076310750079
 20
61.226972369999999
 30
0.0
 11
-296.83076310750079
 21
61.727192732500733
 31
0.0
  0
LINE
  5
2BD
  8
DETAIL
  6
CONTINUOUS
 62
     5
 10
-299.03173270249431
 20
60.0264434999999
 30
0.0
 11
-299.03173270249431
 21
60.626707935000461
 31
0.0
  0
LINE
  5
2BE
  8
DETAIL
  6
CONTINUOUS
 62
     5
 10
-303.63376003750358
 20
-40.017629000000063
 30
0.0
 11
-303.63376003750358
 21
-10.00440724999998
 31
0.0
  0
LINE
  5
2BF
  8
DETAIL
  6
CONTINUOUS
 62
     5
 10
-306.13486185000369
 20
-40.017629000000063
 30
0.0
 11
-306.13486185000369
 21
-10.00440724999998
 31
0.0
  0
LINE
  5
2C0
  8
DETAIL
  6
CONTINUOUS
 62
     5
 10
-307.63552293750013
 20
-35.015425375000063
 30
0.0
 11
-307.63552293750013
 21
-6.0026443500004243
 31
0.0
  0
LINE
  5
2C1
  8
DETAIL
  6
CONTINUOUS
 62
     5
 10
-310.13662475000001
 20
-6.0026443500004243
 30
0.0
 11
-310.13662475000001
 21
-35.015425375000063
 31
0.0
  0
LINE
  5
2C2
  8
DETAIL
  6
CONTINUOUS
 62
     5
 10
-325.1432356250001
 20
-3.001322175000722
 30
0.0
 11
-325.1432356250001
 21
-0.5002203625007269
 31
0.0
  0
LINE
  5
2C3
  8
DETAIL
  6
CONTINUOUS
 62
     5
 10
-335.14764287500009
 20
-44.019391899999952
 30
0.0
 11
-335.14764287500009
 21
-40.017629000000063
 31
0.0
  0
ARC
  5
2C4
  8
DETAIL
  6
CONTINUOUS
 62
     5
 10
-260.51476479000871
 20
61.226972369999999
 30
0.0
 40
0.6002644349948977
 50
0.000000000000007
 51
180.0
  0
ARC
  5
2C5
  8
DETAIL
  6
CONTINUOUS
 62
     5
 10
-287.96435718219249
 20
90.039665249999857
 30
0.0
 40
2.563629357812359
 50
147.58465748039009
 51
212.41534251960991
  0
ARC
  5
2C6
  8
DETAIL
  6
CONTINUOUS
 62
     5
 10
-290.92816282999928
 20
61.427060514999987
 30
0.0
 40
1.400617014994177
 50
270.33146790087739
 51
0.000000000000007
  0
ARC
  5
2C7
  8
DETAIL
  6
CONTINUOUS
 62
     5
 10
-286.24499659031682
 20
61.026884225000003
 30
0.0
 40
1.000440725010284
 50
270.0
 51
341.67903556502068
  0
ARC
  5
2C8
  8
DETAIL
  6
CONTINUOUS
 62
     5
 10
-290.92816282999928
 20
61.427060514999987
 30
0.0
 40
0.8003525799992795
 50
270.58007550043789
 51
0.000000000000007
  0
ARC
  5
2C9
  8
DETAIL
  6
CONTINUOUS
 62
     5
 10
-284.72543033500938
 20
60.523718840126321
 30
0.0
 40
0.6002644349847933
 50
0.000000000000007
 51
161.6790355645542
  0
ARC
  5
2CA
  8
DETAIL
  6
CONTINUOUS
 62
     5
 10
-297.43102754249571
 20
61.226972369999999
 30
0.0
 40
0.6002644349948977
 50
270.0
 51
0.000000000000007
  0
ARC
  5
2CB
  8
DETAIL
  6
CONTINUOUS
 62
     5
 10
-334.14720214999647
 20
-44.019391899999952
 30
0.0
 40
1.0004407250002201
 50
180.0
 51
270.0
  0
LINE
  5
2CC
  8
DETAIL
  6
CONTINUOUS
 62
     5
 10
-97.542970687500215
 20
-6.0026443500004243
 30
0.0
 11
-93.541207787503723
 21
-6.0026443500004243
 31
0.0
  0
LINE
  5
2CD
  8
DETAIL
  6
CONTINUOUS
 62
     5
 10
-259.91450035499588
 20
60.626707935000461
 30
0.0
 11
-259.91450035499588
 21
60.634773297540619
 31
0.0
  0
LINE
  5
2CE
  8
DETAIL
  6
CONTINUOUS
 62
     5
 10
289.52754581500528
 20
61.342983189844396
 30
0.0
 11
289.52754581500528
 21
60.0264434999999
 31
0.0
  0
LINE
  5
2CF
  8
DETAIL
  6
CONTINUOUS
 62
     5
 10
284.12516589999609
 20
56.630835080246229
 30
0.0
 11
284.12516589999609
 21
60.523718840126321
 31
0.0
  0
LINE
  5
2D0
  8
DETAIL
  6
CONTINUOUS
 62
     5
 10
272.62009756250001
 20
60.161937510291402
 30
0.0
 11
272.61988314053878
 21
60.145506817063961
 31
0.0
  0
LINE
  5
2D1
  8
DETAIL
  6
CONTINUOUS
 62
     5
 10
272.61988314053878
 20
60.145506817063961
 30
0.0
 11
272.61923851956698
 21
60.129574798518327
 31
0.0
  0
LINE
  5
2D2
  8
DETAIL
  6
CONTINUOUS
 62
     5
 10
272.61923851956698
 20
60.129574798518327
 30
0.0
 11
272.61816370056641
 21
60.114156918466392
 31
0.0
  0
LINE
  5
2D3
  8
DETAIL
  6
CONTINUOUS
 62
     5
 10
272.61816370056641
 20
60.114156918466392
 30
0.0
 11
272.61665868257302
 21
60.099267787844497
 31
0.0
  0
LINE
  5
2D4
  8
DETAIL
  6
CONTINUOUS
 62
     5
 10
272.62009756250001
 20
57.231099515246569
 30
0.0
 11
272.62009756250001
 21
56.630835080246229
 31
0.0
  0
LINE
  5
2D5
  8
DETAIL
  6
CONTINUOUS
 62
     5
 10
272.62009756250001
 20
60.161937510291402
 30
0.0
 11
272.62009756250001
 21
125.05509062499981
 31
0.0
  0
LINE
  5
2D6
  8
DETAIL
  6
CONTINUOUS
 62
     5
 10
266.61745321249617
 20
57.231099515246569
 30
0.0
 11
266.61745321249617
 21
56.630835080246229
 31
0.0
  0
LINE
  5
2D7
  8
DETAIL
  6
CONTINUOUS
 62
     5
 10
266.61745321249617
 20
60.161937510291402
 30
0.0
 11
266.61745321249617
 21
125.05509062499981
 31
0.0
  0
LINE
  5
2D8
  8
DETAIL
  6
CONTINUOUS
 62
     5
 10
261.11502922500358
 20
56.630835080246229
 30
0.0
 11
261.11502922500358
 21
61.226972369999999
 31
0.0
  0
LINE
  5
2D9
  8
DETAIL
  6
CONTINUOUS
 62
     5
 10
259.91450035499543
 20
60.626707935000461
 30
0.0
 11
259.91450035499543
 21
60.0264434999999
 31
0.0
  0
LINE
  5
2DA
  8
DETAIL
  6
CONTINUOUS
 62
     5
 10
259.91450035499543
 20
60.626707935000461
 30
0.0
 11
259.91450035499543
 21
60.634773297540619
 31
0.0
  0
LINE
  5
2DB
  8
DETAIL
  6
CONTINUOUS
 62
     5
 10
259.91450035499543
 20
60.634773297540619
 30
0.0
 11
259.91450035499543
 21
61.226972369999999
 31
0.0
  0
LINE
  5
2DC
  8
DETAIL
  6
CONTINUOUS
 62
     5
 10
266.62089209293248
 20
60.099267787844497
 30
0.0
 11
266.61938250040288
 21
60.114237906644107
 31
0.0
  0
LINE
  5
2DD
  8
DETAIL
  6
CONTINUOUS
 62
     5
 10
266.61938250040288
 20
60.114237906644107
 30
0.0
 11
266.61830615625388
 21
60.129686204596062
 31
0.0
  0
LINE
  5
2DE
  8
DETAIL
  6
CONTINUOUS
 62
     5
 10
266.61830615625388
 20
60.129686204596062
 30
0.0
 11
266.61766306044888
 21
60.14559284046026
 31
0.0
  0
LINE
  5
2DF
  8
DETAIL
  6
CONTINUOUS
 62
     5
 10
266.61766306044888
 20
60.14559284046026
 30
0.0
 11
266.61745321249617
 21
60.161937510291402
 31
0.0
  0
LINE
  5
2E0
  8
DETAIL
  6
CONTINUOUS
 62
     5
 10
266.63534352522407
 20
60.02474066484875
 30
0.0
 11
266.62089209293248
 21
60.099267787844497
 31
0.0
  0
LINE
  5
2E1
  8
DETAIL
  6
CONTINUOUS
 62
     5
 10
266.69687385023428
 20
59.881760046975053
 30
0.0
 11
266.66059176585992
 21
59.95237991770648
 31
0.0
  0
LINE
  5
2E2
  8
DETAIL
  6
CONTINUOUS
 62
     5
 10
266.66059176585992
 20
59.95237991770648
 30
0.0
 11
266.63534352522407
 21
60.02474066484875
 31
0.0
  0
LINE
  5
2E3
  8
DETAIL
  6
CONTINUOUS
 62
     5
 10
272.60220725026312
 20
60.02474066484875
 30
0.0
 11
272.57695900962722
 21
59.95237991770648
 31
0.0
  0
LINE
  5
2E4
  8
DETAIL
  6
CONTINUOUS
 62
     5
 10
272.57695900962722
 20
59.95237991770648
 30
0.0
 11
272.54067692476201
 21
59.881760046975053
 31
0.0
  0
LINE
  5
2E5
  8
DETAIL
  6
CONTINUOUS
 62
     5
 10
272.61665868257302
 20
60.099267787844497
 30
0.0
 11
272.60220725026312
 21
60.02474066484875
 31
0.0
  0
LINE
  5
2E6
  8
DETAIL
  6
CONTINUOUS
 62
     5
 10
272.54067692476201
 20
59.881760046975053
 30
0.0
 11
272.49407210239627
 21
59.814157549490339
 31
0.0
  0
LINE
  5
2E7
  8
DETAIL
  6
CONTINUOUS
 62
     5
 10
272.49407210239627
 20
59.814157549490339
 30
0.0
 11
272.43751200593692
 21
59.750503171773389
 31
0.0
  0
LINE
  5
2E8
  8
DETAIL
  6
CONTINUOUS
 62
     5
 10
272.43751200593692
 20
59.750503171773389
 30
0.0
 11
272.37179053008691
 21
59.69140866331918
 31
0.0
  0
LINE
  5
2E9
  8
DETAIL
  6
CONTINUOUS
 62
     5
 10
272.37179053008691
 20
59.69140866331918
 30
0.0
 11
272.29749947658252
 21
59.637624456718179
 31
0.0
  0
LINE
  5
2EA
  8
DETAIL
  6
CONTINUOUS
 62
     5
 10
272.29749947658252
 20
59.637624456718179
 30
0.0
 11
272.21561258689547
 21
59.589665248706851
 31
0.0
  0
LINE
  5
2EB
  8
DETAIL
  6
CONTINUOUS
 62
     5
 10
272.21561258689547
 20
59.589665248706851
 30
0.0
 11
272.12693141810468
 21
59.548176396587102
 31
0.0
  0
LINE
  5
2EC
  8
DETAIL
  6
CONTINUOUS
 62
     5
 10
272.12693141810468
 20
59.548176396587102
 30
0.0
 11
272.03256432948871
 21
59.513516350267992
 31
0.0
  0
LINE
  5
2ED
  8
DETAIL
  6
CONTINUOUS
 62
     5
 10
272.03256432948871
 20
59.513516350267992
 30
0.0
 11
271.93349380286668
 21
59.486197408431607
 31
0.0
  0
LINE
  5
2EE
  8
DETAIL
  6
CONTINUOUS
 62
     5
 10
271.93349380286668
 20
59.486197408431607
 30
0.0
 11
271.83089903370342
 21
59.466403384553132
 31
0.0
  0
LINE
  5
2EF
  8
DETAIL
  6
CONTINUOUS
 62
     5
 10
271.83089903370342
 20
59.466403384553132
 30
0.0
 11
271.72647504821839
 21
59.454533180361508
 31
0.0
  0
LINE
  5
2F0
  8
DETAIL
  6
CONTINUOUS
 62
     5
 10
271.72647504821839
 20
59.454533180361508
 30
0.0
 11
271.61965683749628
 21
59.450453827781082
 31
0.0
  0
LINE
  5
2F1
  8
DETAIL
  6
CONTINUOUS
 62
     5
 10
267.61789393749967
 20
59.450453827781082
 30
0.0
 11
267.51107572728728
 21
59.454533180361508
 31
0.0
  0
LINE
  5
2F2
  8
DETAIL
  6
CONTINUOUS
 62
     5
 10
267.51107572728728
 20
59.454533180361508
 30
0.0
 11
267.40665174180231
 21
59.466403384553132
 31
0.0
  0
LINE
  5
2F3
  8
DETAIL
  6
CONTINUOUS
 62
     5
 10
267.40665174180231
 20
59.466403384553132
 30
0.0
 11
267.30405697212927
 21
59.486197408431607
 31
0.0
  0
LINE
  5
2F4
  8
DETAIL
  6
CONTINUOUS
 62
     5
 10
267.30405697212927
 20
59.486197408431607
 30
0.0
 11
267.2049864455073
 21
59.513516350267992
 31
0.0
  0
LINE
  5
2F5
  8
DETAIL
  6
CONTINUOUS
 62
     5
 10
267.2049864455073
 20
59.513516350267992
 30
0.0
 11
267.11061935740099
 21
59.548176396587102
 31
0.0
  0
LINE
  5
2F6
  8
DETAIL
  6
CONTINUOUS
 62
     5
 10
267.11061935740099
 20
59.548176396587102
 30
0.0
 11
267.02193818810042
 21
59.589665248706851
 31
0.0
  0
LINE
  5
2F7
  8
DETAIL
  6
CONTINUOUS
 62
     5
 10
267.02193818810042
 20
59.589665248706851
 30
0.0
 11
266.94005129890462
 21
59.637624456718179
 31
0.0
  0
LINE
  5
2F8
  8
DETAIL
  6
CONTINUOUS
 62
     5
 10
266.94005129890462
 20
59.637624456718179
 30
0.0
 11
266.8657602449091
 21
59.69140866331918
 31
0.0
  0
LINE
  5
2F9
  8
DETAIL
  6
CONTINUOUS
 62
     5
 10
266.8657602449091
 20
59.69140866331918
 30
0.0
 11
266.80003876907722
 21
59.750503171773389
 31
0.0
  0
LINE
  5
2FA
  8
DETAIL
  6
CONTINUOUS
 62
     5
 10
266.80003876907722
 20
59.750503171773389
 30
0.0
 11
266.74347867259962
 21
59.814157549490339
 31
0.0
  0
LINE
  5
2FB
  8
DETAIL
  6
CONTINUOUS
 62
     5
 10
266.74347867259962
 20
59.814157549490339
 30
0.0
 11
266.69687385023428
 21
59.881760046975053
 31
0.0
  0
LINE
  5
2FC
  8
DETAIL
  6
CONTINUOUS
 62
     5
 10
284.12516589999609
 20
56.630835080246229
 30
0.0
 11
261.11502922500358
 21
56.630835080246229
 31
0.0
  0
LINE
  5
2FD
  8
DETAIL
  6
CONTINUOUS
 62
     5
 10
284.12516589999609
 20
57.231099515246569
 30
0.0
 11
261.11502922500358
 21
57.231099515246569
 31
0.0
  0
LINE
  5
2FE
  8
DETAIL
  6
CONTINUOUS
 62
     5
 10
271.61965683749628
 20
59.450453827781082
 30
0.0
 11
267.61789393749967
 21
59.450453827781082
 31
0.0
  0
LINE
  5
2FF
  8
DETAIL
  6
CONTINUOUS
 62
     5
 10
289.52754581500528
 20
60.0264434999999
 30
0.0
 11
286.24499659031648
 21
60.0264434999999
 31
0.0
  0
LINE
  5
300
  8
DETAIL
  6
CONTINUOUS
 62
     5
 10
266.61745321249617
 20
63.027765674999607
 30
0.0
 11
272.62009756250001
 21
63.027765674999607
 31
0.0
  0
ARC
  5
301
  8
DETAIL
  6
CONTINUOUS
 62
     5
 10
286.24499659031648
 20
61.026884225000003
 30
0.0
 40
1.0004407250002201
 50
198.32096443497929
 51
270.0
  0
ARC
  5
302
  8
DETAIL
  6
CONTINUOUS
 62
     5
 10
284.72543033499119
 20
60.523718840126321
 30
0.0
 40
0.6002644349948977
 50
18.320964434896869
 51
180.0
  0
ARC
  5
303
  8
DETAIL
  6
CONTINUOUS
 62
     5
 10
287.96435718219249
 20
90.039665249999857
 30
0.0
 40
2.563629357812359
 50
327.58465748038998
 51
32.415342519609872
  0
ARC
  5
304
  8
DETAIL
  6
CONTINUOUS
 62
     5
 10
260.51476478999041
 20
61.226972369999999
 30
0.0
 40
0.6002644349948977
 50
0.000000000000007
 51
180.0
  0
LINE
  5
305
  8
DETAIL
  6
CONTINUOUS
 62
     5
 10
299.03173270249403
 20
60.0264434999999
 30
0.0
 11
299.03173270249403
 21
60.626707935000461
 31
0.0
  0
LINE
  5
306
  8
DETAIL
  6
CONTINUOUS
 62
     5
 10
296.83076310750062
 20
61.727192732500733
 30
0.0
 11
296.83076310750062
 21
61.226972369999999
 31
0.0
  0
LINE
  5
307
  8
DETAIL
  6
CONTINUOUS
 62
     5
 10
292.42882391749549
 20
61.727192732500733
 30
0.0
 11
292.42882391749549
 21
61.468719653635283
 31
0.0
  0
LINE
  5
308
  8
DETAIL
  6
CONTINUOUS
 62
     5
 10
289.55205108032919
 20
61.16620715604914
 30
0.0
 11
289.53438591877722
 21
61.293928342171498
 31
0.0
  0
LINE
  5
309
  8
DETAIL
  6
CONTINUOUS
 62
     5
 10
289.53438591877722
 20
61.293928342171498
 30
0.0
 11
289.52754581500528
 21
61.427060514999987
 31
0.0
  0
LINE
  5
30A
  8
DETAIL
  6
CONTINUOUS
 62
     5
 10
290.12781024999981
 20
63.769733321135149
 30
0.0
 11
293.27083563614269
 21
60.626707935000461
 31
0.0
  0
LINE
  5
30B
  8
DETAIL
  6
CONTINUOUS
 62
     5
 10
290.92006001696382
 20
60.626748953068599
 30
0.0
 11
290.92816282999911
 21
60.626707935000461
 31
0.0
  0
LINE
  5
30C
  8
DETAIL
  6
CONTINUOUS
 62
     5
 10
299.03173270249403
 20
60.0264434999999
 30
0.0
 11
290.92006001696382
 21
60.026466938324347
 31
0.0
  0
LINE
  5
30D
  8
DETAIL
  6
CONTINUOUS
 62
     5
 10
299.03173270249403
 20
60.626707935000461
 30
0.0
 11
290.92816282999911
 21
60.626707935000461
 31
0.0
  0
LINE
  5
30E
  8
DETAIL
  6
CONTINUOUS
 62
     5
 10
296.83076310750062
 20
61.727192732500733
 30
0.0
 11
292.42882391749549
 21
61.727192732500733
 31
0.0
  0
LINE
  5
30F
  8
DETAIL
  6
CONTINUOUS
 62
     5
 10
290.79503188520812
 20
60.033283353165189
 30
0.0
 11
290.66731098471911
 21
60.050948478699077
 31
0.0
  0
LINE
  5
310
  8
DETAIL
  6
CONTINUOUS
 62
     5
 10
290.66731098471911
 20
60.050948478699077
 30
0.0
 11
290.54481645508918
 21
60.079898238461617
 31
0.0
  0
LINE
  5
311
  8
DETAIL
  6
CONTINUOUS
 62
     5
 10
290.54481645508918
 20
60.079898238461617
 30
0.0
 11
290.42809931710087
 21
60.118754547362869
 31
0.0
  0
LINE
  5
312
  8
DETAIL
  6
CONTINUOUS
 62
     5
 10
290.42809931710087
 20
60.118754547362869
 30
0.0
 11
290.31775785527788
 21
60.166370830304913
 31
0.0
  0
LINE
  5
313
  8
DETAIL
  6
CONTINUOUS
 62
     5
 10
290.31775785527788
 20
60.166370830304913
 30
0.0
 11
290.21346660226072
 21
60.222511917185777
 31
0.0
  0
LINE
  5
314
  8
DETAIL
  6
CONTINUOUS
 62
     5
 10
290.21346660226072
 20
60.222511917185777
 30
0.0
 11
290.11483728451282
 21
60.286808709406607
 31
0.0
  0
LINE
  5
315
  8
DETAIL
  6
CONTINUOUS
 62
     5
 10
290.11483728451282
 20
60.286808709406607
 30
0.0
 11
290.02265660106599
 21
60.358516415862141
 31
0.0
  0
LINE
  5
316
  8
DETAIL
  6
CONTINUOUS
 62
     5
 10
290.02265660106599
 20
60.358516415862141
 30
0.0
 11
289.93770918212249
 21
60.436613657606131
 31
0.0
  0
LINE
  5
317
  8
DETAIL
  6
CONTINUOUS
 62
     5
 10
289.93770918212249
 20
60.436613657606131
 30
0.0
 11
289.85961295581137
 21
60.521561100576037
 31
0.0
  0
LINE
  5
318
  8
DETAIL
  6
CONTINUOUS
 62
     5
 10
289.85961295581137
 20
60.521561100576037
 30
0.0
 11
289.78790724224001
 21
60.613740043243631
 31
0.0
  0
LINE
  5
319
  8
DETAIL
  6
CONTINUOUS
 62
     5
 10
289.78790724224001
 20
60.613740043243631
 30
0.0
 11
289.72361249442321
 21
60.712367216556231
 31
0.0
  0
LINE
  5
31A
  8
DETAIL
  6
CONTINUOUS
 62
     5
 10
289.72361249442321
 20
60.712367216556231
 30
0.0
 11
289.6674723509509
 21
60.816657274544141
 31
0.0
  0
LINE
  5
31B
  8
DETAIL
  6
CONTINUOUS
 62
     5
 10
289.6674723509509
 20
60.816657274544141
 30
0.0
 11
289.6198565782463
 21
60.926997744923248
 31
0.0
  0
LINE
  5
31C
  8
DETAIL
  6
CONTINUOUS
 62
     5
 10
289.6198565782463
 20
60.926997744923248
 30
0.0
 11
289.58100066351722
 21
61.043713523325103
 31
0.0
  0
LINE
  5
31D
  8
DETAIL
  6
CONTINUOUS
 62
     5
 10
289.58100066351722
 20
61.043713523325103
 30
0.0
 11
289.55205108032919
 21
61.16620715604914
 31
0.0
  0
LINE
  5
31E
  8
DETAIL
  6
CONTINUOUS
 62
     5
 10
290.92816282999911
 20
60.626707935000461
 30
0.0
 11
290.84220362381228
 21
60.631747319503582
 31
0.0
  0
LINE
  5
31F
  8
DETAIL
  6
CONTINUOUS
 62
     5
 10
290.84220362381228
 20
60.631747319503582
 30
0.0
 11
290.76033466350782
 21
60.644501917297248
 31
0.0
  0
LINE
  5
320
  8
DETAIL
  6
CONTINUOUS
 62
     5
 10
290.76033466350782
 20
60.644501917297248
 30
0.0
 11
290.68239029561352
 21
60.665364365849889
 31
0.0
  0
LINE
  5
321
  8
DETAIL
  6
CONTINUOUS
 62
     5
 10
290.68239029561352
 20
60.665364365849889
 30
0.0
 11
290.6088674810523
 21
60.693156752752877
 31
0.0
  0
LINE
  5
322
  8
DETAIL
  6
CONTINUOUS
 62
     5
 10
290.6088674810523
 20
60.693156752752877
 30
0.0
 11
290.54030955466459
 21
60.726893290738531
 31
0.0
  0
LINE
  5
323
  8
DETAIL
  6
CONTINUOUS
 62
     5
 10
290.54030955466459
 20
60.726893290738531
 30
0.0
 11
290.47641174120668
 21
60.76639024486564
 31
0.0
  0
LINE
  5
324
  8
DETAIL
  6
CONTINUOUS
 62
     5
 10
290.47641174120668
 20
60.76639024486564
 30
0.0
 11
290.41696104534287
 21
60.81119992941376
 31
0.0
  0
LINE
  5
325
  8
DETAIL
  6
CONTINUOUS
 62
     5
 10
290.41696104534287
 20
60.81119992941376
 30
0.0
 11
290.36222546013522
 21
60.861128411450977
 31
0.0
  0
LINE
  5
326
  8
DETAIL
  6
CONTINUOUS
 62
     5
 10
290.36222546013522
 20
60.861128411450977
 30
0.0
 11
290.31229838321218
 21
60.915863126781559
 31
0.0
  0
LINE
  5
327
  8
DETAIL
  6
CONTINUOUS
 62
     5
 10
290.31229838321218
 20
60.915863126781559
 30
0.0
 11
290.26749060349857
 21
60.975312286970393
 31
0.0
  0
LINE
  5
328
  8
DETAIL
  6
CONTINUOUS
 62
     5
 10
290.26749060349857
 20
60.975312286970393
 30
0.0
 11
290.22799461179761
 21
61.039209068473717
 31
0.0
  0
LINE
  5
329
  8
DETAIL
  6
CONTINUOUS
 62
     5
 10
290.22799461179761
 20
61.039209068473717
 30
0.0
 11
290.19425869908309
 21
61.107766013422072
 31
0.0
  0
LINE
  5
32A
  8
DETAIL
  6
CONTINUOUS
 62
     5
 10
290.19425869908309
 20
61.107766013422072
 30
0.0
 11
290.16646673487998
 21
61.181287629963542
 31
0.0
  0
LINE
  5
32B
  8
DETAIL
  6
CONTINUOUS
 62
     5
 10
290.16646673487998
 20
61.181287629963542
 30
0.0
 11
290.14560447939692
 21
61.259231195506914
 31
0.0
  0
LINE
  5
32C
  8
DETAIL
  6
CONTINUOUS
 62
     5
 10
290.14560447939692
 20
61.259231195506914
 30
0.0
 11
290.13284986611029
 21
61.341100338390113
 31
0.0
  0
LINE
  5
32D
  8
DETAIL
  6
CONTINUOUS
 62
     5
 10
290.13284986611029
 20
61.341100338390113
 30
0.0
 11
290.12781024999981
 21
61.427060514999987
 31
0.0
  0
LINE
  5
32E
  8
DETAIL
  6
CONTINUOUS
 62
     5
 10
290.92816282999911
 20
60.0264434999999
 30
0.0
 11
290.79503188520812
 21
60.033283353165189
 31
0.0
  0
LINE
  5
32F
  8
DETAIL
  6
CONTINUOUS
 62
     5
 10
-290.12781024999998
 20
63.769733321135149
 30
0.0
 11
-293.27083563614292
 21
60.626707935000461
 31
0.0
  0
ARC
  5
330
  8
DETAIL
  6
CONTINUOUS
 62
     5
 10
290.92816282999911
 20
61.427060514999987
 30
0.0
 40
1.4006170150006989
 50
180.0
 51
269.66853209912261
  0
ARC
  5
331
  8
DETAIL
  6
CONTINUOUS
 62
     5
 10
290.92816282999911
 20
61.427060514999987
 30
0.0
 40
0.8003525800008803
 50
180.0
 51
269.419924499562
  0
ARC
  5
332
  8
DETAIL
  6
CONTINUOUS
 62
     5
 10
297.43102754249549
 20
61.226972369999999
 30
0.0
 40
0.6002644349994597
 50
180.0
 51
270.0
  0
LINE
  5
333
  8
DETAIL
  6
CONTINUOUS
 62
     5
 10
-266.74347867259968
 20
59.814157549490339
 30
0.0
 11
-266.69687385023428
 21
59.881760046975053
 31
0.0
  0
LINE
  5
334
  8
DETAIL
  6
CONTINUOUS
 62
     5
 10
-266.86576024490932
 20
59.69140866331918
 30
0.0
 11
-266.80003876907767
 21
59.750503171773389
 31
0.0
  0
LINE
  5
335
  8
DETAIL
  6
CONTINUOUS
 62
     5
 10
-266.80003876907767
 20
59.750503171773389
 30
0.0
 11
-266.74347867259968
 21
59.814157549490339
 31
0.0
  0
LINE
  5
336
  8
DETAIL
  6
CONTINUOUS
 62
     5
 10
259.91450035499543
 20
60.0264434999999
 30
0.0
 11
-257.91361890500662
 21
60.0264434999999
 31
0.0
  0
LINE
  5
337
  8
DETAIL
  6
CONTINUOUS
 62
     5
 10
259.91450035499543
 20
60.626707935000461
 30
0.0
 11
-257.91361890500662
 21
60.626707935000461
 31
0.0
  0
LINE
  5
338
  8
DETAIL
  6
CONTINUOUS
 62
     5
 10
-306.13486185000369
 20
-10.00440724999998
 30
0.0
 11
-303.63376003750358
 21
-10.00440724999998
 31
0.0
  0
LINE
  5
339
  8
DETAIL
  6
CONTINUOUS
 62
     5
 10
335.14764287499969
 20
-44.019391899999952
 30
0.0
 11
335.14764287499969
 21
-40.017629000000063
 31
0.0
  0
LINE
  5
33A
  8
DETAIL
  6
CONTINUOUS
 62
     5
 10
325.14323562499982
 20
-3.001322175000722
 30
0.0
 11
325.14323562499982
 21
-0.5002203625007269
 31
0.0
  0
LINE
  5
33B
  8
DETAIL
  6
CONTINUOUS
 62
     5
 10
310.13662474999973
 20
-6.0026443500004243
 30
0.0
 11
310.13662474999973
 21
-35.015425375000063
 31
0.0
  0
LINE
  5
33C
  8
DETAIL
  6
CONTINUOUS
 62
     5
 10
307.6355229374999
 20
-35.015425375000063
 30
0.0
 11
307.6355229374999
 21
-6.0026443500004243
 31
0.0
  0
LINE
  5
33D
  8
DETAIL
  6
CONTINUOUS
 62
     5
 10
306.13486185000352
 20
-40.017629000000063
 30
0.0
 11
306.13486185000352
 21
-10.00440724999998
 31
0.0
  0
LINE
  5
33E
  8
DETAIL
  6
CONTINUOUS
 62
     5
 10
303.63376003750341
 20
-40.017629000000063
 30
0.0
 11
303.63376003750341
 21
-10.00440724999998
 31
0.0
  0
LINE
  5
33F
  8
DETAIL
  6
CONTINUOUS
 62
     5
 10
286.15234178600008
 20
60.025634913792018
 30
0.0
 11
286.67617756633399
 21
0.0
 31
0.0
  0
LINE
  5
340
  8
DETAIL
  6
CONTINUOUS
 62
     5
 10
288.17974293274972
 20
60.023872822536653
 30
0.0
 11
289.22746352999962
 21
0.0
 31
0.0
  0
LINE
  5
341
  8
DETAIL
  6
CONTINUOUS
 62
     5
 10
261.19698292313387
 20
56.631427615776822
 30
0.0
 11
261.60643520248368
 21
0.0
 31
0.0
  0
LINE
  5
342
  8
DETAIL
  6
CONTINUOUS
 62
     5
 10
264.7546491663561
 20
56.630835080246229
 30
0.0
 11
265.65838225415501
 21
0.0
 31
0.0
  0
LINE
  5
343
  8
DETAIL
  6
CONTINUOUS
 62
     5
 10
325.14323562499982
 20
-0.5002203625007269
 30
0.0
 11
324.64301526250688
 21
0.0
 31
0.0
  0
LINE
  5
344
  8
DETAIL
  6
CONTINUOUS
 62
     5
 10
325.14323562499982
 20
-3.001322175000722
 30
0.0
 11
310.13662474999973
 21
-6.0026443500004243
 31
0.0
  0
LINE
  5
345
  8
DETAIL
  6
CONTINUOUS
 62
     5
 10
-334.14720214999647
 20
-45.019832625000042
 30
0.0
 11
334.14720214999619
 21
-45.019832625000042
 31
0.0
  0
LINE
  5
346
  8
DETAIL
  6
CONTINUOUS
 62
     5
 10
335.14764287499969
 20
-40.017629000000063
 30
0.0
 11
-334.14720214999647
 21
-40.017629000000063
 31
0.0
  0
LINE
  5
347
  8
DETAIL
  6
CONTINUOUS
 62
     5
 10
307.6355229374999
 20
-35.015425375000063
 30
0.0
 11
310.13662474999973
 21
-35.015425375000063
 31
0.0
  0
LINE
  5
348
  8
DETAIL
  6
CONTINUOUS
 62
     5
 10
310.13662474999973
 20
-6.0026443500004243
 30
0.0
 11
-307.63552293750013
 21
-6.0026443500004243
 31
0.0
  0
LINE
  5
349
  8
DETAIL
  6
CONTINUOUS
 62
     5
 10
324.64301526250688
 20
-3.001322175000722
 30
0.0
 11
-324.64301526250739
 21
-3.001322175000722
 31
0.0
  0
LINE
  5
34A
  8
DETAIL
  6
CONTINUOUS
 62
     5
 10
325.14323562499982
 20
-0.5002203625007269
 30
0.0
 11
-324.64301526250739
 21
-0.5002203625007269
 31
0.0
  0
LINE
  5
34B
  8
DETAIL
  6
CONTINUOUS
 62
     5
 10
324.64301526250688
 20
0.0
 30
0.0
 11
-324.64301526250739
 21
0.0
 31
0.0
  0
LINE
  5
34C
  8
DETAIL
  6
CONTINUOUS
 62
     5
 10
324.96593847562849
 20
-3.0367816044723659
 30
0.0
 11
324.93065276219141
 21
-3.0286265279100921
 31
0.0
  0
LINE
  5
34D
  8
DETAIL
  6
CONTINUOUS
 62
     5
 10
324.93065276219141
 20
-3.0286265279100921
 30
0.0
 11
324.89358103845882
 21
-3.021506228197381
 31
0.0
  0
LINE
  5
34E
  8
DETAIL
  6
CONTINUOUS
 62
     5
 10
324.89358103845882
 20
-3.021506228197381
 30
0.0
 11
324.85457162961143
 21
-3.015406435051772
 31
0.0
  0
LINE
  5
34F
  8
DETAIL
  6
CONTINUOUS
 62
     5
 10
324.85457162961143
 20
-3.015406435051772
 30
0.0
 11
324.81407955910458
 21
-3.0103699598294029
 31
0.0
  0
LINE
  5
350
  8
DETAIL
  6
CONTINUOUS
 62
     5
 10
324.81407955910458
 20
-3.0103699598294029
 30
0.0
 11
324.77242919883747
 21
-3.006431962018381
 31
0.0
  0
LINE
  5
351
  8
DETAIL
  6
CONTINUOUS
 62
     5
 10
324.77242919883747
 20
-3.006431962018381
 30
0.0
 11
324.72986082765527
 21
-3.003601127949536
 31
0.0
  0
LINE
  5
352
  8
DETAIL
  6
CONTINUOUS
 62
     5
 10
324.72986082765527
 20
-3.003601127949536
 30
0.0
 11
324.68676639922069
 21
-3.0019004167344279
 31
0.0
  0
LINE
  5
353
  8
DETAIL
  6
CONTINUOUS
 62
     5
 10
324.68676639922069
 20
-3.0019004167344279
 30
0.0
 11
324.64301526250688
 21
-3.001322175000722
 31
0.0
  0
ARC
  5
354
  8
DETAIL
  6
CONTINUOUS
 62
     5
 10
334.14720214999619
 20
-44.019391899999952
 30
0.0
 40
1.000440725003642
 50
270.0
 51
0.000000000000007
  0
LINE
  5
355
  8
DETAIL
  6
CONTINUOUS
 62
     5
 10
306.13486185000352
 20
-10.00440724999998
 30
0.0
 11
303.63376003750341
 21
-10.00440724999998
 31
0.0
  0
LINE
  5
356
  8
OUTLINE
  6
CONTINUOUS
 62
     3
 10
-406.57911063999433
 20
392.17276420000047
 30
0.0
 11
-406.57911063999433
 21
392.27280827250007
 31
0.0
  0
LINE
  5
357
  8
OUTLINE
  6
CONTINUOUS
 62
     3
 10
406.57911063999398
 20
392.27280827250007
 30
0.0
 11
406.57911063999398
 21
392.17276420000047
 31
0.0
  0
ARC
  5
358
  8
OUTLINE
  6
CONTINUOUS
 62
     3
 10
405.57866991499043
 20
392.17276420000047
 30
0.0
 40
1.0004407250002201
 50
88.761178591569362
 51
90.0
  0
ARC
  5
359
  8
OUTLINE
  6
CONTINUOUS
 62
     3
 10
405.57866991499043
 20
392.17276420000047
 30
0.0
 40
1.0004407250004601
 50
0.000000000000007
 51
84.836229661737264
  0
ARC
  5
35A
  8
OUTLINE
  6
CONTINUOUS
 62
     3
 10
405.57866991499043
 20
392.17276420000047
 30
0.0
 40
1.000440725000699
 50
84.836229661737264
 51
88.761178591569362
  0
LINE
  5
35B
  8
OUTLINE
  6
CONTINUOUS
 62
     3
 10
-405.66870958025902
 20
393.17320492500039
 30
0.0
 11
405.66870958025851
 21
393.17320492500039
 31
0.0
  0
ARC
  5
35C
  8
OUTLINE
  6
CONTINUOUS
 62
     3
 10
-405.57866991500879
 20
392.17276420000047
 30
0.0
 40
1.000440724985433
 50
95.163770337216562
 51
180.0
  0
ARC
  5
35D
  8
OUTLINE
  6
CONTINUOUS
 62
     3
 10
-405.57866991500879
 20
392.17276420000047
 30
0.0
 40
1.0004407249988181
 50
90.0
 51
95.163770337216562
  0
LINE
  5
35E
  8
OUTLINE
  6
CONTINUOUS
 62
     3
 10
-289.40760305453051
 20
124.9550465525012
 30
0.0
 11
-405.97884620499929
 21
124.9550465525012
 31
0.0
  0
LINE
  5
35F
  8
OUTLINE
  6
CONTINUOUS
 62
     3
 10
-406.57911063999433
 20
392.27280827250007
 30
0.0
 11
-407.17937507500739
 21
392.27280827250007
 31
0.0
  0
LINE
  5
360
  8
OUTLINE
  6
CONTINUOUS
 62
     3
 10
-407.17937507500739
 20
392.27280827250007
 30
0.0
 11
-407.17937507500739
 21
271.41956869250089
 31
0.0
  0
LINE
  5
361
  8
OUTLINE
  6
CONTINUOUS
 62
     3
 10
-407.17937507500739
 20
271.41956869250089
 30
0.0
 11
-407.17937507500739
 21
126.15557542250011
 31
0.0
  0
ARC
  5
362
  8
OUTLINE
  6
CONTINUOUS
 62
     3
 10
-405.97884620499929
 20
126.15557542250011
 30
0.0
 40
1.200528869998899
 50
180.0
 51
270.0
  0
LINE
  5
363
  8
OUTLINE
  6
CONTINUOUS
 62
     3
 10
405.97884620499917
 20
124.9550465525012
 30
0.0
 11
289.40707589661372
 21
124.9550465525012
 31
0.0
  0
LINE
  5
364
  8
OUTLINE
  6
CONTINUOUS
 62
     3
 10
407.17937507500682
 20
392.27280827250007
 30
0.0
 11
406.57911063999398
 21
392.27280827250007
 31
0.0
  0
LINE
  5
365
  8
OUTLINE
  6
CONTINUOUS
 62
     3
 10
407.17937507500682
 20
226.29969199500101
 30
0.0
 11
407.17937507500682
 21
392.27280827250007
 31
0.0
  0
LINE
  5
366
  8
OUTLINE
  6
CONTINUOUS
 62
     3
 10
407.17937507500682
 20
126.15557542250011
 30
0.0
 11
407.17937507500682
 21
226.29969199500101
 31
0.0
  0
ARC
  5
367
  8
OUTLINE
  6
CONTINUOUS
 62
     3
 10
405.97884620499917
 20
126.15557542250011
 30
0.0
 40
1.200528870008003
 50
270.0
 51
0.000000000000007
  0
LINE
  5
368
  8
OUTLINE
  6
CONTINUOUS
 62
     3
 10
290.10141313225517
 20
124.10492987788071
 30
0.0
 11
290.12033243178121
 21
123.9827907888443
 31
0.0
  0
LINE
  5
369
  8
OUTLINE
  6
CONTINUOUS
 62
     3
 10
290.12033243178121
 20
123.9827907888443
 30
0.0
 11
290.12781024999981
 21
123.85456175499981
 31
0.0
  0
LINE
  5
36A
  8
OUTLINE
  6
CONTINUOUS
 62
     3
 10
290.02925008620582
 20
124.3309382220277
 30
0.0
 11
290.07057224738838
 21
124.2210694394407
 31
0.0
  0
LINE
  5
36B
  8
OUTLINE
  6
CONTINUOUS
 62
     3
 10
290.07057224738838
 20
124.2210694394407
 30
0.0
 11
290.10141313225517
 21
124.10492987788071
 31
0.0
  0
ARC
  5
36C
  8
OUTLINE
  6
CONTINUOUS
 62
     3
 10
288.92728137999188
 20
123.85456175499981
 30
0.0
 40
1.20052887000004
 50
0.000000000000007
 51
90.0
  0
LINE
  5
36D
  8
OUTLINE
  6
CONTINUOUS
 62
     3
 10
290.12781024999981
 20
61.42706051499988
 30
0.0
 11
290.12781024999981
 21
123.85456175499981
 31
0.0
  0
LINE
  5
36E
  8
OUTLINE
  6
CONTINUOUS
 62
     3
 10
-290.12781024999998
 20
61.42706051499988
 30
0.0
 11
-290.12781024999998
 21
123.85456175499981
 31
0.0
  0
ARC
  5
36F
  8
OUTLINE
  6
CONTINUOUS
 62
     3
 10
-288.9272813800103
 20
123.85456175499981
 30
0.0
 40
1.200528869989814
 50
90.0
 51
180.0
  0
LINE
  5
370
  8
OUTLINE
  6
CONTINUOUS
 62
     3
 10
-285.12560662499999
 20
125.05509062499959
 30
0.0
 11
-288.9272813800103
 21
125.05509062499959
 31
0.0
  0
LINE
  5
371
  8
OUTLINE
  6
CONTINUOUS
 62
     3
 10
-325.1432356250001
 20
-3.0013221750008361
 30
0.0
 11
-310.13662475000001
 21
-6.0026443500006499
 31
0.0
  0
LINE
  5
372
  8
OUTLINE
  6
CONTINUOUS
 62
     3
 10
-334.14720214999647
 20
-40.017629000000063
 30
0.0
 11
-335.14764287500009
 21
-40.017629000000063
 31
0.0
  0
LINE
  5
373
  8
OUTLINE
  6
CONTINUOUS
 62
     3
 10
-310.13662475000001
 20
-35.015425375000291
 30
0.0
 11
-307.63552293750013
 21
-35.015425375000291
 31
0.0
  0
LINE
  5
374
  8
OUTLINE
  6
CONTINUOUS
 62
     3
 10
-310.13662475000001
 20
-6.0026443500006499
 30
0.0
 11
-307.63552293750013
 21
-6.0026443500006499
 31
0.0
  0
LINE
  5
375
  8
OUTLINE
  6
CONTINUOUS
 62
     3
 10
-286.24499659031682
 20
60.0264434999998
 30
0.0
 11
-289.52754581500528
 21
60.0264434999998
 31
0.0
  0
LINE
  5
376
  8
OUTLINE
  6
CONTINUOUS
 62
     3
 10
-290.92816282999928
 20
60.62670793500034
 30
0.0
 11
-299.03173270249431
 21
60.62670793500034
 31
0.0
  0
LINE
  5
377
  8
OUTLINE
  6
CONTINUOUS
 62
     3
 10
-296.83076310750079
 20
61.727192732500612
 30
0.0
 11
-292.42882391749561
 21
61.727192732500612
 31
0.0
  0
LINE
  5
378
  8
OUTLINE
  6
CONTINUOUS
 62
     3
 10
-299.03173270249431
 20
60.0264434999998
 30
0.0
 11
-290.9200600169645
 21
60.026466938324241
 31
0.0
  0
LINE
  5
379
  8
OUTLINE
  6
CONTINUOUS
 62
     3
 10
-290.9200600169645
 20
60.626748953068599
 30
0.0
 11
-290.92816282999928
 21
60.62670793500034
 31
0.0
  0
LINE
  5
37A
  8
OUTLINE
  6
CONTINUOUS
 62
     3
 10
-324.96593847564668
 20
-3.0367816044723659
 30
0.0
 11
-324.9306527621917
 21
-3.028626527910204
 31
0.0
  0
LINE
  5
37B
  8
OUTLINE
  6
CONTINUOUS
 62
     3
 10
-324.9306527621917
 20
-3.028626527910204
 30
0.0
 11
-324.89358103845888
 21
-3.021506228197381
 31
0.0
  0
LINE
  5
37C
  8
OUTLINE
  6
CONTINUOUS
 62
     3
 10
-324.89358103845888
 20
-3.021506228197381
 30
0.0
 11
-324.85457162961171
 21
-3.0154064350518861
 31
0.0
  0
LINE
  5
37D
  8
OUTLINE
  6
CONTINUOUS
 62
     3
 10
-324.85457162961171
 20
-3.0154064350518861
 30
0.0
 11
-324.81407955910481
 21
-3.0103699598295171
 31
0.0
  0
LINE
  5
37E
  8
OUTLINE
  6
CONTINUOUS
 62
     3
 10
-324.81407955910481
 20
-3.0103699598295171
 30
0.0
 11
-324.77242919832838
 21
-3.006431962018381
 31
0.0
  0
LINE
  5
37F
  8
OUTLINE
  6
CONTINUOUS
 62
     3
 10
-325.1432356250001
 20
-0.5002203625009543
 30
0.0
 11
-324.64301526250739
 21
-0.0000000000001137
 31
0.0
  0
LINE
  5
380
  8
OUTLINE
  6
CONTINUOUS
 62
     3
 10
-288.17974293275012
 20
60.023872822536653
 30
0.0
 11
-289.22746352999991
 21
-0.0000000000001137
 31
0.0
  0
LINE
  5
381
  8
OUTLINE
  6
CONTINUOUS
 62
     3
 10
-289.52754581500528
 20
61.342983189844169
 30
0.0
 11
-289.52754581500528
 21
60.0264434999998
 31
0.0
  0
LINE
  5
382
  8
OUTLINE
  6
CONTINUOUS
 62
     3
 10
-292.42882391749561
 20
61.468719653635041
 30
0.0
 11
-292.42882391749561
 21
61.727192732500612
 31
0.0
  0
LINE
  5
383
  8
OUTLINE
  6
CONTINUOUS
 62
     3
 10
-296.83076310750079
 20
61.226972369999999
 30
0.0
 11
-296.83076310750079
 21
61.727192732500612
 31
0.0
  0
LINE
  5
384
  8
OUTLINE
  6
CONTINUOUS
 62
     3
 10
-299.03173270249431
 20
60.0264434999998
 30
0.0
 11
-299.03173270249431
 21
60.62670793500034
 31
0.0
  0
LINE
  5
385
  8
OUTLINE
  6
CONTINUOUS
 62
     3
 10
-303.63376003750358
 20
-40.017629000000063
 30
0.0
 11
-303.63376003750358
 21
-10.004407250000099
 31
0.0
  0
LINE
  5
386
  8
OUTLINE
  6
CONTINUOUS
 62
     3
 10
-306.13486185000369
 20
-40.017629000000063
 30
0.0
 11
-306.13486185000369
 21
-10.004407250000099
 31
0.0
  0
LINE
  5
387
  8
OUTLINE
  6
CONTINUOUS
 62
     3
 10
-307.63552293750013
 20
-35.015425375000291
 30
0.0
 11
-307.63552293750013
 21
-6.0026443500006499
 31
0.0
  0
LINE
  5
388
  8
OUTLINE
  6
CONTINUOUS
 62
     3
 10
-310.13662475000001
 20
-6.0026443500006499
 30
0.0
 11
-310.13662475000001
 21
-35.015425375000291
 31
0.0
  0
LINE
  5
389
  8
OUTLINE
  6
CONTINUOUS
 62
     3
 10
-325.1432356250001
 20
-3.0013221750008361
 30
0.0
 11
-325.1432356250001
 21
-0.5002203625009543
 31
0.0
  0
LINE
  5
38A
  8
OUTLINE
  6
CONTINUOUS
 62
     3
 10
-335.14764287500009
 20
-44.019391899999952
 30
0.0
 11
-335.14764287500009
 21
-40.017629000000063
 31
0.0
  0
ARC
  5
38B
  8
OUTLINE
  6
CONTINUOUS
 62
     3
 10
-287.96435718219249
 20
90.039665249999715
 30
0.0
 40
2.563629357812359
 50
147.5846574803974
 51
212.4153425196026
  0
ARC
  5
38C
  8
OUTLINE
  6
CONTINUOUS
 62
     3
 10
-290.92816282999928
 20
61.42706051499988
 30
0.0
 40
1.400617014994177
 50
270.33146790087739
 51
0.000000000000007
  0
ARC
  5
38D
  8
OUTLINE
  6
CONTINUOUS
 62
     3
 10
-290.92816282999928
 20
61.42706051499988
 30
0.0
 40
0.8003525799992795
 50
270.58007550043789
 51
0.000000000000007
  0
ARC
  5
38E
  8
OUTLINE
  6
CONTINUOUS
 62
     3
 10
-297.43102754249571
 20
61.226972369999999
 30
0.0
 40
0.6002644349948977
 50
270.0
 51
0.000000000000007
  0
ARC
  5
38F
  8
OUTLINE
  6
CONTINUOUS
 62
     3
 10
-334.14720214999647
 20
-44.019391899999952
 30
0.0
 40
1.0004407250002201
 50
180.0
 51
270.0
  0
LINE
  5
390
  8
OUTLINE
  6
CONTINUOUS
 62
     3
 10
-97.542970687500215
 20
-6.0026443500006499
 30
0.0
 11
-93.541207787503723
 21
-6.0026443500006499
 31
0.0
  0
LINE
  5
391
  8
OUTLINE
  6
CONTINUOUS
 62
     3
 10
289.52754581500528
 20
61.342983189844169
 30
0.0
 11
289.52754581500528
 21
60.0264434999998
 31
0.0
  0
ARC
  5
392
  8
OUTLINE
  6
CONTINUOUS
 62
     3
 10
287.96435718219249
 20
90.039665249999715
 30
0.0
 40
2.563629357812359
 50
327.58465748039742
 51
32.415342519602611
  0
LINE
  5
393
  8
OUTLINE
  6
CONTINUOUS
 62
     3
 10
299.03173270249403
 20
60.0264434999998
 30
0.0
 11
299.03173270249403
 21
60.62670793500034
 31
0.0
  0
LINE
  5
394
  8
OUTLINE
  6
CONTINUOUS
 62
     3
 10
296.83076310750062
 20
61.727192732500612
 30
0.0
 11
296.83076310750062
 21
61.226972369999999
 31
0.0
  0
LINE
  5
395
  8
OUTLINE
  6
CONTINUOUS
 62
     3
 10
292.42882391749549
 20
61.727192732500612
 30
0.0
 11
292.42882391749549
 21
61.468719653635041
 31
0.0
  0
LINE
  5
396
  8
OUTLINE
  6
CONTINUOUS
 62
     3
 10
289.55205108032919
 20
61.16620715604892
 30
0.0
 11
289.53438591877722
 21
61.293928342171398
 31
0.0
  0
LINE
  5
397
  8
OUTLINE
  6
CONTINUOUS
 62
     3
 10
289.53438591877722
 20
61.293928342171398
 30
0.0
 11
289.52754581500528
 21
61.42706051499988
 31
0.0
  0
LINE
  5
398
  8
OUTLINE
  6
CONTINUOUS
 62
     3
 10
290.12781024999981
 20
63.769733321135043
 30
0.0
 11
293.27083563614269
 21
60.62670793500034
 31
0.0
  0
LINE
  5
399
  8
OUTLINE
  6
CONTINUOUS
 62
     3
 10
299.03173270249403
 20
60.0264434999998
 30
0.0
 11
290.79503188520812
 21
60.033283353165061
 31
0.0
  0
LINE
  5
39A
  8
OUTLINE
  6
CONTINUOUS
 62
     3
 10
299.03173270249403
 20
60.62670793500034
 30
0.0
 11
290.92816282999911
 21
60.62670793500034
 31
0.0
  0
LINE
  5
39B
  8
OUTLINE
  6
CONTINUOUS
 62
     3
 10
296.83076310750062
 20
61.727192732500612
 30
0.0
 11
292.42882391749549
 21
61.727192732500612
 31
0.0
  0
LINE
  5
39C
  8
OUTLINE
  6
CONTINUOUS
 62
     3
 10
290.79503188520812
 20
60.033283353165061
 30
0.0
 11
290.66731098471911
 21
60.050948478698842
 31
0.0
  0
LINE
  5
39D
  8
OUTLINE
  6
CONTINUOUS
 62
     3
 10
290.66731098471911
 20
60.050948478698842
 30
0.0
 11
290.54481645508918
 21
60.079898238461617
 31
0.0
  0
LINE
  5
39E
  8
OUTLINE
  6
CONTINUOUS
 62
     3
 10
290.54481645508918
 20
60.079898238461617
 30
0.0
 11
290.42809931710087
 21
60.118754547362762
 31
0.0
  0
LINE
  5
39F
  8
OUTLINE
  6
CONTINUOUS
 62
     3
 10
290.42809931710087
 20
60.118754547362762
 30
0.0
 11
290.31775785527788
 21
60.166370830304793
 31
0.0
  0
LINE
  5
3A0
  8
OUTLINE
  6
CONTINUOUS
 62
     3
 10
290.31775785527788
 20
60.166370830304793
 30
0.0
 11
290.21346660226072
 21
60.22251191718567
 31
0.0
  0
LINE
  5
3A1
  8
OUTLINE
  6
CONTINUOUS
 62
     3
 10
290.21346660226072
 20
60.22251191718567
 30
0.0
 11
290.11483728451282
 21
60.2868087094065
 31
0.0
  0
LINE
  5
3A2
  8
OUTLINE
  6
CONTINUOUS
 62
     3
 10
290.11483728451282
 20
60.2868087094065
 30
0.0
 11
290.02265660106599
 21
60.35851641586202
 31
0.0
  0
LINE
  5
3A3
  8
OUTLINE
  6
CONTINUOUS
 62
     3
 10
290.02265660106599
 20
60.35851641586202
 30
0.0
 11
289.93770918212249
 21
60.436613657606017
 31
0.0
  0
LINE
  5
3A4
  8
OUTLINE
  6
CONTINUOUS
 62
     3
 10
289.93770918212249
 20
60.436613657606017
 30
0.0
 11
289.85961295581137
 21
60.521561100575923
 31
0.0
  0
LINE
  5
3A5
  8
OUTLINE
  6
CONTINUOUS
 62
     3
 10
289.85961295581137
 20
60.521561100575923
 30
0.0
 11
289.78790724224001
 21
60.613740043243411
 31
0.0
  0
LINE
  5
3A6
  8
OUTLINE
  6
CONTINUOUS
 62
     3
 10
289.78790724224001
 20
60.613740043243411
 30
0.0
 11
289.72361249442321
 21
60.712367216556117
 31
0.0
  0
LINE
  5
3A7
  8
OUTLINE
  6
CONTINUOUS
 62
     3
 10
289.72361249442321
 20
60.712367216556117
 30
0.0
 11
289.6674723509509
 21
60.816657274543893
 31
0.0
  0
LINE
  5
3A8
  8
OUTLINE
  6
CONTINUOUS
 62
     3
 10
289.6674723509509
 20
60.816657274543893
 30
0.0
 11
289.6198565782463
 21
60.926997744923142
 31
0.0
  0
LINE
  5
3A9
  8
OUTLINE
  6
CONTINUOUS
 62
     3
 10
289.6198565782463
 20
60.926997744923142
 30
0.0
 11
289.58100066351722
 21
61.043713523324968
 31
0.0
  0
LINE
  5
3AA
  8
OUTLINE
  6
CONTINUOUS
 62
     3
 10
289.58100066351722
 20
61.043713523324968
 30
0.0
 11
289.55205108032919
 21
61.16620715604892
 31
0.0
  0
LINE
  5
3AB
  8
OUTLINE
  6
CONTINUOUS
 62
     3
 10
290.92816282999911
 20
60.0264434999998
 30
0.0
 11
290.79503188520812
 21
60.033283353165061
 31
0.0
  0
LINE
  5
3AC
  8
OUTLINE
  6
CONTINUOUS
 62
     3
 10
-290.12781024999998
 20
63.769733321135043
 30
0.0
 11
-293.27083563614292
 21
60.62670793500034
 31
0.0
  0
ARC
  5
3AD
  8
OUTLINE
  6
CONTINUOUS
 62
     3
 10
290.92816282999911
 20
61.42706051499988
 30
0.0
 40
1.4006170150006989
 50
180.0
 51
269.66853209912261
  0
ARC
  5
3AE
  8
OUTLINE
  6
CONTINUOUS
 62
     3
 10
297.43102754249549
 20
61.226972369999999
 30
0.0
 40
0.6002644349994597
 50
180.0
 51
270.0
  0
LINE
  5
3AF
  8
OUTLINE
  6
CONTINUOUS
 62
     3
 10
-306.13486185000369
 20
-10.004407250000099
 30
0.0
 11
-303.63376003750358
 21
-10.004407250000099
 31
0.0
  0
LINE
  5
3B0
  8
OUTLINE
  6
CONTINUOUS
 62
     3
 10
335.14764287499969
 20
-44.019391899999952
 30
0.0
 11
335.14764287499969
 21
-40.017629000000063
 31
0.0
  0
LINE
  5
3B1
  8
OUTLINE
  6
CONTINUOUS
 62
     3
 10
325.14323562499982
 20
-3.0013221750008361
 30
0.0
 11
325.14323562499982
 21
-0.5002203625009543
 31
0.0
  0
LINE
  5
3B2
  8
OUTLINE
  6
CONTINUOUS
 62
     3
 10
310.13662474999973
 20
-6.0026443500006499
 30
0.0
 11
310.13662474999973
 21
-35.015425375000291
 31
0.0
  0
LINE
  5
3B3
  8
OUTLINE
  6
CONTINUOUS
 62
     3
 10
307.6355229374999
 20
-35.015425375000291
 30
0.0
 11
307.6355229374999
 21
-6.0026443500006499
 31
0.0
  0
LINE
  5
3B4
  8
OUTLINE
  6
CONTINUOUS
 62
     3
 10
306.13486185000352
 20
-40.017629000000063
 30
0.0
 11
306.13486185000352
 21
-10.004407250000099
 31
0.0
  0
LINE
  5
3B5
  8
OUTLINE
  6
CONTINUOUS
 62
     3
 10
303.63376003750341
 20
-40.017629000000063
 30
0.0
 11
303.63376003750341
 21
-10.004407250000099
 31
0.0
  0
LINE
  5
3B6
  8
OUTLINE
  6
CONTINUOUS
 62
     3
 10
288.17974293274972
 20
60.023872822536653
 30
0.0
 11
289.22746352999962
 21
-0.0000000000001137
 31
0.0
  0
LINE
  5
3B7
  8
OUTLINE
  6
CONTINUOUS
 62
     3
 10
325.14323562499982
 20
-0.5002203625009543
 30
0.0
 11
324.64301526250688
 21
-0.0000000000001137
 31
0.0
  0
LINE
  5
3B8
  8
OUTLINE
  6
CONTINUOUS
 62
     3
 10
325.14323562499982
 20
-3.0013221750008361
 30
0.0
 11
310.13662474999973
 21
-6.0026443500006499
 31
0.0
  0
LINE
  5
3B9
  8
OUTLINE
  6
CONTINUOUS
 62
     3
 10
-334.14720214999647
 20
-45.019832625000276
 30
0.0
 11
334.14720214999619
 21
-45.019832625000276
 31
0.0
  0
LINE
  5
3BA
  8
OUTLINE
  6
CONTINUOUS
 62
     3
 10
335.14764287499969
 20
-40.017629000000063
 30
0.0
 11
-334.14720214999647
 21
-40.017629000000063
 31
0.0
  0
LINE
  5
3BB
  8
OUTLINE
  6
CONTINUOUS
 62
     3
 10
307.6355229374999
 20
-35.015425375000291
 30
0.0
 11
310.13662474999973
 21
-35.015425375000291
 31
0.0
  0
LINE
  5
3BC
  8
OUTLINE
  6
CONTINUOUS
 62
     3
 10
310.13662474999973
 20
-6.0026443500006499
 30
0.0
 11
-307.63552293750013
 21
-6.0026443500006499
 31
0.0
  0
LINE
  5
3BD
  8
OUTLINE
  6
CONTINUOUS
 62
     3
 10
324.64301526250688
 20
-0.0000000000001137
 30
0.0
 11
-324.64301526250739
 21
-0.0000000000001137
 31
0.0
  0
LINE
  5
3BE
  8
OUTLINE
  6
CONTINUOUS
 62
     3
 10
324.96593847562849
 20
-3.0367816044723659
 30
0.0
 11
324.93065276219141
 21
-3.028626527910204
 31
0.0
  0
LINE
  5
3BF
  8
OUTLINE
  6
CONTINUOUS
 62
     3
 10
324.93065276219141
 20
-3.028626527910204
 30
0.0
 11
324.89358103845882
 21
-3.021506228197381
 31
0.0
  0
LINE
  5
3C0
  8
OUTLINE
  6
CONTINUOUS
 62
     3
 10
324.89358103845882
 20
-3.021506228197381
 30
0.0
 11
324.85457162961143
 21
-3.0154064350518861
 31
0.0
  0
LINE
  5
3C1
  8
OUTLINE
  6
CONTINUOUS
 62
     3
 10
324.85457162961143
 20
-3.0154064350518861
 30
0.0
 11
324.81407955910458
 21
-3.0103699598295171
 31
0.0
  0
LINE
  5
3C2
  8
OUTLINE
  6
CONTINUOUS
 62
     3
 10
324.81407955910458
 20
-3.0103699598295171
 30
0.0
 11
324.77242919883747
 21
-3.006431962018381
 31
0.0
  0
LINE
  5
3C3
  8
OUTLINE
  6
CONTINUOUS
 62
     3
 10
324.77242919883747
 20
-3.006431962018381
 30
0.0
 11
324.72986082765527
 21
-3.003601127949536
 31
0.0
  0
LINE
  5
3C4
  8
OUTLINE
  6
CONTINUOUS
 62
     3
 10
324.72986082765527
 20
-3.003601127949536
 30
0.0
 11
324.68676639922069
 21
-3.0019004167344279
 31
0.0
  0
LINE
  5
3C5
  8
OUTLINE
  6
CONTINUOUS
 62
     3
 10
324.68676639922069
 20
-3.0019004167344279
 30
0.0
 11
324.64301526250688
 21
-3.0013221750008361
 31
0.0
  0
ARC
  5
3C6
  8
OUTLINE
  6
CONTINUOUS
 62
     3
 10
334.14720214999619
 20
-44.019391899999952
 30
0.0
 40
1.000440725003642
 50
270.0
 51
0.000000000000007
  0
LINE
  5
3C7
  8
OUTLINE
  6
CONTINUOUS
 62
     3
 10
306.13486185000352
 20
-10.004407250000099
 30
0.0
 11
303.63376003750341
 21
-10.004407250000099
 31
0.0
  0
LINE
  5
3C8
  8
OUTLINE
  6
CONTINUOUS
 62
     3
 10
289.52754634832951
 20
60.024192097428887
 30
0.0
 11
288.17974293274972
 21
60.023872822536653
 31
0.0
  0
CIRCLE
  5
3C9
  8
ARRANGE
  6
CONTINUOUS
 62
     1
 10
0.0
 20
0.0000000000000568
 30
0.0
 40
40.0
  0
LINE
  5
3CA
  8
SIZE
  6
CONTINUOUS
 62
    30
 10
-407.17937507500682
 20
412.27280827250007
 30
0.0
 11
-407.17937507500682
 21
495.99479223419081
 31
0.0
  0
LINE
  5
3CB
  8
SIZE
  6
CONTINUOUS
 62
    30
 10
407.17937507500739
 20
412.27280827250007
 30
0.0
 11
407.17937507500739
 21
495.99479223419081
 31
0.0
  0
LINE
  5
3CC
  8
SIZE
  6
CONTINUOUS
 62
    30
 10
-395.17937507500687
 20
475.99479223419081
 30
0.0
 11
395.17937507500739
 21
475.99479223419081
 31
0.0
  0
CIRCLE
  5
3CD
  8
SIZE
  6
CONTINUOUS
 62
    30
 10
-407.17937507500682
 20
475.99479223419081
 30
0.0
 40
6.0
  0
LINE
  5
3CE
  8
SIZE
  6
CONTINUOUS
 62
    30
 10
-407.17937507500682
 20
475.99479223419081
 30
0.0
 11
-395.17937507500687
 21
475.99479223419081
 31
0.0
  0
CIRCLE
  5
3CF
  8
SIZE
  6
CONTINUOUS
 62
    30
 10
407.17937507500739
 20
475.99479223419081
 30
0.0
 40
6.0
  0
LINE
  5
3D0
  8
SIZE
  6
CONTINUOUS
 62
    30
 10
407.17937507500739
 20
475.99479223419081
 30
0.0
 11
395.17937507500739
 21
475.99479223419081
 31
0.0
  0
TEXT
  5
3D1
  8
SIZE
  6
CONTINUOUS
 62
    30
 10
-69.942857142856866
 20
500.99479223419081
 30
0.0
 40
64.0
  1
814
 41
0.9
 72
     1
 11
0.0000000000002842
 21
500.99479223419081
 31
0.0
  0
POINT
  5
3D2
  8
DEFPOINTS
  6
CONTINUOUS
 62
    30
 10
-407.17937507500682
 20
392.27280827250007
 30
0.0
  0
POINT
  5
3D3
  8
DEFPOINTS
  6
CONTINUOUS
 62
    30
 10
407.17937507500739
 20
392.27280827250007
 30
0.0
  0
POINT
  5
3D4
  8
DEFPOINTS
  6
CONTINUOUS
 62
    30
 10
407.17937507500739
 20
475.99479223419081
 30
0.0
  0
LINE
  5
3D5
  8
SIZE
  6
CONTINUOUS
 62
    30
 10
-425.66870958025851
 20
393.17320492500062
 30
0.0
 11
-566.63672973383279
 21
393.17320492500062
 31
0.0
  0
LINE
  5
3D6
  8
SIZE
  6
CONTINUOUS
 62
    30
 10
-500.49999300499161
 20
275.42133159250079
 30
0.0
 11
-566.63672973383279
 21
275.42133159250079
 31
0.0
  0
LINE
  5
3D7
  8
SIZE
  6
CONTINUOUS
 62
    30
 10
-546.63672973383279
 20
381.17320492500062
 30
0.0
 11
-546.63672973383279
 21
287.42133159250079
 31
0.0
  0
CIRCLE
  5
3D8
  8
SIZE
  6
CONTINUOUS
 62
    30
 10
-546.63672973383279
 20
393.17320492500062
 30
0.0
 40
6.0
  0
LINE
  5
3D9
  8
SIZE
  6
CONTINUOUS
 62
    30
 10
-546.63672973383279
 20
393.17320492500062
 30
0.0
 11
-546.63672973383279
 21
381.17320492500062
 31
0.0
  0
CIRCLE
  5
3DA
  8
SIZE
  6
CONTINUOUS
 62
    30
 10
-546.63672973383279
 20
275.42133159250079
 30
0.0
 40
6.0
  0
LINE
  5
3DB
  8
SIZE
  6
CONTINUOUS
 62
    30
 10
-546.63672973383279
 20
275.42133159250079
 30
0.0
 11
-546.63672973383279
 21
287.42133159250079
 31
0.0
  0
TEXT
  5
3DC
  8
SIZE
  6
CONTINUOUS
 62
    30
 10
-571.63672973383291
 20
271.2115539730363
 30
0.0
 40
64.0
  1
118
 50
90.0
 41
0.9
 72
     1
 11
-571.63672973383291
 21
334.29726825875059
 31
0.0
  0
POINT
  5
3DD
  8
DEFPOINTS
  6
CONTINUOUS
 62
    30
 10
-405.66870958025851
 20
393.17320492500062
 30
0.0
  0
POINT
  5
3DE
  8
DEFPOINTS
  6
CONTINUOUS
 62
    30
 10
-480.49999300499161
 20
275.42133159250079
 30
0.0
  0
POINT
  5
3DF
  8
DEFPOINTS
  6
CONTINUOUS
 62
    30
 10
-546.63672973383279
 20
275.42133159250079
 30
0.0
  0
LINE
  5
3E0
  8
SIZE
  6
CONTINUOUS
 62
    30
 10
425.66870958025908
 20
393.17320492500062
 30
0.0
 11
729.79789309390435
 21
393.17320492500062
 31
0.0
  0
LINE
  5
3E1
  8
SIZE
  6
CONTINUOUS
 62
    30
 10
425.9788462049994
 20
124.9550465525012
 30
0.0
 11
729.79789309390435
 21
124.9550465525012
 31
0.0
  0
LINE
  5
3E2
  8
SIZE
  6
CONTINUOUS
 62
    30
 10
709.79789309390458
 20
381.17320492500062
 30
0.0
 11
709.79789309390435
 21
136.9550465525011
 31
0.0
  0
CIRCLE
  5
3E3
  8
SIZE
  6
CONTINUOUS
 62
    30
 10
709.79789309390458
 20
393.17320492500062
 30
0.0
 40
6.0
  0
LINE
  5
3E4
  8
SIZE
  6
CONTINUOUS
 62
    30
 10
709.79789309390458
 20
393.17320492500062
 30
0.0
 11
709.79789309390458
 21
381.17320492500062
 31
0.0
  0
CIRCLE
  5
3E5
  8
SIZE
  6
CONTINUOUS
 62
    30
 10
709.79789309390435
 20
124.9550465525012
 30
0.0
 40
6.0
  0
LINE
  5
3E6
  8
SIZE
  6
CONTINUOUS
 62
    30
 10
709.79789309390435
 20
124.9550465525012
 30
0.0
 11
709.79789309390435
 21
136.95504655250119
 31
0.0
  0
TEXT
  5
3E7
  8
SIZE
  6
CONTINUOUS
 62
    30
 10
684.79789309390435
 20
185.00698288160811
 30
0.0
 40
64.0
  1
268
 50
90.0
 41
0.9
 72
     1
 11
684.79789309390435
 21
259.06412573875087
 31
0.0
  0
POINT
  5
3E8
  8
DEFPOINTS
  6
CONTINUOUS
 62
    30
 10
405.66870958025902
 20
393.17320492500062
 30
0.0
  0
POINT
  5
3E9
  8
DEFPOINTS
  6
CONTINUOUS
 62
    30
 10
405.97884620499929
 20
124.9550465525012
 30
0.0
  0
POINT
  5
3EA
  8
DEFPOINTS
  6
CONTINUOUS
 62
    30
 10
709.79789309390435
 20
124.9550465525012
 30
0.0
  0
LINE
  5
3EB
  8
SIZE
  6
CONTINUOUS
 62
    30
 10
454.00000100499147
 20
225.9213405925008
 30
0.0
 11
454.00000100499147
 21
-201.23365733660009
 31
0.0
  0
LINE
  5
3EC
  8
SIZE
  6
CONTINUOUS
 62
    30
 10
-0.0000000000000012
 20
-95.382918050122512
 30
0.0
 11
-0.0000000000000077
 21
-201.23365733660009
 31
0.0
  0
LINE
  5
3ED
  8
SIZE
  6
CONTINUOUS
 62
    30
 10
442.00000100499159
 20
-181.2336573366
 30
0.0
 11
11.999999999999989
 21
-181.2336573366
 31
0.0
  0
CIRCLE
  5
3EE
  8
SIZE
  6
CONTINUOUS
 62
    30
 10
454.00000100499147
 20
-181.2336573366
 30
0.0
 40
6.0
  0
LINE
  5
3EF
  8
SIZE
  6
CONTINUOUS
 62
    30
 10
454.00000100499147
 20
-181.2336573366
 30
0.0
 11
442.00000100499159
 21
-181.2336573366
 31
0.0
  0
CIRCLE
  5
3F0
  8
SIZE
  6
CONTINUOUS
 62
    30
 10
-0.0000000000000065
 20
-181.2336573366
 30
0.0
 40
6.0
  0
LINE
  5
3F1
  8
SIZE
  6
CONTINUOUS
 62
    30
 10
-0.0000000000000065
 20
-181.2336573366
 30
0.0
 11
11.999999999999989
 21
-181.2336573366
 31
0.0
  0
TEXT
  5
3F2
  8
SIZE
  6
CONTINUOUS
 62
    30
 10
151.57142907392441
 20
-156.23365733660009
 30
0.0
 40
64.0
  1
454
 41
0.9
 72
     1
 11
227.00000050249591
 21
-156.23365733660009
 31
0.0
  0
POINT
  5
3F3
  8
DEFPOINTS
  6
CONTINUOUS
 62
    30
 10
454.00000100499147
 20
245.9213405925008
 30
0.0
  0
POINT
  5
3F4
  8
DEFPOINTS
  6
CONTINUOUS
 62
    30
 10
0.0
 20
-75.382918050122484
 30
0.0
  0
POINT
  5
3F5
  8
DEFPOINTS
  6
CONTINUOUS
 62
    30
 10
-0.0000000000000065
 20
-181.2336573366
 30
0.0
  0
LINE
  5
3F6
  8
SIZE
  6
CONTINUOUS
 62
    30
 10
-335.14764287499992
 20
-64.01939189999996
 30
0.0
 11
-335.14764287499992
 21
-343.71679905448678
 31
0.0
  0
LINE
  5
3F7
  8
SIZE
  6
CONTINUOUS
 62
    30
 10
335.14764287500009
 20
-64.01939189999996
 30
0.0
 11
335.14764287500009
 21
-343.71679905448678
 31
0.0
  0
LINE
  5
3F8
  8
SIZE
  6
CONTINUOUS
 62
    30
 10
-323.14764287499992
 20
-323.71679905448673
 30
0.0
 11
323.14764287500009
 21
-323.71679905448673
 31
0.0
  0
CIRCLE
  5
3F9
  8
SIZE
  6
CONTINUOUS
 62
    30
 10
-335.14764287499992
 20
-323.71679905448673
 30
0.0
 40
6.0
  0
LINE
  5
3FA
  8
SIZE
  6
CONTINUOUS
 62
    30
 10
-335.14764287499992
 20
-323.71679905448673
 30
0.0
 11
-323.14764287499992
 21
-323.71679905448673
 31
0.0
  0
CIRCLE
  5
3FB
  8
SIZE
  6
CONTINUOUS
 62
    30
 10
335.14764287500009
 20
-323.71679905448673
 30
0.0
 40
6.0
  0
LINE
  5
3FC
  8
SIZE
  6
CONTINUOUS
 62
    30
 10
335.14764287500009
 20
-323.71679905448673
 30
0.0
 11
323.14764287500009
 21
-323.71679905448673
 31
0.0
  0
TEXT
  5
3FD
  8
SIZE
  6
CONTINUOUS
 62
    30
 10
-74.057142857142708
 20
-298.71679905448673
 30
0.0
 40
64.0
  1
670
 41
0.9
 72
     1
 11
0.0000000000001421
 21
-298.71679905448673
 31
0.0
  0
POINT
  5
3FE
  8
DEFPOINTS
  6
CONTINUOUS
 62
    30
 10
-335.14764287499992
 20
-44.019391899999952
 30
0.0
  0
POINT
  5
3FF
  8
DEFPOINTS
  6
CONTINUOUS
 62
    30
 10
335.14764287500009
 20
-44.019391899999952
 30
0.0
  0
POINT
  5
400
  8
DEFPOINTS
  6
CONTINUOUS
 62
    30
 10
335.14764287500009
 20
-323.71679905448673
 30
0.0
  0
LINE
  5
401
  8
SIZE
  6
CONTINUOUS
 62
    30
 10
-364.64301526250671
 20
0.0000000000000816
 30
0.0
 11
-408.27008730341191
 21
0.0000000000000939
 31
0.0
  0
LINE
  5
402
  8
SIZE
  6
CONTINUOUS
 62
    30
 10
-354.14720214999619
 20
-45.019832625000269
 30
0.0
 11
-408.27008730341191
 21
-45.019832625000248
 31
0.0
  0
LINE
  5
403
  8
SIZE
  6
CONTINUOUS
 62
    30
 10
-388.27008730341203
 20
12.000000000000091
 30
0.0
 11
-388.27008730341203
 21
24.000000000000089
 31
0.0
  0
LINE
  5
404
  8
SIZE
  6
CONTINUOUS
 62
    30
 10
-388.27008730341203
 20
-57.019832625000248
 30
0.0
 11
-388.27008730341203
 21
-69.019832625000262
 31
0.0
  0
LINE
  5
405
  8
SIZE
  6
CONTINUOUS
 62
    30
 10
-388.27008730341203
 20
0.0000000000000883
 30
0.0
 11
-388.27008730341203
 21
-45.019832625000248
 31
0.0
  0
CIRCLE
  5
406
  8
SIZE
  6
CONTINUOUS
 62
    30
 10
-388.27008730341203
 20
0.0000000000000883
 30
0.0
 40
6.0
  0
LINE
  5
407
  8
SIZE
  6
CONTINUOUS
 62
    30
 10
-388.27008730341203
 20
0.0000000000000883
 30
0.0
 11
-388.27008730341203
 21
12.000000000000091
 31
0.0
  0
CIRCLE
  5
408
  8
SIZE
  6
CONTINUOUS
 62
    30
 10
-388.27008730341203
 20
-45.019832625000248
 30
0.0
 40
6.0
  0
LINE
  5
409
  8
SIZE
  6
CONTINUOUS
 62
    30
 10
-388.27008730341203
 20
-45.019832625000248
 30
0.0
 11
-388.27008730341203
 21
-57.019832625000248
 31
0.0
  0
TEXT
  5
40A
  8
SIZE
  6
CONTINUOUS
 62
    30
 10
-413.27008730341191
 20
-69.138487741071543
 30
0.0
 40
64.0
  1
45
 50
90.0
 41
0.9
 72
     1
 11
-413.27008730341191
 21
-22.509916312500138
 31
0.0
  0
POINT
  5
40B
  8
DEFPOINTS
  6
CONTINUOUS
 62
    30
 10
-344.64301526250671
 20
0.0000000000000759
 30
0.0
  0
POINT
  5
40C
  8
DEFPOINTS
  6
CONTINUOUS
 62
    30
 10
-334.14720214999619
 20
-45.019832625000276
 30
0.0
  0
POINT
  5
40D
  8
DEFPOINTS
  6
CONTINUOUS
 62
    30
 10
-388.27008730341203
 20
-45.019832625000248
 30
0.0
  0
LINE
  5
40E
  8
SIZE
  6
CONTINUOUS
 62
    30
 10
364.64301526250739
 20
-0.0000000000000113
 30
0.0
 11
869.75671812527821
 21
-0.0000000000001544
 31
0.0
  0
LINE
  5
40F
  8
SIZE
  6
CONTINUOUS
 62
    30
 10
425.9788462049994
 20
124.9550465525012
 30
0.0
 11
869.75671812527821
 21
124.9550465525011
 31
0.0
  0
LINE
  5
410
  8
SIZE
  6
CONTINUOUS
 62
    30
 10
849.7567181252781
 20
11.999999999999851
 30
0.0
 11
849.7567181252781
 21
112.9550465525011
 31
0.0
  0
LINE
  5
411
  8
SIZE
  6
CONTINUOUS
 62
    30
 10
849.7567181252781
 20
124.9550465525011
 30
0.0
 11
849.75671812527833
 21
1055.8921894096441
 31
0.0
  0
CIRCLE
  5
412
  8
SIZE
  6
CONTINUOUS
 62
    30
 10
849.7567181252781
 20
-0.0000000000001488
 30
0.0
 40
6.0
  0
LINE
  5
413
  8
SIZE
  6
CONTINUOUS
 62
    30
 10
849.7567181252781
 20
-0.0000000000001488
 30
0.0
 11
849.7567181252781
 21
11.999999999999851
 31
0.0
  0
CIRCLE
  5
414
  8
SIZE
  6
CONTINUOUS
 62
    30
 10
849.7567181252781
 20
124.9550465525011
 30
0.0
 40
6.0
  0
LINE
  5
415
  8
SIZE
  6
CONTINUOUS
 62
    30
 10
849.7567181252781
 20
124.9550465525011
 30
0.0
 11
849.7567181252781
 21
112.9550465525011
 31
0.0
  0
TEXT
  5
416
  8
SIZE
  6
CONTINUOUS
 62
    30
 10
824.7567181252781
 20
161.9550465525015
 30
0.0
 40
64.0
  1
高さ調整可能範囲65～125
 50
90.0
 41
0.9
 72
     1
 11
824.7567181252781
 21
596.42361798107265
 31
0.0
  0
POINT
  5
417
  8
DEFPOINTS
  6
CONTINUOUS
 62
    30
 10
344.64301526250739
 20
-0.0000000000000057
 30
0.0
  0
POINT
  5
418
  8
DEFPOINTS
  6
CONTINUOUS
 62
    30
 10
405.97884620499929
 20
124.9550465525012
 30
0.0
  0
POINT
  5
419
  8
DEFPOINTS
  6
CONTINUOUS
 62
    30
 10
849.7567181252781
 20
124.9550465525011
 30
0.0
  0
LINE
  5
41A
  8
SIZE
  6
CONTINUOUS
 62
    30
 10
-474.00881550499167
 20
295.42133159250079
 30
0.0
 11
-474.00881550499167
 21
654.35672928088013
 31
0.0
  0
LINE
  5
41B
  8
SIZE
  6
CONTINUOUS
 62
    30
 10
-454.00000100499147
 20
321.92132359250081
 30
0.0
 11
-454.00000100499147
 21
654.35672928088013
 31
0.0
  0
LINE
  5
41C
  8
SIZE
  6
CONTINUOUS
 62
    30
 10
-486.00881550499167
 20
634.35672928088013
 30
0.0
 11
-498.00881550499179
 21
634.35672928088013
 31
0.0
  0
LINE
  5
41D
  8
SIZE
  6
CONTINUOUS
 62
    30
 10
-442.00000100499159
 20
634.35672928088013
 30
0.0
 11
-430.00000100499159
 21
634.35672928088013
 31
0.0
  0
LINE
  5
41E
  8
SIZE
  6
CONTINUOUS
 62
    30
 10
-474.00881550499167
 20
634.35672928088013
 30
0.0
 11
-454.00000100499147
 21
634.35672928088013
 31
0.0
  0
CIRCLE
  5
41F
  8
SIZE
  6
CONTINUOUS
 62
    30
 10
-474.00881550499167
 20
634.35672928088013
 30
0.0
 40
6.0
  0
LINE
  5
420
  8
SIZE
  6
CONTINUOUS
 62
    30
 10
-474.00881550499167
 20
634.35672928088013
 30
0.0
 11
-486.00881550499167
 21
634.35672928088013
 31
0.0
  0
CIRCLE
  5
421
  8
SIZE
  6
CONTINUOUS
 62
    30
 10
-454.00000100499147
 20
634.35672928088013
 30
0.0
 40
6.0
  0
LINE
  5
422
  8
SIZE
  6
CONTINUOUS
 62
    30
 10
-454.00000100499147
 20
634.35672928088013
 30
0.0
 11
-442.00000100499159
 21
634.35672928088013
 31
0.0
  0
TEXT
  5
423
  8
SIZE
  6
CONTINUOUS
 62
    30
 10
-510.63297968356301
 20
659.35672928088013
 30
0.0
 40
64.0
  1
20
 41
0.9
 72
     1
 11
-464.00440825499157
 21
659.35672928088013
 31
0.0
  0
POINT
  5
424
  8
DEFPOINTS
  6
CONTINUOUS
 62
    30
 10
-474.00881550499167
 20
275.42133159250079
 30
0.0
  0
POINT
  5
425
  8
DEFPOINTS
  6
CONTINUOUS
 62
    30
 10
-454.00000100499147
 20
301.92132359250081
 30
0.0
  0
POINT
  5
426
  8
DEFPOINTS
  6
CONTINUOUS
 62
    30
 10
-454.00000100499147
 20
634.35672928088013
 30
0.0
  0
LINE
  5
427
  8
SIZE
  6
CONTINUOUS
 62
    30
 10
-454.00000100499147
 20
321.92132359250081
 30
0.0
 11
-454.00000100499147
 21
654.35672928088013
 31
0.0
  0
LINE
  5
428
  8
SIZE
  6
CONTINUOUS
 62
    30
 10
454.00000100499147
 20
324.92132259250081
 30
0.0
 11
454.00000100499147
 21
654.35672928088013
 31
0.0
  0
LINE
  5
429
  8
SIZE
  6
CONTINUOUS
 62
    30
 10
-442.00000100499159
 20
634.35672928088013
 30
0.0
 11
442.00000100499159
 21
634.35672928088013
 31
0.0
  0
CIRCLE
  5
42A
  8
SIZE
  6
CONTINUOUS
 62
    30
 10
-454.00000100499147
 20
634.35672928088013
 30
0.0
 40
6.0
  0
LINE
  5
42B
  8
SIZE
  6
CONTINUOUS
 62
    30
 10
-454.00000100499147
 20
634.35672928088013
 30
0.0
 11
-442.00000100499159
 21
634.35672928088013
 31
0.0
  0
CIRCLE
  5
42C
  8
SIZE
  6
CONTINUOUS
 62
    30
 10
454.00000100499147
 20
634.35672928088013
 30
0.0
 40
6.0
  0
LINE
  5
42D
  8
SIZE
  6
CONTINUOUS
 62
    30
 10
454.00000100499147
 20
634.35672928088013
 30
0.0
 11
442.00000100499159
 21
634.35672928088013
 31
0.0
  0
TEXT
  5
42E
  8
SIZE
  6
CONTINUOUS
 62
    30
 10
-74.057142857142878
 20
659.35672928088013
 30
0.0
 40
64.0
  1
908
 41
0.9
 72
     1
 11
-0.0000000000000284
 21
659.35672928088013
 31
0.0
  0
POINT
  5
42F
  8
DEFPOINTS
  6
CONTINUOUS
 62
    30
 10
-454.00000100499147
 20
301.92132359250081
 30
0.0
  0
POINT
  5
430
  8
DEFPOINTS
  6
CONTINUOUS
 62
    30
 10
454.00000100499147
 20
304.92132259250081
 30
0.0
  0
POINT
  5
431
  8
DEFPOINTS
  6
CONTINUOUS
 62
    30
 10
454.00000100499147
 20
634.35672928088013
 30
0.0
  0
LINE
  5
432
  8
NOTE
  6
CONTINUOUS
 62
     4
 10
459.5137330387488
 20
264.7630597316446
 30
0.0
 11
695.93775837250814
 21
-192.2543508021827
 31
0.0
  0
LINE
  5
433
  8
NOTE
  6
CONTINUOUS
 62
     4
 10
695.93775837250814
 20
-192.2543508021827
 30
0.0
 11
1348.819649272654
 21
-192.2543508021827
 31
0.0
  0
LINE
  5
434
  8
NOTE
  6
CONTINUOUS
 62
     4
 10
455.32892504931192
 20
269.35349341285013
 30
0.0
 11
454.00000100499147
 21
275.42133159250079
 31
0.0
  0
LINE
  5
435
  8
NOTE
  6
CONTINUOUS
 62
     4
 10
454.00000100499147
 20
275.42133159250079
 30
0.0
 11
458.18480899442829
 21
270.83089791129532
 31
0.0
  0
LINE
  5
436
  8
NOTE
  6
CONTINUOUS
 62
     4
 10
454.00000100499147
 20
275.42133159250079
 30
0.0
 11
459.5137330387488
 21
264.7630597316446
 31
0.0
  0
LINE
  5
437
  8
SIZE
  6
CONTINUOUS
 62
    30
 10
425.66870958025851
 20
393.17320492500062
 30
0.0
 11
605.96942693164794
 21
393.17320492500062
 31
0.0
  0
LINE
  5
438
  8
SIZE
  6
CONTINUOUS
 62
    30
 10
500.4999930049915
 20
275.42133159250079
 30
0.0
 11
605.96942693164794
 21
275.42133159250079
 31
0.0
  0
LINE
  5
439
  8
SIZE
  6
CONTINUOUS
 62
    30
 10
585.96942693164794
 20
287.42133159250079
 30
0.0
 11
585.96942693164794
 21
381.17320492500062
 31
0.0
  0
LINE
  5
43A
  8
SIZE
  6
CONTINUOUS
 62
    30
 10
585.96942693164794
 20
393.17320492500062
 30
0.0
 11
585.96942693164794
 21
581.34463349642886
 31
0.0
  0
CIRCLE
  5
43B
  8
SIZE
  6
CONTINUOUS
 62
    30
 10
585.96942693164794
 20
275.42133159250079
 30
0.0
 40
6.0
  0
LINE
  5
43C
  8
SIZE
  6
CONTINUOUS
 62
    30
 10
585.96942693164794
 20
275.42133159250079
 30
0.0
 11
585.96942693164794
 21
287.42133159250079
 31
0.0
  0
CIRCLE
  5
43D
  8
SIZE
  6
CONTINUOUS
 62
    30
 10
585.96942693164794
 20
393.17320492500062
 30
0.0
 40
6.0
  0
LINE
  5
43E
  8
SIZE
  6
CONTINUOUS
 62
    30
 10
585.96942693164794
 20
393.17320492500062
 30
0.0
 11
585.96942693164794
 21
381.17320492500062
 31
0.0
  0
TEXT
  5
43F
  8
SIZE
  6
CONTINUOUS
 62
    30
 10
560.96942693164783
 20
430.17320492500068
 30
0.0
 40
64.0
  1
118
 50
90.0
 41
0.9
 72
     1
 11
560.96942693164783
 21
493.25891921071502
 31
0.0
  0
POINT
  5
440
  8
DEFPOINTS
  6
CONTINUOUS
 62
    30
 10
405.66870958025851
 20
393.17320492500062
 30
0.0
  0
POINT
  5
441
  8
DEFPOINTS
  6
CONTINUOUS
 62
    30
 10
480.4999930049915
 20
275.42133159250079
 30
0.0
  0
POINT
  5
442
  8
DEFPOINTS
  6
CONTINUOUS
 62
    30
 10
585.96942693164794
 20
275.42133159250079
 30
0.0
  0
ENDSEC
  0
EOF
