  0
SECTION
  2
HEADER
  9
$ACADVER
  1
AC1009
  9
$INSBASE
 10
0.0
 20
0.0
 30
0.0
  9
$EXTMIN
 10
-1233.373
 20
-318.68625900000001
 30
0.0
  9
$EXTMAX
 10
1367.0462845714289
 20
899.27473499999996
 30
0.0
  9
$LIMMIN
 10
-2970.0
 20
-2100.0
  9
$LIMMAX
 10
2970.0
 20
2100.0
  9
$ORTHOMODE
 70
     0
  9
$REGENMODE
 70
     0
  9
$FILLMODE
 70
     1
  9
$QTEXTMODE
 70
     0
  9
$MIRRTEXT
 70
     0
  9
$DRAGMODE
 70
     2
  9
$LTSCALE
 40
20.0
  9
$OSMODE
 70
    55
  9
$ATTMODE
 70
     1
  9
$TEXTSIZE
 40
64.0
  9
$TRACEWID
 40
0.05
  9
$TEXTSTYLE
  7
STANDARD
  9
$CLAYER
  8
0
  9
$CELTYPE
  6
CONTINUOUS
  9
$CECOLOR
 62
     8
  9
$DIMSCALE
 40
1.0
  9
$DIMASZ
 40
2.0
  9
$DIMEXO
 40
20.0
  9
$DIMDLI
 40
200.0
  9
$DIMRND
 40
0.0
  9
$DIMDLE
 40
0.0
  9
$DIMEXE
 40
30.0
  9
$DIMTP
 40
0.0
  9
$DIMTM
 40
0.0
  9
$DIMTXT
 40
64.0
  9
$DIMCEN
 40
0.09
  9
$DIMTSZ
 40
0.0
  9
$DIMTOL
 70
     0
  9
$DIMLIM
 70
     0
  9
$DIMTIH
 70
     0
  9
$DIMTOH
 70
     0
  9
$DIMSE1
 70
     0
  9
$DIMSE2
 70
     0
  9
$DIMTAD
 70
     1
  9
$DIMZIN
 70
     8
  9
$DIMBLK
  1

  9
$DIMASO
 70
     1
  9
$DIMSHO
 70
     0
  9
$DIMPOST
  1

  9
$DIMAPOST
  1

  9
$DIMALT
 70
     0
  9
$DIMALTD
 70
     2
  9
$DIMALTF
 40
25.399999999999999
  9
$DIMLFAC
 40
1.0
  9
$DIMTOFL
 70
     1
  9
$DIMTVP
 40
0.0
  9
$DIMTIX
 70
     1
  9
$DIMSOXD
 70
     0
  9
$DIMSAH
 70
     0
  9
$DIMBLK1
  1

  9
$DIMBLK2
  1

  9
$DIMSTYLE
  2
STANDARD
  9
$DIMCLRD
 70
     0
  9
$DIMCLRE
 70
     0
  9
$DIMCLRT
 70
     0
  9
$DIMTFAC
 40
1.0
  9
$DIMGAP
 40
0.09
  9
$LUNITS
 70
     2
  9
$LUPREC
 70
     4
  9
$SKETCHINC
 40
0.1
  9
$FILLETRAD
 40
30.0
  9
$AUNITS
 70
     1
  9
$AUPREC
 70
     3
  9
$MENU
  1
ACAD
  9
$ELEVATION
 40
0.0
  9
$PELEVATION
 40
0.0
  9
$THICKNESS
 40
0.0
  9
$LIMCHECK
 70
     0
  9
$BLIPMODE
 70
     0
  9
$CHAMFERA
 40
0.0
  9
$CHAMFERB
 40
0.0
  9
$SKPOLY
 70
     0
  9
$TDCREATE
 40
2451816.6436689808
  9
$TDUPDATE
 40
2456289.603403993
  9
$TDINDWG
 40
0.013654294
  9
$TDUSRTIMER
 40
0.0136541088
  9
$USRTIMER
 70
     1
  9
$ANGBASE
 50
0.0
  9
$ANGDIR
 70
     0
  9
$PDMODE
 70
     3
  9
$PDSIZE
 40
-2.0
  9
$PLINEWID
 40
0.0
  9
$COORDS
 70
     1
  9
$SPLFRAME
 70
     0
  9
$SPLINETYPE
 70
     6
  9
$SPLINESEGS
 70
     8
  9
$ATTDIA
 70
     0
  9
$ATTREQ
 70
     1
  9
$HANDLING
 70
     1
  9
$HANDSEED
  5
18F
  9
$SURFTAB1
 70
     6
  9
$SURFTAB2
 70
     6
  9
$SURFTYPE
 70
     6
  9
$SURFU
 70
     6
  9
$SURFV
 70
     6
  9
$UCSNAME
  2

  9
$UCSORG
 10
0.0
 20
0.0
 30
0.0
  9
$UCSXDIR
 10
1.0
 20
0.0
 30
0.0
  9
$UCSYDIR
 10
0.0
 20
1.0
 30
0.0
  9
$PUCSNAME
  2

  9
$PUCSORG
 10
0.0
 20
0.0
 30
0.0
  9
$PUCSXDIR
 10
1.0
 20
0.0
 30
0.0
  9
$PUCSYDIR
 10
0.0
 20
1.0
 30
0.0
  9
$USERI1
 70
     0
  9
$USERI2
 70
     0
  9
$USERI3
 70
     0
  9
$USERI4
 70
     0
  9
$USERI5
 70
     0
  9
$USERR1
 40
20.0
  9
$USERR2
 40
0.0
  9
$USERR3
 40
0.0
  9
$USERR4
 40
0.0
  9
$USERR5
 40
0.0
  9
$WORLDVIEW
 70
     1
  9
$SHADEDGE
 70
     3
  9
$SHADEDIF
 70
    70
  9
$TILEMODE
 70
     1
  9
$MAXACTVP
 70
    64
  9
$PLIMCHECK
 70
     0
  9
$PEXTMIN
 10
1.0000000000000000E+020
 20
1.0000000000000000E+020
 30
1.0000000000000000E+020
  9
$PEXTMAX
 10
-1.0000000000000000E+020
 20
-1.0000000000000000E+020
 30
-1.0000000000000000E+020
  9
$PLIMMIN
 10
0.0
 20
0.0
  9
$PLIMMAX
 10
12.0
 20
9.0
  9
$UNITMODE
 70
     0
  9
$VISRETAIN
 70
     1
  9
$PLINEGEN
 70
     0
  9
$PSLTSCALE
 70
     1
  0
ENDSEC
  0
SECTION
  2
TABLES
  0
TABLE
  2
VPORT
 70
     1
  0
VPORT
  2
*ACTIVE
 70
     0
 10
0.0
 20
0.0
 11
1.0
 21
1.0
 12
64.358565744329326
 22
394.29392999999999
 13
0.0
 23
0.0
 14
100.0
 24
100.0
 15
100.0
 25
100.0
 16
0.0
 26
0.0
 36
1.0
 17
0.0
 27
0.0
 37
0.0
 40
2007.371200246843
 41
1.693029490616621
 42
50.0
 43
0.0
 44
0.0
 50
0.0
 51
0.0
 71
     0
 72
   500
 73
     1
 74
     0
 75
     0
 76
     0
 77
     0
 78
     0
  0
ENDTAB
  0
TABLE
  2
LTYPE
 70
     9
  0
LTYPE
  2
CONTINUOUS
 70
     0
  3
実線
 72
    65
 73
     0
 40
0.0
  0
LTYPE
  2
DOT
 70
     0
  3
...............................................
 72
    65
 73
     2
 40
0.8
 49
0.5
 49
-0.3
  0
LTYPE
  2
DASHED
 70
     0
  3
_ _ _ _ _ _ _ _ _ _ _ _ _ _ _ _ _ _ _ _ _ _ _
 72
    65
 73
     2
 40
2.0
 49
1.1999999999999991
 49
-0.8
  0
LTYPE
  2
DASHDOT
 70
     0
  3
____ _ ____ _ ____ _ ____ _ ____ _ ____ _ ____
 72
    65
 73
     4
 40
5.5
 49
4.0
 49
-0.6
 49
0.3
 49
-0.6
  0
LTYPE
  2
DASHDOT1
 70
     0
  3
____ _ ____ _ ____ _ ____ _ ____ _ ____ _ ____
 72
    65
 73
     4
 40
2.0
 49
1.5
 49
-0.2
 49
0.1
 49
-0.2
  0
LTYPE
  2
DIVIDE
 70
     0
  3
_____ _ _ _____ _ _ _____ _ _ _____ _ _ ____
 72
    65
 73
     6
 40
6.4000000000000004
 49
4.0
 49
-0.6
 49
0.3
 49
-0.6
 49
0.3
 49
-0.6
  0
LTYPE
  2
DIVIDE1
 70
     0
  3
_____ _ _ _____ _ _ _____ _ _ _____ _ _ ____
 72
    65
 73
     6
 40
3.2000000000000002
 49
2.0
 49
-0.3
 49
0.15
 49
-0.3
 49
0.15
 49
-0.3
  0
LTYPE
  2
CONTINOUS
 70
     0
  3
Solid line
 72
    65
 73
     0
 40
0.0
  0
ENDTAB
  0
TABLE
  2
LAYER
 70
    12
  0
LAYER
  2
0
 70
     0
 62
     7
  6
CONTINUOUS
  0
LAYER
  2
OUTLINE
 70
     0
 62
     3
  6
CONTINUOUS
  0
LAYER
  2
DETAIL
 70
     0
 62
     5
  6
CONTINUOUS
  0
LAYER
  2
BASIS
 70
     0
 62
     6
  6
DASHDOT
  0
LAYER
  2
SIZE
 70
     0
 62
    30
  6
CONTINUOUS
  0
LAYER
  2
NOTE
 70
     0
 62
     4
  6
CONTINUOUS
  0
LAYER
  2
DEFPOINTS
 70
     0
 62
     7
  6
CONTINUOUS
  0
LAYER
  2
ARRANGE
 70
     0
 62
     1
  6
CONTINUOUS
  0
LAYER
  2
FIX
 70
     0
 62
    11
  6
CONTINUOUS
  0
LAYER
  2
ETC
 70
     0
 62
    61
  6
CONTINUOUS
  0
LAYER
  2
SERVICESPACE
 70
     0
 62
     2
  6
DASHDOT
  0
LAYER
  2
SYMBOLLINE
 70
     0
 62
    15
  6
CONTINUOUS
  0
ENDTAB
  0
TABLE
  2
STYLE
 70
     2
  0
STYLE
  2
STANDARD
 70
     0
 40
0.0
 41
0.9
 50
0.0
 71
     0
 42
64.0
  3
SIMPLEX
  4
BIGFONT
  0
STYLE
  2
ANNOTATIVE
 70
     0
 40
0.0
 41
1.0
 50
0.0
 71
     0
 42
0.2
  3
txt
  4

  0
ENDTAB
  0
TABLE
  2
VIEW
 70
     1
  0
VIEW
  2
ALL
 70
     0
 40
4282.6198079999986
 10
0.0
 20
41.309903999999989
 41
5940.0
 11
0.0
 21
0.0
 31
1.0
 12
0.0
 22
0.0
 32
0.0
 42
50.0
 43
0.0
 44
0.0
 50
0.0
 71
     0
  0
ENDTAB
  0
TABLE
  2
UCS
 70
     0
  0
ENDTAB
  0
TABLE
  2
APPID
 70
     5
  0
APPID
  2
ACAD
 70
     0
  0
APPID
  2
ACADANNOTATIVE
 70
     0
  0
APPID
  2
ACAD_NAV_VCDISPLAY
 70
     0
  0
APPID
  2
ACAD_EXEMPT_FROM_CAD_STANDARDS
 70
     0
  0
APPID
  2
ACAD_MLEADERVER
 70
     0
  0
ENDTAB
  0
TABLE
  2
DIMSTYLE
 70
     2
  0
DIMSTYLE
  2
STANDARD
 70
     0
  3

  4

  5

  6

  7

 40
1.0
 41
0.18
 42
0.0625
 43
0.38
 44
0.18
 45
0.0
 46
0.0
 47
0.0
 48
0.0
140
0.18
141
0.09
142
0.0
143
25.399999999999999
144
1.0
145
0.0
146
1.0
147
0.09
 71
     0
 72
     0
 73
     1
 74
     1
 75
     0
 76
     0
 77
     0
 78
     0
170
     0
171
     2
172
     0
173
     0
174
     0
175
     0
176
     0
177
     0
178
     0
  0
DIMSTYLE
  2
ANNOTATIVE
 70
     0
  3

  4

  5

  6

  7

 40
1.0
 41
0.18
 42
0.0625
 43
0.38
 44
0.18
 45
0.0
 46
0.0
 47
0.0
 48
0.0
140
0.18
141
0.09
142
0.0
143
25.399999999999999
144
1.0
145
0.0
146
1.0
147
0.09
 71
     0
 72
     0
 73
     1
 74
     1
 75
     0
 76
     0
 77
     0
 78
     0
170
     0
171
     2
172
     0
173
     0
174
     0
175
     0
176
     0
177
     0
178
     0
  0
ENDTAB
  0
ENDSEC
  0
SECTION
  2
BLOCKS
  0
BLOCK
  8
0
  2
$MODEL_SPACE
 70
     0
 10
0.0
 20
0.0
 30
0.0
  3
$MODEL_SPACE
  1

  0
ENDBLK
  5
6D
  8
0
  0
BLOCK
 67
     1
  8
0
  2
$PAPER_SPACE
 70
     0
 10
0.0
 20
0.0
 30
0.0
  3
$PAPER_SPACE
  1

  0
ENDBLK
  5
69
 67
     1
  8
0
  0
ENDSEC
  0
SECTION
  2
ENTITIES
  0
TEXT
  5
86
  8
ETC
  6
CONTINUOUS
 62
    61
 10
741.67485599999998
 20
818.74012900000002
 30
0.0
 40
64.0
  1
LGH-N25DC_2
 41
0.9
  0
TEXT
  5
87
  8
ETC
  6
CONTINUOUS
 62
    61
 10
735.39297799999986
 20
714.85687199999995
 30
0.0
 40
64.0
  1
ロスナイ
 41
0.9
  0
LINE
  5
88
  8
NOTE
  6
CONTINUOUS
 62
     4
 10
580.28152399999999
 20
-16.813464
 30
0.0
 11
711.12184699999989
 21
-16.813464
 31
0.0
  0
TEXT
  5
89
  8
NOTE
  6
CONTINUOUS
 62
     4
 10
599.64257599999996
 20
10.673724
 30
0.0
 40
64.0
  1
EL
 41
0.9
  0
LINE
  5
8A
  8
DETAIL
  6
CONTINOUS
 62
     5
 10
-485.0
 20
376.80000000000001
 30
0.0
 11
-485.0
 21
380.0
 31
0.0
  0
LINE
  5
8B
  8
DETAIL
  6
CONTINOUS
 62
     5
 10
485.0
 20
376.80000000000001
 30
0.0
 11
485.0
 21
380.0
 31
0.0
  0
LINE
  5
8C
  8
DETAIL
  6
CONTINOUS
 62
     5
 10
-440.0
 20
376.80000000000001
 30
0.0
 11
-485.0
 21
376.80000000000001
 31
0.0
  0
LINE
  5
8D
  8
DETAIL
  6
CONTINOUS
 62
     5
 10
485.0
 20
376.80000000000001
 30
0.0
 11
440.0
 21
376.80000000000001
 31
0.0
  0
LINE
  5
8E
  8
DETAIL
  6
CONTINOUS
 62
     5
 10
440.0
 20
390.0
 30
0.0
 11
440.0
 21
0.0
 31
0.0
  0
LINE
  5
8F
  8
DETAIL
  6
CONTINOUS
 62
     5
 10
-440.0
 20
390.0
 30
0.0
 11
-440.0
 21
0.0
 31
0.0
  0
LINE
  5
90
  8
DETAIL
  6
CONTINOUS
 62
     5
 10
477.5
 20
0.0
 30
0.0
 11
-477.5
 21
0.0
 31
0.0
  0
LINE
  5
91
  8
BASIS
  6
DASHDOT
 62
     6
 10
408.73656699999992
 20
275.0
 30
0.0
 11
-275.78234200000003
 21
275.0
 31
0.0
  0
LINE
  5
92
  8
BASIS
  6
DASHDOT
 62
     6
 10
303.0
 20
418.04427600000002
 30
0.0
 11
303.0
 21
143.56597500000001
 31
0.0
  0
LINE
  5
93
  8
BASIS
  6
DASHDOT
 62
     6
 10
0.0
 20
470.48177500000003
 30
0.0
 11
0.0
 21
-130.32037099999999
 31
0.0
  0
LINE
  5
94
  8
DETAIL
  6
CONTINUOUS
 62
     5
 10
485.0
 20
380.0
 30
0.0
 11
440.0
 21
380.0
 31
0.0
  0
LINE
  5
95
  8
DETAIL
  6
CONTINUOUS
 62
     5
 10
-485.0
 20
380.0
 30
0.0
 11
-440.0
 21
380.0
 31
0.0
  0
LINE
  5
96
  8
NOTE
  6
CONTINUOUS
 62
     4
 10
463.0
 20
400.0
 30
0.0
 11
463.0
 21
360.0
 31
0.0
  0
LINE
  5
97
  8
NOTE
  6
CONTINUOUS
 62
     4
 10
443.0
 20
380.0
 30
0.0
 11
483.0
 21
380.0
 31
0.0
  0
LINE
  5
98
  8
NOTE
  6
CONTINUOUS
 62
     4
 10
-463.0
 20
400.0
 30
0.0
 11
-463.0
 21
360.0
 31
0.0
  0
LINE
  5
99
  8
NOTE
  6
CONTINUOUS
 62
     4
 10
-483.0
 20
380.0
 30
0.0
 11
-443.0
 21
380.0
 31
0.0
  0
CIRCLE
  5
9A
  8
ARRANGE
  6
CONTINUOUS
 62
     1
 10
0.0
 20
0.0
 30
0.0
 40
40.0
  0
LINE
  5
9B
  8
DETAIL
  6
CONTINOUS
 62
     5
 10
440.0
 20
-23.0
 30
0.0
 11
-440.0
 21
-23.0
 31
0.0
  0
LINE
  5
9C
  8
DETAIL
  6
CONTINUOUS
 62
     5
 10
440.0
 20
390.0
 30
0.0
 11
-440.0
 21
390.0
 31
0.0
  0
LINE
  5
9D
  8
DETAIL
  6
CONTINUOUS
 62
     5
 10
-477.5
 20
0.0
 30
0.0
 11
-477.5
 21
-15.0
 31
0.0
  0
LINE
  5
9E
  8
DETAIL
  6
CONTINUOUS
 62
     5
 10
477.5
 20
0.0
 30
0.0
 11
477.5
 21
-15.0
 31
0.0
  0
LINE
  5
9F
  8
DETAIL
  6
CONTINUOUS
 62
     5
 10
477.5
 20
-15.0
 30
0.0
 11
440.0
 21
-23.0
 31
0.0
  0
LINE
  5
A0
  8
DETAIL
  6
CONTINUOUS
 62
     5
 10
-477.5
 20
-15.0
 30
0.0
 11
-440.0
 21
-23.0
 31
0.0
  0
LINE
  5
A1
  8
OUTLINE
  6
CONTINUOUS
 62
     3
 10
440.0
 20
390.0
 30
0.0
 11
-440.0
 21
390.0
 31
0.0
  0
LINE
  5
A2
  8
OUTLINE
  6
CONTINOUS
 62
     3
 10
477.5
 20
0.0
 30
0.0
 11
440.0
 21
0.0
 31
0.0
  0
LINE
  5
A3
  8
OUTLINE
  6
CONTINOUS
 62
     3
 10
-440.0
 20
390.0
 30
0.0
 11
-440.0
 21
0.0
 31
0.0
  0
LINE
  5
A4
  8
OUTLINE
  6
CONTINOUS
 62
     3
 10
440.0
 20
390.0
 30
0.0
 11
440.0
 21
0.0
 31
0.0
  0
LINE
  5
A5
  8
OUTLINE
  6
CONTINOUS
 62
     3
 10
-440.0
 20
0.0
 30
0.0
 11
-477.5
 21
0.0
 31
0.0
  0
LINE
  5
A6
  8
BASIS
  6
DASHDOT
 62
     6
 10
-147.0
 20
418.04427600000002
 30
0.0
 11
-147.0
 21
140.951896
 31
0.0
  0
LINE
  5
A7
  8
OUTLINE
  6
CONTINOUS
 62
     3
 10
477.5
 20
0.0
 30
0.0
 11
-477.5
 21
0.0
 31
0.0
  0
POINT
  5
A8
  8
ARRANGE
  6
CONTINUOUS
 62
     1
 10
0.0
 20
0.0
 30
0.0
  0
CIRCLE
  5
A9
  8
FIX
  6
CONTINUOUS
 62
    11
 10
-463.0
 20
380.0
 30
0.0
 40
6.5
  0
CIRCLE
  5
AA
  8
FIX
  6
CONTINUOUS
 62
    11
 10
463.0
 20
380.0
 30
0.0
 40
6.5
  0
CIRCLE
  5
AB
  8
DETAIL
  6
CONTINUOUS
 62
     5
 10
303.0
 20
275.0
 30
0.0
 40
71.0
  0
CIRCLE
  5
AC
  8
DETAIL
  6
CONTINUOUS
 62
     5
 10
303.0
 20
275.0
 30
0.0
 40
80.0
  0
CIRCLE
  5
AD
  8
DETAIL
  6
CONTINUOUS
 62
     5
 10
-147.0
 20
275.0
 30
0.0
 40
80.0
  0
CIRCLE
  5
AE
  8
DETAIL
  6
CONTINUOUS
 62
     5
 10
-147.0
 20
275.0
 30
0.0
 40
71.0
  0
LINE
  5
AF
  8
SIZE
  6
CONTINUOUS
 62
    30
 10
-635.327628
 20
380.0
 30
0.0
 11
-635.327628
 21
528.47318899999993
 31
0.0
  0
LINE
  5
B0
  8
SIZE
  6
CONTINUOUS
 62
    30
 10
-766.69994399999996
 20
390.0
 30
0.0
 11
-766.69994399999996
 21
566.50287400000002
 31
0.0
  0
LINE
  5
B1
  8
SIZE
  6
CONTINUOUS
 62
    30
 10
-894.615094
 20
-27.0
 30
0.0
 11
-894.615094
 21
-169.89010300000001
 31
0.0
  0
LINE
  5
B2
  8
SIZE
  6
CONTINUOUS
 62
    30
 10
647.6534519999999
 20
346.0
 30
0.0
 11
647.6534519999999
 21
639.10499800000002
 31
0.0
  0
LINE
  5
B3
  8
SIZE
  6
CONTINUOUS
 62
    30
 10
787.04924299999993
 20
355.0
 30
0.0
 11
787.04924299999993
 21
646.01948600000003
 31
0.0
  0
LINE
  5
B4
  8
NOTE
  6
CONTINUOUS
 62
     4
 10
-1233.373
 20
602.85211399999991
 30
0.0
 11
-617.44857300000001
 21
602.85211399999991
 31
0.0
  0
LINE
  5
B5
  8
NOTE
  6
CONTINUOUS
 62
     4
 10
-463.0
 20
380.0
 30
0.0
 11
-617.44857300000001
 21
602.85211399999991
 31
0.0
  0
TEXT
  5
B6
  8
NOTE
  6
CONTINUOUS
 62
     4
 10
-1226.203
 20
636.63805600000001
 30
0.0
 40
64.0
  1
AH 4-\U+03C613\U+00D730
 41
0.9
  0
TEXT
  5
B7
  8
NOTE
  6
CONTINUOUS
 62
     4
 10
-195.06700699999999
 20
123.581667
 30
0.0
 40
64.0
  1
EA
 41
0.9
  0
TEXT
  5
B8
  8
NOTE
  6
CONTINUOUS
 62
     4
 10
251.053968
 20
123.28937000000001
 30
0.0
 40
64.0
  1
OA
 41
0.9
  0
LINE
  5
B9
  8
NOTE
  6
CONTINUOUS
 62
     4
 10
440.0
 20
107.0
 30
0.0
 11
580.28152399999999
 21
-16.813464
 31
0.0
  0
LINE
  5
BA
  8
SIZE
  6
BYBLOCK
 62
    30
 10
303.0
 20
438.04427600000002
 30
0.0
 11
303.0
 21
570.99218099999985
 31
0.0
  0
LINE
  5
BB
  8
SIZE
  6
BYBLOCK
 62
    30
 10
-147.0
 20
438.04427600000002
 30
0.0
 11
-147.0
 21
570.99218099999985
 31
0.0
  0
LINE
  5
BC
  8
SIZE
  6
BYBLOCK
 62
    30
 10
301.0
 20
540.99218099999985
 30
0.0
 11
-145.0
 21
540.99218099999985
 31
0.0
  0
TEXT
  5
BD
  8
SIZE
  6
BYBLOCK
 62
    30
 10
3.9428570000000001
 20
572.99218099999985
 30
0.0
 40
64.0
  1
450
 41
0.9
  0
LINE
  5
BE
  8
SIZE
  6
BYBLOCK
 62
    30
 10
440.0
 20
410.0
 30
0.0
 11
440.0
 21
570.99218099999985
 31
0.0
  0
LINE
  5
BF
  8
SIZE
  6
BYBLOCK
 62
    30
 10
303.0
 20
438.04427600000002
 30
0.0
 11
303.0
 21
570.99218099999985
 31
0.0
  0
LINE
  5
C0
  8
SIZE
  6
BYBLOCK
 62
    30
 10
301.0
 20
540.99218099999985
 30
0.0
 11
299.0
 21
540.99218099999985
 31
0.0
  0
LINE
  5
C1
  8
SIZE
  6
BYBLOCK
 62
    30
 10
442.0
 20
540.99218099999985
 30
0.0
 11
444.0
 21
540.99218099999985
 31
0.0
  0
LINE
  5
C2
  8
SIZE
  6
BYBLOCK
 62
    30
 10
303.0
 20
540.99218099999985
 30
0.0
 11
440.0
 21
540.99218099999985
 31
0.0
  0
TEXT
  5
C3
  8
SIZE
  6
BYBLOCK
 62
    30
 10
302.92857099999998
 20
572.99218099999985
 30
0.0
 40
64.0
  1
137
 41
0.9
  0
LINE
  5
C4
  8
SIZE
  6
BYBLOCK
 62
    30
 10
-295.78234200000003
 20
275.0
 30
0.0
 11
-796.69994400000007
 21
275.0
 31
0.0
  0
LINE
  5
C5
  8
SIZE
  6
BYBLOCK
 62
    30
 10
-460.0
 20
390.0
 30
0.0
 11
-796.69994400000007
 21
390.0
 31
0.0
  0
LINE
  5
C6
  8
SIZE
  6
BYBLOCK
 62
    30
 10
-766.69994399999996
 20
392.0
 30
0.0
 11
-766.69994399999996
 21
394.0
 31
0.0
  0
LINE
  5
C7
  8
SIZE
  6
BYBLOCK
 62
    30
 10
-766.69994399999996
 20
273.0
 30
0.0
 11
-766.69994399999996
 21
271.0
 31
0.0
  0
LINE
  5
C8
  8
SIZE
  6
BYBLOCK
 62
    30
 10
-766.69994399999996
 20
390.0
 30
0.0
 11
-766.69994399999996
 21
275.0
 31
0.0
  0
TEXT
  5
C9
  8
SIZE
  6
BYBLOCK
 62
    30
 10
-798.69994399999996
 20
428.44751100000002
 30
0.0
 40
64.0
  1
115
 50
90.0
 41
0.9
  0
LINE
  5
CA
  8
SIZE
  6
BYBLOCK
 62
    30
 10
323.0
 20
346.0
 30
0.0
 11
677.6534519999999
 21
346.0
 31
0.0
  0
LINE
  5
CB
  8
SIZE
  6
BYBLOCK
 62
    30
 10
323.0
 20
204.0
 30
0.0
 11
677.6534519999999
 21
204.0
 31
0.0
  0
LINE
  5
CC
  8
SIZE
  6
BYBLOCK
 62
    30
 10
647.6534519999999
 20
202.0
 30
0.0
 11
647.6534519999999
 21
200.0
 31
0.0
  0
LINE
  5
CD
  8
SIZE
  6
BYBLOCK
 62
    30
 10
647.6534519999999
 20
348.0
 30
0.0
 11
647.6534519999999
 21
350.0
 31
0.0
  0
LINE
  5
CE
  8
SIZE
  6
BYBLOCK
 62
    30
 10
647.6534519999999
 20
204.0
 30
0.0
 11
647.6534519999999
 21
346.0
 31
0.0
  0
TEXT
  5
CF
  8
SIZE
  6
BYBLOCK
 62
    30
 10
615.6534519999999
 20
416.17840899999999
 30
0.0
 40
64.0
  1
\U+03C6142
 50
90.0
 41
0.9
  0
LINE
  5
D0
  8
SIZE
  6
BYBLOCK
 62
    30
 10
323.0
 20
355.0
 30
0.0
 11
817.04924299999993
 21
355.0
 31
0.0
  0
LINE
  5
D1
  8
SIZE
  6
BYBLOCK
 62
    30
 10
323.0
 20
195.0
 30
0.0
 11
817.04924299999993
 21
195.0
 31
0.0
  0
LINE
  5
D2
  8
SIZE
  6
BYBLOCK
 62
    30
 10
787.04924299999993
 20
193.0
 30
0.0
 11
787.04924299999993
 21
191.0
 31
0.0
  0
LINE
  5
D3
  8
SIZE
  6
BYBLOCK
 62
    30
 10
787.04924299999993
 20
357.0
 30
0.0
 11
787.04924299999993
 21
359.0
 31
0.0
  0
LINE
  5
D4
  8
SIZE
  6
BYBLOCK
 62
    30
 10
787.04924299999993
 20
195.0
 30
0.0
 11
787.04924299999993
 21
355.0
 31
0.0
  0
TEXT
  5
D5
  8
SIZE
  6
BYBLOCK
 62
    30
 10
755.04924299999993
 20
416.17840899999999
 30
0.0
 40
64.0
  1
\U+03C6160
 50
90.0
 41
0.9
  0
LINE
  5
D6
  8
SIZE
  6
BYBLOCK
 62
    30
 10
460.0
 20
390.0
 30
0.0
 11
964.22583099999997
 21
390.0
 31
0.0
  0
LINE
  5
D7
  8
SIZE
  6
BYBLOCK
 62
    30
 10
480.0
 20
107.0
 30
0.0
 11
964.22583099999997
 21
107.0
 31
0.0
  0
LINE
  5
D8
  8
SIZE
  6
BYBLOCK
 62
    30
 10
934.22583100000008
 20
388.0
 30
0.0
 11
934.22583100000008
 21
248.5
 31
0.0
  0
LINE
  5
D9
  8
SIZE
  6
BYBLOCK
 62
    30
 10
934.22583100000008
 20
109.0
 30
0.0
 11
934.22583100000008
 21
248.5
 31
0.0
  0
TEXT
  5
DA
  8
SIZE
  6
BYBLOCK
 62
    30
 10
902.22583100000008
 20
174.442857
 30
0.0
 40
64.0
  1
283
 50
90.0
 41
0.9
  0
LINE
  5
DB
  8
SIZE
  6
BYBLOCK
 62
    30
 10
-497.5
 20
0.0
 30
0.0
 11
-924.61509399999989
 21
0.0
 31
0.0
  0
LINE
  5
DC
  8
SIZE
  6
BYBLOCK
 62
    30
 10
-460.0
 20
-23.0
 30
0.0
 11
-924.61509399999989
 21
-23.0
 31
0.0
  0
LINE
  5
DD
  8
SIZE
  6
BYBLOCK
 62
    30
 10
-894.615094
 20
-25.0
 30
0.0
 11
-894.615094
 21
-27.0
 31
0.0
  0
LINE
  5
DE
  8
SIZE
  6
BYBLOCK
 62
    30
 10
-894.615094
 20
2.0
 30
0.0
 11
-894.615094
 21
4.0
 31
0.0
  0
LINE
  5
DF
  8
SIZE
  6
BYBLOCK
 62
    30
 10
-894.615094
 20
-23.0
 30
0.0
 11
-894.615094
 21
0.0
 31
0.0
  0
TEXT
  5
E0
  8
SIZE
  6
BYBLOCK
 62
    30
 10
-926.61509400000011
 20
-144.55967200000001
 30
0.0
 40
64.0
  1
23
 50
90.0
 41
0.9
  0
LINE
  5
E1
  8
SIZE
  6
BYBLOCK
 62
    30
 10
-460.0
 20
390.0
 30
0.0
 11
-924.61509399999989
 21
390.0
 31
0.0
  0
LINE
  5
E2
  8
SIZE
  6
BYBLOCK
 62
    30
 10
-497.5
 20
0.0
 30
0.0
 11
-924.61509399999989
 21
0.0
 31
0.0
  0
LINE
  5
E3
  8
SIZE
  6
BYBLOCK
 62
    30
 10
-894.615094
 20
388.0
 30
0.0
 11
-894.615094
 21
195.0
 31
0.0
  0
LINE
  5
E4
  8
SIZE
  6
BYBLOCK
 62
    30
 10
-894.615094
 20
2.0
 30
0.0
 11
-894.615094
 21
195.0
 31
0.0
  0
TEXT
  5
E5
  8
SIZE
  6
BYBLOCK
 62
    30
 10
-926.61509400000011
 20
120.942857
 30
0.0
 40
64.0
  1
390
 50
90.0
 41
0.9
  0
LINE
  5
E6
  8
SIZE
  6
BYBLOCK
 62
    30
 10
-460.0
 20
390.0
 30
0.0
 11
-665.327628
 21
390.0
 31
0.0
  0
LINE
  5
E7
  8
SIZE
  6
BYBLOCK
 62
    30
 10
-505.0
 20
380.0
 30
0.0
 11
-665.327628
 21
380.0
 31
0.0
  0
LINE
  5
E8
  8
SIZE
  6
BYBLOCK
 62
    30
 10
-635.327628
 20
378.0
 30
0.0
 11
-635.327628
 21
376.0
 31
0.0
  0
LINE
  5
E9
  8
SIZE
  6
BYBLOCK
 62
    30
 10
-635.327628
 20
392.0
 30
0.0
 11
-635.327628
 21
394.0
 31
0.0
  0
LINE
  5
EA
  8
SIZE
  6
BYBLOCK
 62
    30
 10
-635.327628
 20
380.0
 30
0.0
 11
-635.327628
 21
390.0
 31
0.0
  0
TEXT
  5
EB
  8
SIZE
  6
BYBLOCK
 62
    30
 10
-667.327628
 20
430.28824299999991
 30
0.0
 40
64.0
  1
10
 50
90.0
 41
0.9
  0
LINE
  5
EC
  8
SIZE
  6
BYBLOCK
 62
    30
 10
463.0
 20
420.0
 30
0.0
 11
463.0
 21
833.27473499999985
 31
0.0
  0
LINE
  5
ED
  8
SIZE
  6
BYBLOCK
 62
    30
 10
-463.0
 20
420.0
 30
0.0
 11
-463.0
 21
833.27473499999985
 31
0.0
  0
LINE
  5
EE
  8
SIZE
  6
BYBLOCK
 62
    30
 10
461.0
 20
803.27473499999985
 30
0.0
 11
0.0
 21
803.27473499999985
 31
0.0
  0
LINE
  5
EF
  8
SIZE
  6
BYBLOCK
 62
    30
 10
-461.0
 20
803.27473499999985
 30
0.0
 11
0.0
 21
803.27473499999985
 31
0.0
  0
TEXT
  5
F0
  8
SIZE
  6
BYBLOCK
 62
    30
 10
-72.685714000000004
 20
835.27473499999985
 30
0.0
 40
64.0
  1
926
 41
0.9
  0
LINE
  5
F1
  8
SIZE
  6
BYBLOCK
 62
    30
 10
440.0
 20
410.0
 30
0.0
 11
440.0
 21
702.03758099999993
 31
0.0
  0
LINE
  5
F2
  8
SIZE
  6
BYBLOCK
 62
    30
 10
-440.0
 20
410.0
 30
0.0
 11
-440.0
 21
702.03758099999993
 31
0.0
  0
LINE
  5
F3
  8
SIZE
  6
BYBLOCK
 62
    30
 10
438.0
 20
672.03758099999993
 30
0.0
 11
-438.0
 21
672.03758099999993
 31
0.0
  0
TEXT
  5
F4
  8
SIZE
  6
BYBLOCK
 62
    30
 10
-74.057143000000011
 20
704.03758099999993
 30
0.0
 40
64.0
  1
880
 41
0.9
  0
LINE
  5
F5
  8
SIZE
  6
BYBLOCK
 62
    30
 10
477.5
 20
-35.0
 30
0.0
 11
477.5
 21
-318.68625900000001
 31
0.0
  0
LINE
  5
F6
  8
SIZE
  6
BYBLOCK
 62
    30
 10
-477.5
 20
-20.0
 30
0.0
 11
-477.5
 21
-318.68625900000001
 31
0.0
  0
LINE
  5
F7
  8
SIZE
  6
BYBLOCK
 62
    30
 10
475.49999999999989
 20
-288.68625900000001
 30
0.0
 11
0.0
 21
-288.68625900000001
 31
0.0
  0
LINE
  5
F8
  8
SIZE
  6
BYBLOCK
 62
    30
 10
-475.49999999999989
 20
-288.68625900000001
 30
0.0
 11
0.0
 21
-288.68625900000001
 31
0.0
  0
TEXT
  5
F9
  8
SIZE
  6
BYBLOCK
 62
    30
 10
-74.057143000000011
 20
-256.68625900000001
 30
0.0
 40
64.0
  1
955
 41
0.9
  0
CIRCLE
  5
FA
  8
SIZE
  6
CONTINUOUS
 62
    30
 10
-477.5
 20
-288.68625900000001
 30
0.0
 40
6.0
  0
CIRCLE
  5
FB
  8
SIZE
  6
CONTINUOUS
 62
    30
 10
477.5
 20
-288.68625900000001
 30
0.0
 40
6.0
  0
CIRCLE
  5
FC
  8
SIZE
  6
CONTINUOUS
 62
    30
 10
-440.0
 20
672.03758099999993
 30
0.0
 40
6.0
  0
CIRCLE
  5
FD
  8
SIZE
  6
CONTINUOUS
 62
    30
 10
440.0
 20
672.03758099999993
 30
0.0
 40
6.0
  0
CIRCLE
  5
FE
  8
SIZE
  6
CONTINUOUS
 62
    30
 10
-463.0
 20
803.27473499999985
 30
0.0
 40
6.0
  0
CIRCLE
  5
FF
  8
SIZE
  6
CONTINUOUS
 62
    30
 10
463.0
 20
803.27473499999985
 30
0.0
 40
6.0
  0
CIRCLE
  5
100
  8
SIZE
  6
CONTINUOUS
 62
    30
 10
-635.327628
 20
390.0
 30
0.0
 40
6.0
  0
CIRCLE
  5
101
  8
SIZE
  6
CONTINUOUS
 62
    30
 10
-635.327628
 20
380.0
 30
0.0
 40
6.0
  0
CIRCLE
  5
102
  8
SIZE
  6
CONTINUOUS
 62
    30
 10
-894.615094
 20
0.0
 30
0.0
 40
6.0
  0
CIRCLE
  5
103
  8
SIZE
  6
CONTINUOUS
 62
    30
 10
-894.615094
 20
390.0
 30
0.0
 40
6.0
  0
CIRCLE
  5
104
  8
SIZE
  6
CONTINUOUS
 62
    30
 10
-894.615094
 20
0.0
 30
0.0
 40
6.0
  0
CIRCLE
  5
105
  8
SIZE
  6
CONTINUOUS
 62
    30
 10
-894.615094
 20
-23.0
 30
0.0
 40
6.0
  0
CIRCLE
  5
106
  8
SIZE
  6
CONTINUOUS
 62
    30
 10
934.22583100000008
 20
107.0
 30
0.0
 40
6.0
  0
CIRCLE
  5
107
  8
SIZE
  6
CONTINUOUS
 62
    30
 10
934.22583100000008
 20
390.0
 30
0.0
 40
6.0
  0
CIRCLE
  5
108
  8
SIZE
  6
CONTINUOUS
 62
    30
 10
787.04924299999993
 20
355.0
 30
0.0
 40
6.0
  0
CIRCLE
  5
109
  8
SIZE
  6
CONTINUOUS
 62
    30
 10
787.04924299999993
 20
195.0
 30
0.0
 40
6.0
  0
CIRCLE
  5
10A
  8
SIZE
  6
CONTINUOUS
 62
    30
 10
647.6534519999999
 20
346.0
 30
0.0
 40
6.0
  0
CIRCLE
  5
10B
  8
SIZE
  6
CONTINUOUS
 62
    30
 10
647.6534519999999
 20
204.0
 30
0.0
 40
6.0
  0
CIRCLE
  5
10C
  8
SIZE
  6
CONTINUOUS
 62
    30
 10
-766.69994399999996
 20
275.0
 30
0.0
 40
6.0
  0
CIRCLE
  5
10D
  8
SIZE
  6
CONTINUOUS
 62
    30
 10
-766.69994399999996
 20
390.0
 30
0.0
 40
6.0
  0
CIRCLE
  5
10E
  8
SIZE
  6
CONTINUOUS
 62
    30
 10
440.0
 20
540.99218099999985
 30
0.0
 40
6.0
  0
CIRCLE
  5
10F
  8
SIZE
  6
CONTINUOUS
 62
    30
 10
303.0
 20
540.99218099999985
 30
0.0
 40
6.0
  0
CIRCLE
  5
110
  8
SIZE
  6
CONTINUOUS
 62
    30
 10
-147.0
 20
540.99218099999985
 30
0.0
 40
6.0
  0
CIRCLE
  5
111
  8
SIZE
  6
CONTINUOUS
 62
    30
 10
303.0
 20
540.99218099999985
 30
0.0
 40
6.0
  0
POLYLINE
  5
112
  8
NOTE
  6
CONTINUOUS
 62
     4
 66
     1
 10
0.0
 20
0.0
 30
0.0
  0
VERTEX
  5
187
  8
NOTE
  6
CONTINUOUS
 62
     4
 10
475.65565199999998
 20
88.870618999999991
 30
0.0
  0
VERTEX
  5
188
  8
NOTE
  6
CONTINUOUS
 62
     4
 10
440.0
 20
107.0
 30
0.0
  0
VERTEX
  5
189
  8
NOTE
  6
CONTINUOUS
 62
     4
 10
461.81400999999988
 20
73.471668999999991
 30
0.0
  0
SEQEND
  5
18A
  8
NOTE
  6
CONTINUOUS
 62
     4
  0
POLYLINE
  5
117
  8
NOTE
  6
CONTINUOUS
 62
     4
 66
     1
 10
0.0
 20
0.0
 30
0.0
  0
VERTEX
  5
18B
  8
NOTE
  6
CONTINUOUS
 62
     4
 10
-493.47874499999989
 20
405.90455700000001
 30
0.0
  0
VERTEX
  5
18C
  8
NOTE
  6
CONTINUOUS
 62
     4
 10
-463.0
 20
380.0
 30
0.0
  0
VERTEX
  5
18D
  8
NOTE
  6
CONTINUOUS
 62
     4
 10
-476.44308899999987
 20
417.67337700000002
 30
0.0
  0
SEQEND
  5
18E
  8
NOTE
  6
CONTINUOUS
 62
     4
  0
LINE
  5
11C
  8
NOTE
  6
CONTINUOUS
 62
     4
 10
440.0
 20
87.0
 30
0.0
 11
440.0
 21
127.0
 31
0.0
  0
LINE
  5
11D
  8
NOTE
  6
CONTINUOUS
 62
     4
 10
420.0
 20
107.0
 30
0.0
 11
460.0
 21
107.0
 31
0.0
  0
TEXT
  5
125
  8
ETC
  6
CONTINUOUS
 62
    61
 10
821.23247927087971
 20
636.14588175902315
 30
0.0
 40
50.0
  1
LGH-N25DC
 41
0.9
  0
ENDSEC
  0
EOF
