  0
SECTION
  2
HEADER
  9
$ACADVER
  1
AC1009
  9
$INSBASE
 10
0.0
 20
0.0
 30
0.0
  9
$EXTMIN
 10
-1027.540696936685
 20
-352.85880901473962
 30
0.0
  9
$EXTMAX
 10
1770.3165642350141
 20
1194.800010701108
 30
50.01062263247978
  9
$LIMMIN
 10
-2970.0
 20
-2100.0
  9
$LIMMAX
 10
2970.0
 20
2100.0
  9
$ORTHOMODE
 70
     1
  9
$REGENMODE
 70
     1
  9
$FILLMODE
 70
     1
  9
$QTEXTMODE
 70
     0
  9
$MIRRTEXT
 70
     0
  9
$DRAGMODE
 70
     2
  9
$LTSCALE
 40
20.0
  9
$OSMODE
 70
    55
  9
$ATTMODE
 70
     1
  9
$TEXTSIZE
 40
64.0
  9
$TRACEWID
 40
0.05
  9
$TEXTSTYLE
  7
STANDARD
  9
$CLAYER
  8
SIZE
  9
$CELTYPE
  6
CONTINUOUS
  9
$CECOLOR
 62
     7
  9
$DIMSCALE
 40
1.0
  9
$DIMASZ
 40
12.0
  9
$DIMEXO
 40
20.0
  9
$DIMDLI
 40
200.0
  9
$DIMRND
 40
0.0
  9
$DIMDLE
 40
0.0
  9
$DIMEXE
 40
20.0
  9
$DIMTP
 40
0.0
  9
$DIMTM
 40
0.0
  9
$DIMTXT
 40
64.0
  9
$DIMCEN
 40
0.09
  9
$DIMTSZ
 40
0.0
  9
$DIMTOL
 70
     0
  9
$DIMLIM
 70
     0
  9
$DIMTIH
 70
     0
  9
$DIMTOH
 70
     0
  9
$DIMSE1
 70
     0
  9
$DIMSE2
 70
     0
  9
$DIMTAD
 70
     1
  9
$DIMZIN
 70
     8
  9
$DIMBLK
  1

  9
$DIMASO
 70
     1
  9
$DIMSHO
 70
     0
  9
$DIMPOST
  1

  9
$DIMAPOST
  1

  9
$DIMALT
 70
     0
  9
$DIMALTD
 70
     2
  9
$DIMALTF
 40
25.399999999999999
  9
$DIMLFAC
 40
1.0
  9
$DIMTOFL
 70
     1
  9
$DIMTVP
 40
0.0
  9
$DIMTIX
 70
     1
  9
$DIMSOXD
 70
     0
  9
$DIMSAH
 70
     0
  9
$DIMBLK1
  1

  9
$DIMBLK2
  1

  9
$DIMSTYLE
  2
STANDARD
  9
$DIMCLRD
 70
     7
  9
$DIMCLRE
 70
     7
  9
$DIMCLRT
 70
     7
  9
$DIMTFAC
 40
1.0
  9
$DIMGAP
 40
25.0
  9
$LUNITS
 70
     2
  9
$LUPREC
 70
     4
  9
$SKETCHINC
 40
0.1
  9
$FILLETRAD
 40
3.0
  9
$AUNITS
 70
     1
  9
$AUPREC
 70
     3
  9
$MENU
  1
ACAD
  9
$ELEVATION
 40
0.0
  9
$PELEVATION
 40
0.0
  9
$THICKNESS
 40
50.0
  9
$LIMCHECK
 70
     0
  9
$BLIPMODE
 70
     0
  9
$CHAMFERA
 40
0.0
  9
$CHAMFERB
 40
0.0
  9
$SKPOLY
 70
     0
  9
$TDCREATE
 40
2453019.6230103709
  9
$TDUPDATE
 40
2456290.5832987041
  9
$TDINDWG
 40
1.6939287269000001
  9
$TDUSRTIMER
 40
1.6939285531999999
  9
$USRTIMER
 70
     1
  9
$ANGBASE
 50
0.0
  9
$ANGDIR
 70
     0
  9
$PDMODE
 70
     3
  9
$PDSIZE
 40
-2.0
  9
$PLINEWID
 40
0.0
  9
$COORDS
 70
     1
  9
$SPLFRAME
 70
     0
  9
$SPLINETYPE
 70
     6
  9
$SPLINESEGS
 70
     8
  9
$ATTDIA
 70
     0
  9
$ATTREQ
 70
     1
  9
$HANDLING
 70
     1
  9
$HANDSEED
  5
646
  9
$SURFTAB1
 70
     6
  9
$SURFTAB2
 70
     6
  9
$SURFTYPE
 70
     6
  9
$SURFU
 70
     6
  9
$SURFV
 70
     6
  9
$UCSNAME
  2

  9
$UCSORG
 10
0.0
 20
0.0
 30
0.0
  9
$UCSXDIR
 10
1.0
 20
0.0
 30
0.0
  9
$UCSYDIR
 10
0.0
 20
1.0
 30
0.0
  9
$PUCSNAME
  2

  9
$PUCSORG
 10
0.0
 20
0.0
 30
0.0
  9
$PUCSXDIR
 10
1.0
 20
0.0
 30
0.0
  9
$PUCSYDIR
 10
0.0
 20
1.0
 30
0.0
  9
$USERI1
 70
     0
  9
$USERI2
 70
     0
  9
$USERI3
 70
     0
  9
$USERI4
 70
     0
  9
$USERI5
 70
     0
  9
$USERR1
 40
20.0
  9
$USERR2
 40
0.0
  9
$USERR3
 40
0.0
  9
$USERR4
 40
0.0
  9
$USERR5
 40
0.0
  9
$WORLDVIEW
 70
     1
  9
$SHADEDGE
 70
     3
  9
$SHADEDIF
 70
    70
  9
$TILEMODE
 70
     1
  9
$MAXACTVP
 70
    48
  9
$PLIMCHECK
 70
     0
  9
$PEXTMIN
 10
-1.0000000000000000E+020
 20
-1.0000000000000000E+020
 30
-1.0000000000000000E+020
  9
$PEXTMAX
 10
1.0000000000000000E+020
 20
1.0000000000000000E+020
 30
1.0000000000000000E+020
  9
$PLIMMIN
 10
0.0
 20
0.0
  9
$PLIMMAX
 10
12.0
 20
9.0
  9
$UNITMODE
 70
     0
  9
$VISRETAIN
 70
     0
  9
$PLINEGEN
 70
     0
  9
$PSLTSCALE
 70
     0
  0
ENDSEC
  0
SECTION
  2
TABLES
  0
TABLE
  2
VPORT
 70
     1
  0
VPORT
  2
*ACTIVE
 70
     0
 10
0.0
 20
0.0
 11
1.0
 21
1.0
 12
1471.097524354821
 22
782.72533965482762
 13
0.0
 23
0.0
 14
1.0
 24
1.0
 15
0.0
 25
0.0
 16
0.0
 26
0.0
 36
1.0
 17
0.0
 27
0.0
 37
0.0
 40
1343.8796666769761
 41
1.693029490616621
 42
50.0
 43
0.0
 44
0.0
 50
0.0
 51
0.0
 71
     0
 72
  1000
 73
     1
 74
     0
 75
     0
 76
     0
 77
     0
 78
     0
  0
ENDTAB
  0
TABLE
  2
LTYPE
 70
     4
  0
LTYPE
  2
CONTINUOUS
 70
     0
  3
実線
 72
    65
 73
     0
 40
0.0
  0
LTYPE
  2
DASHDOT
 70
     0
  3
____ _ ____ _ ____ _ ____ _ ____ _ ____ _ ____
 72
    65
 73
     4
 40
5.5
 49
4.0
 49
-0.6
 49
0.3
 49
-0.6
  0
LTYPE
  2
DASHED
 70
     0
  3
-- -- -- -- -- -- -- -- -- -- -- -- -- -- --
 72
    65
 73
     2
 40
0.75
 49
0.5
 49
-0.25
  0
ENDTAB
  0
TABLE
  2
LAYER
 70
    17
  0
LAYER
  2
0
 70
     0
 62
     7
  6
CONTINUOUS
  0
LAYER
  2
SIZE
 70
     0
 62
    30
  6
CONTINUOUS
  0
LAYER
  2
DEFPOINTS
 70
     0
 62
     7
  6
CONTINUOUS
  0
LAYER
  2
BASIS
 70
     0
 62
     6
  6
DASHDOT
  0
LAYER
  2
DETAIL
 70
     0
 62
     5
  6
CONTINUOUS
  0
LAYER
  2
ARRANGE
 70
     4
 62
     1
  6
CONTINUOUS
  0
LAYER
  2
ETC
 70
     0
 62
    61
  6
CONTINUOUS
  0
LAYER
  2
FIX
 70
     0
 62
    11
  6
CONTINUOUS
  0
LAYER
  2
NOTE
 70
     0
 62
     4
  6
CONTINUOUS
  0
LAYER
  2
12
 70
     0
 62
     6
  6
CONTINUOUS
  0
LAYER
  2
23
 70
     0
 62
     4
  6
CONTINUOUS
  0
LAYER
  2
24
 70
     0
 62
     6
  6
CONTINUOUS
  0
LAYER
  2
25
 70
     0
 62
   136
  6
CONTINUOUS
  0
LAYER
  2
28
 70
     0
 62
    53
  6
CONTINUOUS
  0
LAYER
  2
OUTLINE
 70
     0
 62
     3
  6
CONTINUOUS
  0
LAYER
  2
SERVICESPACE
 70
     0
 62
     2
  6
DASHDOT
  0
LAYER
  2
SYMBOLLINE
 70
     0
 62
    15
  6
CONTINUOUS
  0
ENDTAB
  0
TABLE
  2
STYLE
 70
     2
  0
STYLE
  2
STANDARD
 70
     0
 40
64.0
 41
0.9
 50
0.0
 71
     0
 42
64.0
  3
SIMPLEX.shx
  4
BIGFONT.shx
  0
STYLE
  2
ANNOTATIVE
 70
     0
 40
0.0
 41
1.0
 50
0.0
 71
     0
 42
0.2
  3
txt
  4

  0
ENDTAB
  0
TABLE
  2
VIEW
 70
     1
  0
VIEW
  2
ALL
 70
     0
 40
4282.6198079999976
 10
0.0
 20
41.309904000000003
 41
5940.0
 11
0.0
 21
0.0
 31
1.0
 12
0.0
 22
0.0
 32
0.0
 42
50.0
 43
0.0
 44
0.0
 50
0.0
 71
     0
  0
ENDTAB
  0
TABLE
  2
UCS
 70
     0
  0
ENDTAB
  0
TABLE
  2
APPID
 70
    18
  0
APPID
  2
ACAD
 70
     0
  0
APPID
  2
ACADANNOTATIVE
 70
     0
  0
APPID
  2
AUTOCAD_POSTSCRIPT_FIGURE
 70
     0
  0
APPID
  2
ACAD_EXEMPT_FROM_CAD_STANDARDS
 70
     0
  0
APPID
  2
ACAD_PSEXT
 70
     0
  0
APPID
  2
ACAUTHENVIRON
 70
     0
  0
APPID
  2
GENIUS_GENOENT_13
 70
     0
  0
APPID
  2
GENIUS_GENCFG_13
 70
     0
  0
APPID
  2
GENIUS_GENCFG0_13
 70
     0
  0
APPID
  2
GENIUS_GENCFG1_13
 70
     0
  0
APPID
  2
GENIUS_GENCFG2_13
 70
     0
  0
APPID
  2
GENIUS_GENCFG3_13
 70
     0
  0
APPID
  2
GENIUS_GENCFG4_13
 70
     0
  0
APPID
  2
GENIUS_GEVCFG0_13
 70
     0
  0
APPID
  2
CONTENTBLOCKICON
 70
     0
  0
APPID
  2
CONTENTBLOCKDESCRIPTION
 70
     0
  0
APPID
  2
ACAD_NAV_VCDISPLAY
 70
     0
  0
APPID
  2
ACAD_MLEADERVER
 70
     0
  0
ENDTAB
  0
TABLE
  2
DIMSTYLE
 70
     2
  0
DIMSTYLE
  2
STANDARD
 70
     0
  3

  4

  5

  6

  7

 40
1.0
 41
0.18
 42
0.0625
 43
0.38
 44
0.18
 45
0.0
 46
0.0
 47
0.0
 48
0.0
140
0.18
141
0.09
142
0.0
143
25.399999999999999
144
1.0
145
0.0
146
1.0
147
0.09
 71
     0
 72
     0
 73
     1
 74
     1
 75
     0
 76
     0
 77
     0
 78
     0
170
     0
171
     2
172
     0
173
     0
174
     0
175
     0
176
     7
177
     7
178
     7
  0
DIMSTYLE
  2
ANNOTATIVE
 70
     0
  3

  4

  5

  6

  7

 40
1.0
 41
0.18
 42
0.0625
 43
0.38
 44
0.18
 45
0.0
 46
0.0
 47
0.0
 48
0.0
140
0.18
141
0.09
142
0.0
143
25.399999999999999
144
1.0
145
0.0
146
1.0
147
0.09
 71
     0
 72
     0
 73
     1
 74
     1
 75
     0
 76
     0
 77
     0
 78
     0
170
     0
171
     2
172
     0
173
     0
174
     0
175
     0
176
     0
177
     0
178
     0
  0
ENDTAB
  0
ENDSEC
  0
SECTION
  2
BLOCKS
  0
BLOCK
  8
0
  2
$MODEL_SPACE
 70
     0
 10
0.0
 20
0.0
 30
0.0
  3
$MODEL_SPACE
  1

  0
ENDBLK
  5
6D
  8
0
  0
BLOCK
 67
     1
  8
0
  2
$PAPER_SPACE
 70
     0
 10
0.0
 20
0.0
 30
0.0
  3
$PAPER_SPACE
  1

  0
ENDBLK
  5
69
 67
     1
  8
0
  0
BLOCK
  8
0
  2
_ORIGIN
 70
     0
 10
0.0
 20
0.0
 30
0.0
  3
_ORIGIN
  1

  0
CIRCLE
  5
96
  8
0
  6
CONTINUOUS
 62
     7
 10
0.0
 20
0.0
 30
0.0
 40
0.5
  0
LINE
  5
97
  8
0
  6
CONTINUOUS
 62
     7
 10
0.0
 20
0.0
 30
0.0
 11
-1.0
 21
0.0
 31
0.0
  0
ENDBLK
  5
98
  8
0
  0
ENDSEC
  0
SECTION
  2
ENTITIES
  0
TEXT
  5
99
  8
ETC
  6
CONTINUOUS
 62
    61
 10
1147.687992806442
 20
1130.8000107011071
 30
0.0
 40
64.0
  1
LGH-N35CS_2
 41
0.9
  0
TEXT
  5
9A
  8
ETC
  6
CONTINUOUS
 62
    61
 10
1143.5019988064421
 20
1012.844700686276
 30
0.0
 40
64.0
  1
ロスナイ
 41
0.9
  0
TEXT
  5
9B
  8
ETC
  6
CONTINUOUS
 62
    61
 10
1194.203397054998
 20
904.6959278000503
 30
0.0
 40
40.0
  1
LGH-N35CS
 41
0.9
  0
TEXT
  5
9C
  8
ETC
  6
CONTINUOUS
 62
    61
 10
1194.203397054998
 20
838.6959278000503
 30
0.0
 40
40.0
  1
LGH-N35CSD
 41
0.9
  0
TEXT
  5
9D
  8
ETC
  6
CONTINUOUS
 62
    61
 10
1194.203397054998
 20
772.6959278000503
 30
0.0
 40
40.0
  1
LGH-N35CX
 41
0.9
  0
TEXT
  5
9E
  8
ETC
  6
CONTINUOUS
 62
    61
 10
1194.203397054998
 20
706.6959278000503
 30
0.0
 40
40.0
  1
LGH-N35CXD
 41
0.9
  0
POINT
  5
9F
  8
ARRANGE
  6
CONTINUOUS
 62
     1
 10
0.0
 20
0.0
 30
0.0
 39
50.0
  0
LINE
  5
A0
  8
NOTE
  6
CONTINUOUS
 62
     4
 10
-647.13754244985944
 20
313.7110454551871
 30
0.0
 11
-647.13754244985944
 21
260.69980146815777
 31
0.0
  0
LINE
  5
A1
  8
NOTE
  6
CONTINUOUS
 62
     4
 10
-620.6319204563448
 20
287.20542346167241
 30
0.0
 11
-673.64316444337396
 21
287.20542346167241
 31
0.0
  0
LINE
  5
A2
  8
NOTE
  6
CONTINUOUS
 62
     4
 10
647.13754244985978
 20
316.71168181292342
 30
0.0
 11
647.13754244985978
 21
257.6991651104214
 31
0.0
  0
LINE
  5
A3
  8
NOTE
  6
CONTINUOUS
 62
     4
 10
673.6431644433743
 20
287.20542346167241
 30
0.0
 11
620.63192045634526
 21
287.20542346167241
 31
0.0
  0
LINE
  5
A4
  8
BASIS
  6
DASHDOT
 62
     6
 10
344.71623558426461
 20
-0.0000000000000057
 30
0.0
 11
-344.71623558426381
 21
0.0000000000000759
 31
0.0
  0
CIRCLE
  5
A5
  8
FIX
  6
CONTINUOUS
 62
    11
 39
50.01062263247978
 10
-647.13754244985944
 20
287.20542346167241
 30
0.0
 40
6.5013809422223723
  0
CIRCLE
  5
A6
  8
FIX
  6
CONTINUOUS
 62
    11
 39
50.01062263247978
 10
647.13754244985978
 20
287.20542346167241
 30
0.0
 40
6.5013809422223723
  0
TEXT
  5
A7
  8
NOTE
  6
CONTINUOUS
 62
     4
 10
86.293298666782206
 20
235.26165737781071
 30
0.0
 40
64.013596969574124
  1
OA
 41
0.9
  0
TEXT
  5
A8
  8
NOTE
  6
CONTINUOUS
 62
     4
 10
-507.72798477171051
 20
259.46927102239721
 30
0.0
 40
64.013596969574124
  1
EA
 41
0.9
  0
TEXT
  5
A9
  8
NOTE
  6
CONTINUOUS
 62
     4
 10
859.14257405375588
 20
-119.1039775427371
 30
0.0
 40
64.0
  1
AH 4-\U+03C611\U+00D720
 41
0.9
 72
     2
 11
1459.82828833947
 21
-119.1039775427371
 31
0.0
  0
CIRCLE
  5
AA
  8
ARRANGE
  6
CONTINUOUS
 62
     1
 10
0.0
 20
0.0000000000000568
 30
0.0
 40
40.0
  0
LINE
  5
AB
  8
SIZE
  6
CONTINUOUS
 62
    30
 10
432.10126853026338
 20
-0.0000000000000113
 30
0.0
 11
1080.4431451202861
 21
-0.000000000000195
 31
0.0
  0
LINE
  5
AC
  8
SIZE
  6
CONTINUOUS
 62
    30
 10
426.06509748655537
 20
124.9815935832217
 30
0.0
 11
1080.4431451202861
 21
124.9815935832215
 31
0.0
  0
LINE
  5
AD
  8
SIZE
  6
CONTINUOUS
 62
    30
 10
1060.4431451202861
 20
11.99999999999981
 30
0.0
 11
1060.4431451202861
 21
112.9815935832215
 31
0.0
  0
LINE
  5
AE
  8
SIZE
  6
CONTINUOUS
 62
    30
 10
1060.4431451202861
 20
124.9815935832215
 30
0.0
 11
1060.443145120287
 21
1056.018901187565
 31
0.0
  0
CIRCLE
  5
AF
  8
SIZE
  6
CONTINUOUS
 62
    30
 10
1060.4431451202861
 20
-0.0000000000001893
 30
0.0
 40
6.0
  0
LINE
  5
B0
  8
SIZE
  6
CONTINUOUS
 62
    30
 10
1060.4431451202861
 20
-0.0000000000001893
 30
0.0
 11
1060.4431451202861
 21
11.99999999999981
 31
0.0
  0
CIRCLE
  5
B1
  8
SIZE
  6
CONTINUOUS
 62
    30
 10
1060.4431451202861
 20
124.9815935832215
 30
0.0
 40
6.0
  0
LINE
  5
B2
  8
SIZE
  6
CONTINUOUS
 62
    30
 10
1060.4431451202861
 20
124.9815935832215
 30
0.0
 11
1060.4431451202861
 21
112.9815935832215
 31
0.0
  0
TEXT
  5
B3
  8
SIZE
  6
CONTINUOUS
 62
    30
 10
1035.4431451202861
 20
162.08175833042279
 30
0.0
 40
64.0
  1
高さ調整可能範囲65～125
 50
90.0
 41
0.9
 72
     1
 11
1035.4431451202861
 21
596.55032975899417
 31
0.0
  0
POINT
  5
B4
  8
DEFPOINTS
  6
CONTINUOUS
 62
    30
 10
412.1012685302635
 20
-0.0000000000000057
 30
0.0
  0
POINT
  5
B5
  8
DEFPOINTS
  6
CONTINUOUS
 62
    30
 10
406.06509748655537
 20
124.9815935832217
 30
0.0
  0
POINT
  5
B6
  8
DEFPOINTS
  6
CONTINUOUS
 62
    30
 10
1060.4431451202861
 20
124.9815935832215
 30
0.0
  0
LINE
  5
B7
  8
DETAIL
  6
DASHED
 62
     4
 10
599.21995351285352
 20
454.16670934029742
 30
0.0
 11
599.21995351285352
 21
453.9666359000592
 31
0.0
  0
LINE
  5
B8
  8
12
  6
CONTINUOUS
 62
     4
 10
-335.1020094291809
 20
124.06903166916101
 30
0.0
 11
-335.11714988374382
 21
123.9595644124086
 31
0.0
  0
LINE
  5
B9
  8
12
  6
CONTINUOUS
 62
     4
 10
-335.11714988374382
 20
123.9595644124086
 30
0.0
 11
-335.12301239867048
 21
123.84545950733219
 31
0.0
  0
LINE
  5
BA
  8
12
  6
CONTINUOUS
 62
     4
 10
-547.70104265157124
 20
125.74615718959249
 30
0.0
 11
-552.70287865751368
 21
125.74615718959249
 31
0.0
  0
LINE
  5
BB
  8
23
  6
CONTINUOUS
 62
     3
 10
-600.62046759452073
 20
137.7505636038741
 30
0.0
 11
-601.22068791524782
 21
137.7505636038741
 31
0.0
  0
LINE
  5
BC
  8
23
  6
CONTINUOUS
 62
     3
 10
-600.62046759452073
 20
140.75166520744381
 30
0.0
 11
-601.22068791524782
 21
140.75166520744381
 31
0.0
  0
LINE
  5
BD
  8
23
  6
CONTINUOUS
 62
     3
 10
-600.62046759452073
 20
140.75166520744381
 30
0.0
 11
-600.62046759452073
 21
126.9465978310209
 31
0.0
  0
LINE
  5
BE
  8
23
  6
CONTINUOUS
 62
     3
 10
-601.22068791524782
 20
126.9465978310209
 30
0.0
 11
-601.22068791524782
 21
140.75166520744381
 31
0.0
  0
ARC
  5
BF
  8
23
  6
CONTINUOUS
 62
     3
 10
-600.02024727381513
 20
126.9465978310209
 30
0.0
 40
1.2004406414324711
 50
180.0
 51
270.0
  0
ARC
  5
C0
  8
23
  6
CONTINUOUS
 62
     3
 10
-600.02024727381513
 20
126.9465978310209
 30
0.0
 40
0.6002203207053116
 50
180.0
 51
270.0
  0
LINE
  5
C1
  8
23
  6
CONTINUOUS
 62
     3
 10
-600.02024727381513
 20
126.3463775103065
 30
0.0
 11
-599.21995351285261
 21
126.3463775103065
 31
0.0
  0
LINE
  5
C2
  8
23
  6
CONTINUOUS
 62
     3
 10
-600.02024727381513
 20
125.74615718959249
 30
0.0
 11
-320.51765126128998
 21
125.74615718959249
 31
0.0
  0
LINE
  5
C3
  8
23
  6
CONTINUOUS
 62
     3
 10
600.62046759452107
 20
137.7505636038741
 30
0.0
 11
601.22068791524839
 21
137.7505636038741
 31
0.0
  0
LINE
  5
C4
  8
23
  6
CONTINUOUS
 62
     3
 10
600.62046759452107
 20
140.75166520744381
 30
0.0
 11
601.22068791524839
 21
140.75166520744381
 31
0.0
  0
LINE
  5
C5
  8
23
  6
CONTINUOUS
 62
     3
 10
600.62046759452107
 20
126.9465978310209
 30
0.0
 11
600.62046759452107
 21
140.75166520744381
 31
0.0
  0
LINE
  5
C6
  8
23
  6
CONTINUOUS
 62
     3
 10
601.22068791524839
 20
126.9465978310209
 30
0.0
 11
601.22068791524839
 21
140.75166520744381
 31
0.0
  0
ARC
  5
C7
  8
23
  6
CONTINUOUS
 62
     3
 10
600.02024727381547
 20
126.9465978310209
 30
0.0
 40
1.200440641428365
 50
270.0
 51
0.0
  0
ARC
  5
C8
  8
23
  6
CONTINUOUS
 62
     3
 10
600.02024727381547
 20
126.9465978310209
 30
0.0
 40
0.6002203207141948
 50
270.0
 51
0.0
  0
LINE
  5
C9
  8
23
  6
CONTINUOUS
 62
     3
 10
600.02024727381547
 20
126.3463775103065
 30
0.0
 11
599.21995351285352
 21
126.3463775103065
 31
0.0
  0
LINE
  5
CA
  8
23
  6
CONTINUOUS
 62
     3
 10
600.02024727381547
 20
125.74615718959249
 30
0.0
 11
320.51765126131193
 21
125.74615718959249
 31
0.0
  0
ARC
  5
CB
  8
24
  6
CONTINUOUS
 62
     3
 10
599.21995351285352
 20
127.34674471149739
 30
0.0
 40
1.000367201190548
 50
270.0
 51
0.0
  0
ARC
  5
CC
  8
24
  6
CONTINUOUS
 62
     3
 10
599.21995351285352
 20
127.34674471149739
 30
0.0
 40
0.5001836005952745
 50
270.0
 51
0.0
  0
LINE
  5
CD
  8
24
  6
CONTINUOUS
 62
     3
 10
600.22032071405101
 20
238.0873938832394
 30
0.0
 11
600.22032071405101
 21
127.34674471149739
 31
0.0
  0
LINE
  5
CE
  8
24
  6
CONTINUOUS
 62
     3
 10
599.72013711346312
 20
452.66615853851232
 30
0.0
 11
600.22032071405101
 21
452.66615853851232
 31
0.0
  0
LINE
  5
CF
  8
24
  6
CONTINUOUS
 62
     3
 10
599.72013711346312
 20
454.6668929408923
 30
0.0
 11
600.22032071405101
 21
454.6668929408923
 31
0.0
  0
LINE
  5
D0
  8
24
  6
CONTINUOUS
 62
     3
 10
600.22032071405101
 20
454.6668929408923
 30
0.0
 11
600.22032071405101
 21
238.0873938832394
 31
0.0
  0
LINE
  5
D1
  8
24
  6
CONTINUOUS
 62
     3
 10
-599.21995351286739
 20
454.6668929408923
 30
0.0
 11
-600.22032071405079
 21
454.6668929408923
 31
0.0
  0
LINE
  5
D2
  8
24
  6
CONTINUOUS
 62
     3
 10
-600.62046759452073
 20
140.75166520744381
 30
0.0
 11
-600.22032071405079
 21
454.6668929408923
 31
0.0
  0
ARC
  5
D3
  8
24
  6
CONTINUOUS
 62
     3
 10
-599.21995351285261
 20
127.34674471149739
 30
0.0
 40
1.0003672011973661
 50
180.0
 51
270.0
  0
ARC
  5
D4
  8
24
  6
CONTINUOUS
 62
     3
 10
-599.21995351285261
 20
127.34674471149739
 30
0.0
 40
0.5001836006096077
 50
180.0
 51
270.0
  0
LINE
  5
D5
  8
25
  6
CONTINUOUS
 62
     3
 10
-56.67080194741235
 20
455.76729686220142
 30
0.0
 11
-52.769369862784004
 21
455.76729686220142
 31
0.0
  0
ARC
  5
D6
  8
25
  6
CONTINUOUS
 62
     3
 10
-54.720085905087302
 20
454.10418639022322
 30
0.0
 40
2.5634409530354181
 50
40.44971886256662
 51
139.55028113774279
  0
ARC
  5
D7
  8
25
  6
CONTINUOUS
 62
     3
 10
-56.770838667529539
 20
455.76729686220142
 30
0.0
 40
0.1000367201189204
 50
270.0
 51
0.0
  0
ARC
  5
D8
  8
25
  6
CONTINUOUS
 62
     3
 10
-52.669333142644398
 20
455.76729686220142
 30
0.0
 40
0.1000367201393999
 50
180.0
 51
270.0
  0
LINE
  5
D9
  8
25
  6
CONTINUOUS
 62
     3
 10
598.21958631167786
 20
455.66726014208251
 30
0.0
 11
-598.21958631167763
 21
455.66726014208251
 31
0.0
  0
LINE
  5
DA
  8
25
  6
CONTINUOUS
 62
     3
 10
-598.21958631167763
 20
453.9666359000592
 30
0.0
 11
-598.21958631167763
 21
455.66726014208251
 31
0.0
  0
LINE
  5
DB
  8
25
  6
CONTINUOUS
 62
     3
 10
-598.21958631167763
 20
453.9666359000592
 30
0.0
 11
-599.21995351285261
 21
453.9666359000592
 31
0.0
  0
LINE
  5
DC
  8
25
  6
CONTINUOUS
 62
     3
 10
-599.21995351285261
 20
454.6668929408923
 30
0.0
 11
-598.71976991226541
 21
454.6668929408923
 31
0.0
  0
LINE
  5
DD
  8
25
  6
CONTINUOUS
 62
     3
 10
-598.71976991226541
 20
453.9666359000592
 30
0.0
 11
-598.71976991226541
 21
454.6668929408923
 31
0.0
  0
ARC
  5
DE
  8
25
  6
CONTINUOUS
 62
     3
 10
-598.21958631167763
 20
454.6668929408923
 30
0.0
 40
1.000367201189851
 50
90.0
 51
180.0
  0
ARC
  5
DF
  8
25
  6
CONTINUOUS
 62
     3
 10
-598.21958631167763
 20
454.6668929408923
 30
0.0
 40
0.5001836005945779
 50
90.0
 51
180.0
  0
LINE
  5
E0
  8
25
  6
CONTINUOUS
 62
     3
 10
599.21995351285352
 20
454.6668929408923
 30
0.0
 11
598.71976991226575
 21
454.6668929408923
 31
0.0
  0
ARC
  5
E1
  8
25
  6
CONTINUOUS
 62
     3
 10
598.21958631167786
 20
454.6668929408923
 30
0.0
 40
1.000367201175518
 50
0.0
 51
90.0
  0
ARC
  5
E2
  8
25
  6
CONTINUOUS
 62
     3
 10
598.21958631167786
 20
454.6668929408923
 30
0.0
 40
0.5001836005877597
 50
0.0
 51
90.0
  0
LINE
  5
E3
  8
25
  6
CONTINUOUS
 62
     3
 10
598.71976991226575
 20
454.6668929408923
 30
0.0
 11
598.71976991226575
 21
453.9666359000592
 31
0.0
  0
LINE
  5
E4
  8
25
  6
CONTINUOUS
 62
     3
 10
598.21958631167786
 20
453.9666359000592
 30
0.0
 11
599.21995351285352
 21
453.9666359000592
 31
0.0
  0
LINE
  5
E5
  8
25
  6
CONTINUOUS
 62
     3
 10
598.21958631167786
 20
453.9666359000592
 30
0.0
 11
598.21958631167786
 21
455.66726014208251
 31
0.0
  0
LINE
  5
E6
  8
28
  6
CONTINUOUS
 62
     3
 10
-326.92000134892231
 20
125.74615718959249
 30
0.0
 11
-326.92000134892231
 21
125.6461204694735
 31
0.0
  0
LINE
  5
E7
  8
28
  6
CONTINUOUS
 62
     3
 10
-327.52022166962769
 20
125.74615718959249
 30
0.0
 11
-327.52022166962769
 21
125.6461204694735
 31
0.0
  0
LINE
  5
E8
  8
28
  6
CONTINUOUS
 62
     3
 10
375.1377004462816
 20
-3.001101603570103
 30
0.0
 11
375.1377004462816
 21
-0.5001836005950551
 31
0.0
  0
LINE
  5
E9
  8
28
  6
CONTINUOUS
 62
     3
 10
385.14137245819001
 20
-44.016156852364382
 30
0.0
 11
385.14137245819001
 21
-40.014688047603947
 31
0.0
  0
LINE
  5
EA
  8
28
  6
CONTINUOUS
 62
     3
 10
375.1377004462816
 20
-3.001101603570103
 30
0.0
 11
355.13035642248741
 21
-6.0022032071404334
 31
0.0
  0
LINE
  5
EB
  8
28
  6
CONTINUOUS
 62
     3
 10
384.14100525699263
 20
-40.014688047603947
 30
0.0
 11
385.14137245819001
 21
-40.014688047603947
 31
0.0
  0
LINE
  5
EC
  8
28
  6
CONTINUOUS
 62
     3
 10
355.13035642248741
 20
-35.012852041653169
 30
0.0
 11
352.62943841950482
 21
-35.012852041653169
 31
0.0
  0
LINE
  5
ED
  8
28
  6
CONTINUOUS
 62
     3
 10
351.12888761771973
 20
-10.00367201190133
 30
0.0
 11
348.62796961475908
 21
-10.00367201190133
 31
0.0
  0
LINE
  5
EE
  8
28
  6
CONTINUOUS
 62
     3
 10
355.13035642248741
 20
-6.0022032071404334
 30
0.0
 11
352.62943841950482
 21
-6.0022032071404334
 31
0.0
  0
LINE
  5
EF
  8
28
  6
CONTINUOUS
 62
     3
 10
375.1377004462816
 20
-0.5001836005950551
 30
0.0
 11
374.63751684569399
 21
-0.5001836005950551
 31
0.0
  0
LINE
  5
F0
  8
28
  6
DASHED
 62
     4
 10
350.12852041652241
 20
-40.014688047603947
 30
0.0
 11
362.38301863110809
 21
-40.014688047603947
 31
0.0
  0
LINE
  5
F1
  8
28
  6
DASHED
 62
     4
 10
372.88687424360421
 20
-40.014688047603947
 30
0.0
 11
384.14100525699263
 21
-40.014688047603947
 31
0.0
  0
LINE
  5
F2
  8
28
  6
CONTINUOUS
 62
     3
 10
374.9376270060468
 20
-3.0311126196056701
 30
0.0
 11
374.89234017376799
 21
-3.0220566179525581
 31
0.0
  0
LINE
  5
F3
  8
28
  6
CONTINUOUS
 62
     3
 10
374.89234017376799
 20
-3.0220566179525581
 30
0.0
 11
374.84486742161442
 21
-3.0146025052981069
 31
0.0
  0
ARC
  5
F4
  8
28
  6
CONTINUOUS
 62
     3
 10
384.14100525699263
 20
-44.016156852364382
 30
0.0
 40
1.0003672011891791
 50
270.0
 51
0.0
  0
LINE
  5
F5
  8
28
  6
CONTINUOUS
 62
     3
 10
374.84486742161442
 20
-3.0146025052981069
 30
0.0
 11
374.79493377264947
 21
-3.0087317408380709
 31
0.0
  0
LINE
  5
F6
  8
28
  6
CONTINUOUS
 62
     3
 10
374.79493377264947
 20
-3.0087317408380709
 30
0.0
 11
374.74336415768278
 21
-3.0044999474891481
 31
0.0
  0
LINE
  5
F7
  8
28
  6
CONTINUOUS
 62
     3
 10
374.74336415768278
 20
-3.0044999474891481
 30
0.0
 11
374.69098350800402
 21
-3.0019627486676792
 31
0.0
  0
LINE
  5
F8
  8
28
  6
CONTINUOUS
 62
     3
 10
374.69098350800402
 20
-3.0019627486676792
 30
0.0
 11
374.63751684569399
 21
-3.001101603570103
 31
0.0
  0
LINE
  5
F9
  8
28
  6
CONTINUOUS
 62
     4
 10
348.62796961475908
 20
-15.05554226774378
 30
0.0
 11
348.62796961475908
 21
-18.956942572720191
 31
0.0
  0
LINE
  5
FA
  8
28
  6
CONTINUOUS
 62
     3
 10
348.62796961475908
 20
-40.014688047603947
 30
0.0
 11
348.62796961475908
 21
-10.00367201190133
 31
0.0
  0
LINE
  5
FB
  8
28
  6
CONTINUOUS
 62
     3
 10
351.12888761771973
 20
-40.014688047603947
 30
0.0
 11
351.12888761771973
 21
-10.00367201190133
 31
0.0
  0
LINE
  5
FC
  8
28
  6
CONTINUOUS
 62
     3
 10
352.62943841950482
 20
-35.012852041653169
 30
0.0
 11
352.62943841950482
 21
-6.0022032071404334
 31
0.0
  0
LINE
  5
FD
  8
28
  6
CONTINUOUS
 62
     3
 10
355.13035642248741
 20
-6.0022032071404334
 30
0.0
 11
355.13035642248741
 21
-35.012852041653169
 31
0.0
  0
LINE
  5
FE
  8
28
  6
CONTINUOUS
 62
     3
 10
375.1377004462816
 20
-0.5001836005950551
 30
0.0
 11
374.63751684569399
 21
0.0
 31
0.0
  0
LINE
  5
FF
  8
28
  6
CONTINUOUS
 62
     3
 10
333.17508824766281
 20
60.019461582864537
 30
0.0
 11
334.22273184644109
 21
0.0
 31
0.0
  0
LINE
  5
100
  8
28
  6
CONTINUOUS
 62
     3
 10
-374.6375168456936
 20
0.0
 30
0.0
 11
-334.22273184644052
 21
0.0
 31
0.0
  0
LINE
  5
101
  8
28
  6
CONTINUOUS
 62
     3
 10
384.14100525699263
 20
-45.01652405355383
 30
0.0
 11
-384.1410052569924
 21
-45.01652405355383
 31
0.0
  0
LINE
  5
102
  8
28
  6
DASHED
 62
     4
 10
0.500183600588005
 20
-40.014688047603947
 30
0.0
 11
349.9284469762872
 21
-40.014688047603947
 31
0.0
  0
LINE
  5
103
  8
28
  6
CONTINUOUS
 62
     3
 10
-385.14137245818961
 20
-40.014688047603947
 30
0.0
 11
384.14100525699263
 21
-40.014688047603947
 31
0.0
  0
ARC
  5
104
  8
28
  6
CONTINUOUS
 62
     3
 10
-384.1410052569924
 20
-44.016156852364382
 30
0.0
 40
1.0003672011973661
 50
180.0
 51
270.0
  0
LINE
  5
105
  8
28
  6
CONTINUOUS
 62
     3
 10
-374.9376270060464
 20
-3.0311126196056701
 30
0.0
 11
-374.8923401737672
 21
-3.0220566179525581
 31
0.0
  0
LINE
  5
106
  8
28
  6
CONTINUOUS
 62
     3
 10
-374.8923401737672
 20
-3.0220566179525581
 30
0.0
 11
-374.84486742161408
 21
-3.0146025052981069
 31
0.0
  0
LINE
  5
107
  8
28
  6
CONTINUOUS
 62
     3
 10
-374.84486742161408
 20
-3.0146025052981069
 30
0.0
 11
-374.79493377264907
 21
-3.0087317408380709
 31
0.0
  0
LINE
  5
108
  8
28
  6
CONTINUOUS
 62
     3
 10
-375.1377004462816
 20
-0.5001836005950551
 30
0.0
 11
-374.6375168456936
 21
0.0
 31
0.0
  0
LINE
  5
109
  8
28
  6
CONTINUOUS
 62
     3
 10
-374.79493377264907
 20
-3.0087317408380709
 30
0.0
 11
-374.74336415818448
 21
-3.0044999474891481
 31
0.0
  0
LINE
  5
10A
  8
28
  6
CONTINUOUS
 62
     3
 10
-374.74336415818448
 20
-3.0044999474891481
 30
0.0
 11
-374.69098350800368
 21
-3.0019627486676792
 31
0.0
  0
LINE
  5
10B
  8
28
  6
CONTINUOUS
 62
     3
 10
-374.69098350800368
 20
-3.0019627486676792
 30
0.0
 11
-374.6375168456936
 21
-3.001101603570103
 31
0.0
  0
LINE
  5
10C
  8
28
  6
CONTINUOUS
 62
     3
 10
-385.14137245818961
 20
-44.016156852364382
 30
0.0
 11
-385.14137245818961
 21
-40.014688047603947
 31
0.0
  0
LINE
  5
10D
  8
28
  6
CONTINUOUS
 62
     3
 10
-375.1377004462816
 20
-3.001101603570103
 30
0.0
 11
-375.1377004462816
 21
-0.5001836005950551
 31
0.0
  0
LINE
  5
10E
  8
28
  6
CONTINUOUS
 62
     3
 10
-375.1377004462816
 20
-3.001101603570103
 30
0.0
 11
-355.13035642248718
 21
-6.0022032071404334
 31
0.0
  0
LINE
  5
10F
  8
28
  6
CONTINUOUS
 62
     3
 10
-352.62943841950482
 20
-35.012852041653169
 30
0.0
 11
-355.13035642248718
 21
-35.012852041653169
 31
0.0
  0
LINE
  5
110
  8
28
  6
CONTINUOUS
 62
     3
 10
-355.13035642248718
 20
-6.0022032071404334
 30
0.0
 11
-355.13035642248718
 21
-35.012852041653169
 31
0.0
  0
LINE
  5
111
  8
28
  6
CONTINUOUS
 62
     3
 10
-352.62943841950482
 20
-35.012852041653169
 30
0.0
 11
-352.62943841950482
 21
-6.0022032071404334
 31
0.0
  0
LINE
  5
112
  8
28
  6
CONTINUOUS
 62
     3
 10
-351.12888761771973
 20
-40.014688047603947
 30
0.0
 11
-351.12888761771973
 21
-10.00367201190133
 31
0.0
  0
LINE
  5
113
  8
28
  6
CONTINUOUS
 62
     3
 10
-348.62796961473663
 20
-40.014688047603947
 30
0.0
 11
-348.62796961473663
 21
-10.00367201190133
 31
0.0
  0
LINE
  5
114
  8
28
  6
CONTINUOUS
 62
     3
 10
-351.12888761771973
 20
-10.00367201190133
 30
0.0
 11
-348.62796961473663
 21
-10.00367201190133
 31
0.0
  0
LINE
  5
115
  8
28
  6
CONTINUOUS
 62
     3
 10
-331.14783609752078
 20
60.021223544621563
 30
0.0
 11
-331.67163338039359
 21
0.0
 31
0.0
  0
LINE
  5
116
  8
28
  6
CONTINUOUS
 62
     3
 10
-333.17508824766219
 20
60.019461582864537
 30
0.0
 11
-334.22273184644052
 21
0.0
 31
0.0
  0
LINE
  5
117
  8
28
  6
CONTINUOUS
 62
     3
 10
-334.52279207796562
 20
61.33847500687714
 30
0.0
 11
-334.52279207796562
 21
60.022032071405242
 31
0.0
  0
LINE
  5
118
  8
28
  6
CONTINUOUS
 62
     4
 10
-334.54729554235962
 20
61.161711964603988
 30
0.0
 11
-334.52963167905239
 21
61.28942376431408
 31
0.0
  0
LINE
  5
119
  8
28
  6
CONTINUOUS
 62
     4
 10
-334.52963167905239
 20
61.28942376431408
 30
0.0
 11
-334.52279207796562
 21
61.422546153070478
 31
0.0
  0
LINE
  5
11A
  8
28
  6
CONTINUOUS
 62
     3
 10
-335.12301239867048
 20
63.765046792853781
 30
0.0
 11
-338.26580679940258
 21
60.622252392118853
 31
0.0
  0
LINE
  5
11B
  8
28
  6
CONTINUOUS
 62
     4
 10
-335.92330615963311
 20
60.622252392118853
 30
0.0
 11
-335.83735327071759
 21
60.627291406271169
 31
0.0
  0
LINE
  5
11C
  8
28
  6
CONTINUOUS
 62
     4
 10
-335.83735327071759
 20
60.627291406271169
 30
0.0
 11
-335.75549032707198
 21
60.640045066711657
 31
0.0
  0
LINE
  5
11D
  8
28
  6
CONTINUOUS
 62
     4
 10
-335.75549032707198
 20
60.640045066711657
 30
0.0
 11
-335.67755168741297
 21
60.660905982052817
 31
0.0
  0
LINE
  5
11E
  8
28
  6
CONTINUOUS
 62
     4
 10
-335.67755168741297
 20
60.660905982052817
 30
0.0
 11
-335.60403427615529
 21
60.688696326453993
 31
0.0
  0
LINE
  5
11F
  8
28
  6
CONTINUOUS
 62
     4
 10
-335.60403427615529
 20
60.688696326453993
 30
0.0
 11
-335.53548138818678
 21
60.722430385093993
 31
0.0
  0
LINE
  5
120
  8
28
  6
CONTINUOUS
 62
     4
 10
-335.53548138818678
 20
60.722430385093993
 30
0.0
 11
-335.47158827067369
 21
60.761924436533647
 31
0.0
  0
LINE
  5
121
  8
28
  6
CONTINUOUS
 62
     4
 10
-335.47158827067369
 20
60.761924436533647
 30
0.0
 11
-335.41214194391853
 21
60.806730827954702
 31
0.0
  0
LINE
  5
122
  8
28
  6
CONTINUOUS
 62
     4
 10
-335.41214194391853
 20
60.806730827954702
 30
0.0
 11
-335.35741038130311
 21
60.856655640675449
 31
0.0
  0
LINE
  5
123
  8
28
  6
CONTINUOUS
 62
     4
 10
-335.35741038130311
 20
60.856655640675449
 30
0.0
 11
-335.30748697358831
 21
60.911386333474283
 31
0.0
  0
LINE
  5
124
  8
28
  6
CONTINUOUS
 62
     4
 10
-335.30748697358831
 20
60.911386333474283
 30
0.0
 11
-335.26268248688388
 21
60.970831124659163
 31
0.0
  0
LINE
  5
125
  8
28
  6
CONTINUOUS
 62
     4
 10
-335.26268248688388
 20
60.970831124659163
 30
0.0
 11
-335.22318939777381
 21
61.034723210297841
 31
0.0
  0
LINE
  5
126
  8
28
  6
CONTINUOUS
 62
     4
 10
-335.22318939777381
 20
61.034723210297841
 30
0.0
 11
-335.1894559643743
 21
61.10327511639926
 31
0.0
  0
LINE
  5
127
  8
28
  6
CONTINUOUS
 62
     4
 10
-335.1894559643743
 20
61.10327511639926
 30
0.0
 11
-335.16166604263452
 21
61.17679133023227
 31
0.0
  0
LINE
  5
128
  8
28
  6
CONTINUOUS
 62
     4
 10
-335.16166604263452
 20
61.17679133023227
 30
0.0
 11
-335.14080532035172
 21
61.254729167593347
 31
0.0
  0
LINE
  5
129
  8
28
  6
CONTINUOUS
 62
     4
 10
-335.14080532035172
 20
61.254729167593347
 30
0.0
 11
-335.12805164441278
 21
61.336592293796102
 31
0.0
  0
LINE
  5
12A
  8
28
  6
CONTINUOUS
 62
     4
 10
-335.12805164441278
 20
61.336592293796102
 30
0.0
 11
-335.12301239867048
 21
61.422546153070478
 31
0.0
  0
LINE
  5
12B
  8
28
  6
CONTINUOUS
 62
     4
 10
-335.92330615963311
 20
60.022032071405242
 30
0.0
 11
-335.79018499882068
 21
60.028871421900043
 31
0.0
  0
LINE
  5
12C
  8
28
  6
CONTINUOUS
 62
     3
 10
-335.91520394207799
 20
60.622293406673251
 30
0.0
 11
-335.92330615963311
 21
60.622252392118853
 31
0.0
  0
LINE
  5
12D
  8
28
  6
CONTINUOUS
 62
     3
 10
-344.02628048926402
 20
60.022032071405242
 30
0.0
 11
-335.91520394207799
 21
60.022055508006851
 31
0.0
  0
LINE
  5
12E
  8
28
  6
CONTINUOUS
 62
     3
 10
-344.02628048926402
 20
60.622252392118853
 30
0.0
 11
-335.92330615963311
 21
60.622252392118853
 31
0.0
  0
LINE
  5
12F
  8
28
  6
CONTINUOUS
 62
     3
 10
-341.82547264665601
 20
61.722656313427969
 30
0.0
 11
-337.42385696141821
 21
61.722656313427969
 31
0.0
  0
LINE
  5
130
  8
28
  6
CONTINUOUS
 62
     3
 10
-334.52279207796562
 20
60.022032071405242
 30
0.0
 11
-331.2404840924861
 21
60.022032071405242
 31
0.0
  0
LINE
  5
131
  8
28
  6
CONTINUOUS
 62
     4
 10
-335.79018499882068
 20
60.028871421900043
 30
0.0
 11
-335.66247348471842
 21
60.046535248697509
 31
0.0
  0
LINE
  5
132
  8
28
  6
CONTINUOUS
 62
     4
 10
-335.66247348471842
 20
60.046535248697509
 30
0.0
 11
-335.53998795739631
 21
60.075482881401243
 31
0.0
  0
LINE
  5
133
  8
28
  6
CONTINUOUS
 62
     4
 10
-335.53998795739631
 20
60.075482881401243
 30
0.0
 11
-335.42327939710202
 21
60.114336334698137
 31
0.0
  0
LINE
  5
134
  8
28
  6
CONTINUOUS
 62
     4
 10
-335.42327939710202
 20
60.114336334698137
 30
0.0
 11
-335.3129460444332
 21
60.16194911825081
 31
0.0
  0
LINE
  5
135
  8
28
  6
CONTINUOUS
 62
     4
 10
-335.3129460444332
 20
60.16194911825081
 30
0.0
 11
-335.20866245593908
 21
60.21808607924428
 31
0.0
  0
LINE
  5
136
  8
28
  6
CONTINUOUS
 62
     4
 10
-335.20866245593908
 20
60.21808607924428
 30
0.0
 11
-335.110040386582
 21
60.282378146201111
 31
0.0
  0
LINE
  5
137
  8
28
  6
CONTINUOUS
 62
     4
 10
-335.110040386582
 20
60.282378146201111
 30
0.0
 11
-335.01786647763549
 21
60.35408058275663
 31
0.0
  0
LINE
  5
138
  8
28
  6
CONTINUOUS
 62
     4
 10
-335.01786647763549
 20
60.35408058275663
 30
0.0
 11
-334.932925301598
 21
60.432172084523557
 31
0.0
  0
LINE
  5
139
  8
28
  6
CONTINUOUS
 62
     4
 10
-334.932925301598
 20
60.432172084523557
 30
0.0
 11
-334.85483481469328
 21
60.517113285084712
 31
0.0
  0
LINE
  5
13A
  8
28
  6
CONTINUOUS
 62
     4
 10
-334.85483481469328
 20
60.517113285084712
 30
0.0
 11
-334.78313437086928
 21
60.609285453391372
 31
0.0
  0
LINE
  5
13B
  8
28
  6
CONTINUOUS
 62
     4
 10
-334.78313437086928
 20
60.609285453391372
 30
0.0
 11
-334.71884434816161
 21
60.707905378452558
 31
0.0
  0
LINE
  5
13C
  8
28
  6
CONTINUOUS
 62
     4
 10
-334.71884434816161
 20
60.707905378452558
 30
0.0
 11
-334.66270833052971
 21
60.812187772014852
 31
0.0
  0
LINE
  5
13D
  8
28
  6
CONTINUOUS
 62
     4
 10
-334.66270833052971
 20
60.812187772014852
 30
0.0
 11
-334.6150960571614
 21
60.922520133317477
 31
0.0
  0
LINE
  5
13E
  8
28
  6
CONTINUOUS
 62
     4
 10
-334.6150960571614
 20
60.922520133317477
 30
0.0
 11
-334.57624299799801
 21
61.039227334109889
 31
0.0
  0
LINE
  5
13F
  8
28
  6
CONTINUOUS
 62
     4
 10
-334.57624299799801
 20
61.039227334109889
 30
0.0
 11
-334.54729554235962
 21
61.161711964603988
 31
0.0
  0
LINE
  5
140
  8
28
  6
CONTINUOUS
 62
     3
 10
-344.02628048926402
 20
60.022032071405242
 30
0.0
 11
-344.02628048926402
 21
60.622252392118853
 31
0.0
  0
LINE
  5
141
  8
28
  6
CONTINUOUS
 62
     3
 10
-341.82547264665601
 20
61.722656313427969
 30
0.0
 11
-341.82547264665601
 21
61.22247271283269
 31
0.0
  0
LINE
  5
142
  8
28
  6
CONTINUOUS
 62
     3
 10
-337.42385696141821
 20
61.722656313427969
 30
0.0
 11
-337.42385696141821
 21
61.46420223011652
 31
0.0
  0
ARC
  5
143
  8
28
  6
CONTINUOUS
 62
     3
 10
-335.92330615963311
 20
61.422546153070478
 30
0.0
 40
1.4005140816656541
 50
270.33146790073408
 51
0.0
  0
ARC
  5
144
  8
28
  6
CONTINUOUS
 62
     3
 10
-335.92330615963311
 20
61.422546153070478
 30
0.0
 40
0.8002937609524673
 50
270.58007550017749
 51
0.0
  0
ARC
  5
145
  8
28
  6
CONTINUOUS
 62
     3
 10
-342.42569296736161
 20
61.22247271283269
 30
0.0
 40
0.6002203207141948
 50
270.0
 51
0.0
  0
LINE
  5
146
  8
28
  6
CONTINUOUS
 62
     3
 10
-335.12301239867048
 20
61.422546153070478
 30
0.0
 11
-335.12301239867048
 21
123.84545950733219
 31
0.0
  0
LINE
  5
147
  8
28
  6
CONTINUOUS
 62
     4
 10
335.41214194391893
 20
60.806730827954702
 30
0.0
 11
335.3574103813034
 21
60.856655640675449
 31
0.0
  0
LINE
  5
148
  8
28
  6
CONTINUOUS
 62
     4
 10
335.3574103813034
 20
60.856655640675449
 30
0.0
 11
335.30748697361031
 21
60.911386333474283
 31
0.0
  0
LINE
  5
149
  8
28
  6
CONTINUOUS
 62
     4
 10
335.30748697361031
 20
60.911386333474283
 30
0.0
 11
335.26268248688422
 21
60.970831124659163
 31
0.0
  0
LINE
  5
14A
  8
28
  6
CONTINUOUS
 62
     4
 10
335.26268248688422
 20
60.970831124659163
 30
0.0
 11
335.22318939729388
 21
61.034723210297841
 31
0.0
  0
LINE
  5
14B
  8
28
  6
CONTINUOUS
 62
     4
 10
335.22318939729388
 20
61.034723210297841
 30
0.0
 11
335.18945596437447
 21
61.10327511639926
 31
0.0
  0
LINE
  5
14C
  8
28
  6
CONTINUOUS
 62
     4
 10
335.18945596437447
 20
61.10327511639926
 30
0.0
 11
335.16166604213288
 21
61.17679133023227
 31
0.0
  0
LINE
  5
14D
  8
28
  6
CONTINUOUS
 62
     4
 10
335.16166604213288
 20
61.17679133023227
 30
0.0
 11
335.140805320374
 21
61.254729167593347
 31
0.0
  0
LINE
  5
14E
  8
28
  6
CONTINUOUS
 62
     4
 10
335.140805320374
 20
61.254729167593347
 30
0.0
 11
335.12805164441301
 21
61.336592293796102
 31
0.0
  0
LINE
  5
14F
  8
28
  6
CONTINUOUS
 62
     4
 10
335.12805164441301
 20
61.336592293796102
 30
0.0
 11
335.12301239867111
 21
61.422546153070478
 31
0.0
  0
LINE
  5
150
  8
28
  6
CONTINUOUS
 62
     4
 10
335.42327939660009
 20
60.114336334698137
 30
0.0
 11
335.3129460444336
 21
60.16194911825081
 31
0.0
  0
LINE
  5
151
  8
28
  6
CONTINUOUS
 62
     4
 10
335.3129460444336
 20
60.16194911825081
 30
0.0
 11
335.20866245593947
 21
60.21808607924428
 31
0.0
  0
LINE
  5
152
  8
28
  6
CONTINUOUS
 62
     4
 10
335.20866245593947
 20
60.21808607924428
 30
0.0
 11
335.11004038658228
 21
60.282378146201111
 31
0.0
  0
LINE
  5
153
  8
28
  6
CONTINUOUS
 62
     4
 10
335.11004038658228
 20
60.282378146201111
 30
0.0
 11
335.01786647715562
 21
60.35408058275663
 31
0.0
  0
LINE
  5
154
  8
28
  6
CONTINUOUS
 62
     4
 10
335.01786647715562
 20
60.35408058275663
 30
0.0
 11
334.93292530159817
 21
60.432172084523557
 31
0.0
  0
LINE
  5
155
  8
28
  6
CONTINUOUS
 62
     4
 10
334.93292530159817
 20
60.432172084523557
 30
0.0
 11
334.85483481469362
 21
60.517113285084712
 31
0.0
  0
LINE
  5
156
  8
28
  6
CONTINUOUS
 62
     4
 10
334.85483481469362
 20
60.517113285084712
 30
0.0
 11
334.78313437036718
 21
60.609285453391372
 31
0.0
  0
LINE
  5
157
  8
28
  6
CONTINUOUS
 62
     4
 10
334.78313437036718
 20
60.609285453391372
 30
0.0
 11
334.71884434765963
 21
60.707905378452558
 31
0.0
  0
LINE
  5
158
  8
28
  6
CONTINUOUS
 62
     4
 10
334.71884434765963
 20
60.707905378452558
 30
0.0
 11
334.66270833052999
 21
60.812187772014852
 31
0.0
  0
LINE
  5
159
  8
28
  6
CONTINUOUS
 62
     4
 10
334.66270833052999
 20
60.812187772014852
 30
0.0
 11
334.61509605716162
 21
60.922520133317477
 31
0.0
  0
LINE
  5
15A
  8
28
  6
CONTINUOUS
 62
     4
 10
334.61509605716162
 20
60.922520133317477
 30
0.0
 11
334.57624299799818
 21
61.039227334109889
 31
0.0
  0
LINE
  5
15B
  8
28
  6
CONTINUOUS
 62
     4
 10
334.57624299799818
 20
61.039227334109889
 30
0.0
 11
334.54729554235968
 21
61.161711964603988
 31
0.0
  0
LINE
  5
15C
  8
28
  6
CONTINUOUS
 62
     4
 10
334.54729554235968
 20
61.161711964603988
 30
0.0
 11
334.52963167855052
 21
61.28942376431408
 31
0.0
  0
LINE
  5
15D
  8
28
  6
CONTINUOUS
 62
     4
 10
334.52963167855052
 20
61.28942376431408
 30
0.0
 11
334.5227920779659
 21
61.422546153070478
 31
0.0
  0
LINE
  5
15E
  8
28
  6
CONTINUOUS
 62
     4
 10
334.5227920779659
 20
61.422546153070478
 30
0.0
 11
334.5227920779659
 21
63.023133674973543
 31
0.0
  0
LINE
  5
15F
  8
28
  6
CONTINUOUS
 62
     4
 10
335.12301239867111
 20
61.422546153070478
 30
0.0
 11
335.12301239867111
 21
63.765046792853781
 31
0.0
  0
LINE
  5
160
  8
28
  6
CONTINUOUS
 62
     3
 10
334.5227920779659
 20
61.33847500687714
 30
0.0
 11
334.5227920779659
 21
60.022032071405242
 31
0.0
  0
LINE
  5
161
  8
28
  6
DASHED
 62
     4
 10
334.5227920779659
 20
61.33847500687714
 30
0.0
 11
334.5227920779659
 21
61.422546153070478
 31
0.0
  0
LINE
  5
162
  8
28
  6
CONTINUOUS
 62
     3
 10
333.92257175726053
 20
60.022032071405242
 30
0.0
 11
333.92257175726053
 21
123.84545950733219
 31
0.0
  0
LINE
  5
163
  8
28
  6
CONTINUOUS
 62
     3
 10
334.5227920779659
 20
61.422546153070478
 30
0.0
 11
334.5227920779659
 21
123.84545950733219
 31
0.0
  0
LINE
  5
164
  8
28
  6
CONTINUOUS
 62
     3
 10
335.12301239867111
 20
61.422546153070478
 30
0.0
 11
335.12301239867111
 21
123.84545950733219
 31
0.0
  0
LINE
  5
165
  8
28
  6
CONTINUOUS
 62
     4
 10
335.92330615963351
 20
60.022032071405242
 30
0.0
 11
335.79018499882108
 21
60.028871421900043
 31
0.0
  0
LINE
  5
166
  8
28
  6
CONTINUOUS
 62
     4
 10
335.92330615963351
 20
60.622252392118853
 30
0.0
 11
335.837353270216
 21
60.627291406271169
 31
0.0
  0
LINE
  5
167
  8
28
  6
CONTINUOUS
 62
     4
 10
335.837353270216
 20
60.627291406271169
 30
0.0
 11
335.75549032657011
 21
60.640045066711657
 31
0.0
  0
LINE
  5
168
  8
28
  6
CONTINUOUS
 62
     4
 10
335.75549032657011
 20
60.640045066711657
 30
0.0
 11
335.67755168741343
 21
60.660905982052817
 31
0.0
  0
LINE
  5
169
  8
28
  6
CONTINUOUS
 62
     4
 10
335.67755168741343
 20
60.660905982052817
 30
0.0
 11
335.6040342761558
 21
60.688696326453993
 31
0.0
  0
LINE
  5
16A
  8
28
  6
CONTINUOUS
 62
     4
 10
335.6040342761558
 20
60.688696326453993
 30
0.0
 11
335.53548138818718
 21
60.722430385093993
 31
0.0
  0
LINE
  5
16B
  8
28
  6
CONTINUOUS
 62
     4
 10
335.53548138818718
 20
60.722430385093993
 30
0.0
 11
335.47158827067392
 21
60.761924436533647
 31
0.0
  0
LINE
  5
16C
  8
28
  6
CONTINUOUS
 62
     4
 10
335.47158827067392
 20
60.761924436533647
 30
0.0
 11
335.41214194391893
 21
60.806730827954702
 31
0.0
  0
LINE
  5
16D
  8
28
  6
CONTINUOUS
 62
     4
 10
335.79018499882108
 20
60.028871421900043
 30
0.0
 11
335.66247348471848
 21
60.046535248697509
 31
0.0
  0
LINE
  5
16E
  8
28
  6
CONTINUOUS
 62
     4
 10
335.66247348471848
 20
60.046535248697509
 30
0.0
 11
335.53998795739648
 21
60.075482881401243
 31
0.0
  0
LINE
  5
16F
  8
28
  6
CONTINUOUS
 62
     4
 10
335.53998795739648
 20
60.075482881401243
 30
0.0
 11
335.42327939660009
 21
60.114336334698137
 31
0.0
  0
ARC
  5
170
  8
28
  6
CONTINUOUS
 62
     3
 10
335.92330615963351
 20
61.422546153070478
 30
0.0
 40
1.400514081667575
 50
180.0
 51
269.66853209926592
  0
ARC
  5
171
  8
28
  6
CONTINUOUS
 62
     3
 10
335.92330615963351
 20
61.422546153070478
 30
0.0
 40
0.8002937609622634
 50
180.0
 51
269.41992449982251
  0
LINE
  5
172
  8
28
  6
CONTINUOUS
 62
     4
 10
335.92330615963351
 20
60.022032071405242
 30
0.0
 11
342.62576640759681
 21
60.022032071405242
 31
0.0
  0
LINE
  5
173
  8
28
  6
CONTINUOUS
 62
     4
 10
335.92330615963351
 20
60.622252392118853
 30
0.0
 11
342.62576640759681
 21
60.622252392118853
 31
0.0
  0
LINE
  5
174
  8
28
  6
CONTINUOUS
 62
     3
 10
335.92330615963351
 20
60.622252392118853
 30
0.0
 11
344.02628048926459
 21
60.622252392118853
 31
0.0
  0
LINE
  5
175
  8
28
  6
CONTINUOUS
 62
     3
 10
341.82547264665641
 20
61.722656313427969
 30
0.0
 11
337.42385696141861
 21
61.722656313427969
 31
0.0
  0
LINE
  5
176
  8
28
  6
CONTINUOUS
 62
     3
 10
335.12301239867111
 20
63.765046792853781
 30
0.0
 11
338.26580679942481
 21
60.622252392118853
 31
0.0
  0
LINE
  5
177
  8
28
  6
CONTINUOUS
 62
     3
 10
344.02628048926459
 20
60.022032071405242
 30
0.0
 11
335.91520394207822
 21
60.022055508006851
 31
0.0
  0
LINE
  5
178
  8
28
  6
CONTINUOUS
 62
     3
 10
335.91520394207822
 20
60.622293406673251
 30
0.0
 11
335.92330615963351
 21
60.622252392118853
 31
0.0
  0
ARC
  5
179
  8
28
  6
CONTINUOUS
 62
     3
 10
342.42569296736178
 20
61.22247271283269
 30
0.0
 40
0.6002203207053116
 50
180.0
 51
270.0
  0
LINE
  5
17A
  8
28
  6
CONTINUOUS
 62
     3
 10
337.42385696141861
 20
61.46420223011652
 30
0.0
 11
337.42385696141861
 21
61.722656313427969
 31
0.0
  0
LINE
  5
17B
  8
28
  6
CONTINUOUS
 62
     3
 10
341.82547264665641
 20
61.22247271283269
 30
0.0
 11
341.82547264665641
 21
61.722656313427969
 31
0.0
  0
LINE
  5
17C
  8
28
  6
CONTINUOUS
 62
     3
 10
344.02628048926459
 20
60.022032071405242
 30
0.0
 11
344.02628048926459
 21
60.622252392118853
 31
0.0
  0
LINE
  5
17D
  8
28
  6
CONTINUOUS
 62
     4
 10
334.35116612533773
 20
124.9667822092229
 30
0.0
 11
334.44573757033561
 21
124.9259712513913
 31
0.0
  0
LINE
  5
17E
  8
28
  6
CONTINUOUS
 62
     4
 10
334.44573757033561
 20
124.9259712513913
 30
0.0
 11
334.5351235034243
 21
124.87785385661159
 31
0.0
  0
LINE
  5
17F
  8
28
  6
CONTINUOUS
 62
     4
 10
334.5351235034243
 20
124.87785385661159
 30
0.0
 11
334.61965670521869
 21
124.8227463705046
 31
0.0
  0
LINE
  5
180
  8
28
  6
CONTINUOUS
 62
     4
 10
334.61965670521869
 20
124.8227463705046
 30
0.0
 11
334.69866291323649
 21
124.761287138886
 31
0.0
  0
LINE
  5
181
  8
28
  6
CONTINUOUS
 62
     4
 10
334.5227920779659
 20
123.84545950733219
 30
0.0
 11
334.5227920779659
 21
121.3028854273102
 31
0.0
  0
LINE
  5
182
  8
28
  6
CONTINUOUS
 62
     4
 10
335.12301239867111
 20
123.84545950733219
 30
0.0
 11
335.12301239867111
 21
122.04479854519001
 31
0.0
  0
ARC
  5
183
  8
28
  6
CONTINUOUS
 62
     3
 10
333.92257175726053
 20
123.84545950733219
 30
0.0
 40
1.200440641410623
 50
0.0
 51
90.0
  0
ARC
  5
184
  8
28
  6
CONTINUOUS
 62
     3
 10
333.92257175726053
 20
123.84545950733219
 30
0.0
 40
0.6002203207053116
 50
0.0
 51
90.0
  0
LINE
  5
185
  8
28
  6
DASHED
 62
     4
 10
-328.72063534166392
 20
125.0459001487601
 30
0.0
 11
-320.11750438081918
 21
125.0459001487601
 31
0.0
  0
ARC
  5
186
  8
28
  6
CONTINUOUS
 62
     3
 10
-328.12044199035478
 20
125.6461204694735
 30
0.0
 40
1.200440641437249
 50
330.00000000024028
 51
0.0
  0
ARC
  5
187
  8
28
  6
CONTINUOUS
 62
     3
 10
-328.12044199035478
 20
125.6461204694735
 30
0.0
 40
0.6002203207141948
 50
270.0
 51
0.0
  0
LINE
  5
188
  8
28
  6
CONTINUOUS
 62
     4
 10
-329.5351441639786
 20
125.0459001487601
 30
0.0
 11
-320.11750438081918
 21
125.0459001487601
 31
0.0
  0
LINE
  5
189
  8
28
  6
CONTINUOUS
 62
     4
 10
-334.03667560943188
 20
125.04003784890671
 30
0.0
 11
-334.14614262160387
 21
125.02489742536549
 31
0.0
  0
LINE
  5
18A
  8
28
  6
CONTINUOUS
 62
     4
 10
-334.14614262160387
 20
125.02489742536549
 30
0.0
 11
-334.25113021651072
 21
125.0000851691202
 31
0.0
  0
LINE
  5
18B
  8
28
  6
CONTINUOUS
 62
     4
 10
-334.25113021651072
 20
125.0000851691202
 30
0.0
 11
-334.35116612533773
 21
124.9667822092229
 31
0.0
  0
LINE
  5
18C
  8
28
  6
CONTINUOUS
 62
     4
 10
-334.35116612533773
 20
124.9667822092229
 30
0.0
 11
-334.44573757033538
 21
124.9259712513913
 31
0.0
  0
LINE
  5
18D
  8
28
  6
CONTINUOUS
 62
     4
 10
-334.44573757033538
 20
124.9259712513913
 30
0.0
 11
-334.53512350340208
 21
124.87785385661159
 31
0.0
  0
LINE
  5
18E
  8
28
  6
CONTINUOUS
 62
     4
 10
-334.53512350340208
 20
124.87785385661159
 30
0.0
 11
-334.61965670572062
 21
124.8227463705046
 31
0.0
  0
LINE
  5
18F
  8
28
  6
CONTINUOUS
 62
     4
 10
-334.61965670572062
 20
124.8227463705046
 30
0.0
 11
-334.69866291373847
 21
124.761287138886
 31
0.0
  0
LINE
  5
190
  8
28
  6
CONTINUOUS
 62
     4
 10
-334.69866291373847
 20
124.761287138886
 30
0.0
 11
-334.77146963564462
 21
124.6943515660859
 31
0.0
  0
LINE
  5
191
  8
28
  6
CONTINUOUS
 62
     4
 10
-334.77146963564462
 20
124.6943515660859
 30
0.0
 11
-334.83840433861849
 21
124.621544822677
 31
0.0
  0
LINE
  5
192
  8
28
  6
CONTINUOUS
 62
     4
 10
-334.83840433861849
 20
124.621544822677
 30
0.0
 11
-334.89986186211479
 21
124.54254010720049
 31
0.0
  0
LINE
  5
193
  8
28
  6
CONTINUOUS
 62
     4
 10
-334.89986186211479
 20
124.54254010720049
 30
0.0
 11
-334.95496759607948
 21
124.45800874307599
 31
0.0
  0
LINE
  5
194
  8
28
  6
CONTINUOUS
 62
     4
 10
-334.95496759607948
 20
124.45800874307599
 30
0.0
 11
-335.00308418205611
 21
124.3686238338796
 31
0.0
  0
LINE
  5
195
  8
28
  6
CONTINUOUS
 62
     4
 10
-335.00308418205611
 20
124.3686238338796
 30
0.0
 11
-335.04389470222048
 21
124.27405323869139
 31
0.0
  0
LINE
  5
196
  8
28
  6
CONTINUOUS
 62
     4
 10
-335.04389470222048
 20
124.27405323869139
 30
0.0
 11
-335.07719732451022
 21
124.1740184952975
 31
0.0
  0
LINE
  5
197
  8
28
  6
CONTINUOUS
 62
     4
 10
-335.07719732451022
 20
124.1740184952975
 30
0.0
 11
-335.1020094291809
 21
124.06903166916101
 31
0.0
  0
LINE
  5
198
  8
28
  6
CONTINUOUS
 62
     4
 10
-333.92257175723819
 20
125.0459001487601
 30
0.0
 11
-334.03667560943188
 21
125.04003784890671
 31
0.0
  0
LINE
  5
199
  8
28
  6
CONTINUOUS
 62
     3
 10
-333.92257175723819
 20
125.0459001487601
 30
0.0
 11
-329.5351441639786
 21
125.0459001487601
 31
0.0
  0
ARC
  5
19A
  8
28
  6
CONTINUOUS
 62
     3
 10
-333.92257175723819
 20
123.84545950733219
 30
0.0
 40
1.200440641427021
 50
90.0
 51
180.0
  0
LINE
  5
19B
  8
28
  6
CONTINUOUS
 62
     3
 10
334.22273184644092
 20
0.0
 30
0.0
 11
374.63751684569399
 21
0.0
 31
0.0
  0
LINE
  5
19C
  8
BASIS
  6
DASHDOT
 62
     6
 10
140.05140816660489
 20
270.3527127842853
 30
0.0
 11
140.05140816660489
 21
381.33234322252167
 31
0.0
  0
LINE
  5
19D
  8
BASIS
  6
DASHDOT
 62
     6
 10
140.05140816660489
 20
269.06047418591157
 30
0.0
 11
140.05140816660489
 21
270.3527127842853
 31
0.0
  0
LINE
  5
19E
  8
BASIS
  6
DASHDOT
 62
     6
 10
140.05140816660489
 20
269.06047418591157
 30
0.0
 11
140.05140816660489
 21
159.8663126213124
 31
0.0
  0
LINE
  5
19F
  8
BASIS
  6
DASHDOT
 62
     6
 10
29.3183928660013
 20
270.5993279219166
 30
0.0
 11
250.78442346723
 21
270.5993279219166
 31
0.0
  0
LINE
  5
1A0
  8
BASIS
  6
DASHDOT
 62
     6
 10
-591.1899550972314
 20
295.60850795166931
 30
0.0
 11
-271.75841679750152
 21
295.60850795166931
 31
0.0
  0
LINE
  5
1A1
  8
BASIS
  6
DASHDOT
 62
     6
 10
-460.16891254744593
 20
171.3380850615562
 30
0.0
 11
-460.16891254744593
 21
415.84123783433313
 31
0.0
  0
LINE
  5
1A2
  8
BASIS
  6
DASHDOT
 62
     6
 10
0.0
 20
-89.993358518261147
 30
0.0
 11
0.0
 21
487.55854212616708
 31
0.0
  0
LINE
  5
1A3
  8
DETAIL
  6
CONTINUOUS
 62
     5
 10
599.21995351285352
 20
454.1667093402977
 30
0.0
 11
599.21995351285352
 21
453.9666359000592
 31
0.0
  0
LINE
  5
1A4
  8
DETAIL
  6
CONTINUOUS
 62
     5
 10
647.13754244985978
 20
226.66641903133109
 30
0.0
 11
647.13754244985978
 21
304.49428602433068
 31
0.0
  0
LINE
  5
1A5
  8
DETAIL
  6
CONTINUOUS
 62
     5
 10
-335.1020094291809
 20
124.06903166916101
 30
0.0
 11
-335.11714988374382
 21
123.9595644124088
 31
0.0
  0
LINE
  5
1A6
  8
DETAIL
  6
CONTINUOUS
 62
     5
 10
-335.11714988374382
 20
123.9595644124088
 30
0.0
 11
-335.12301239867048
 21
123.84545950733239
 31
0.0
  0
LINE
  5
1A7
  8
DETAIL
  6
CONTINUOUS
 62
     5
 10
-547.70104265157124
 20
125.7461571895923
 30
0.0
 11
-552.70287865751368
 21
125.7461571895923
 31
0.0
  0
LINE
  5
1A8
  8
DETAIL
  6
CONTINUOUS
 62
     5
 10
-597.01914567024494
 20
238.0873938832394
 30
0.0
 11
-597.01914567024494
 21
245.08996429156969
 31
0.0
  0
LINE
  5
1A9
  8
DETAIL
  6
CONTINUOUS
 62
     5
 10
-587.93076159578641
 20
267.03969977251643
 30
0.0
 11
-588.06469876013296
 21
267.7551684035131
 31
0.0
  0
LINE
  5
1AA
  8
DETAIL
  6
CONTINUOUS
 62
     5
 10
-588.06469876013296
 20
267.7551684035131
 30
0.0
 11
-588.18668134133588
 21
268.44629519693922
 31
0.0
  0
LINE
  5
1AB
  8
DETAIL
  6
CONTINUOUS
 62
     5
 10
-588.18668134133588
 20
268.44629519693922
 30
0.0
 11
-588.29677804562414
 21
269.1061903617836
 31
0.0
  0
LINE
  5
1AC
  8
DETAIL
  6
CONTINUOUS
 62
     5
 10
-588.29677804562414
 20
269.1061903617836
 30
0.0
 11
-588.39450559363331
 21
269.72694158820372
 31
0.0
  0
LINE
  5
1AD
  8
DETAIL
  6
CONTINUOUS
 62
     5
 10
-588.39450559363331
 20
269.72694158820372
 30
0.0
 11
-588.48123202298837
 21
270.30901773730159
 31
0.0
  0
LINE
  5
1AE
  8
DETAIL
  6
CONTINUOUS
 62
     5
 10
-588.48123202298837
 20
270.30901773730159
 30
0.0
 11
-588.55741366071072
 21
270.84663809367231
 31
0.0
  0
LINE
  5
1AF
  8
DETAIL
  6
CONTINUOUS
 62
     5
 10
-588.55741366071072
 20
270.84663809367231
 30
0.0
 11
-588.62530235837119
 21
271.35063908250191
 31
0.0
  0
LINE
  5
1B0
  8
DETAIL
  6
CONTINUOUS
 62
     5
 10
-588.62530235837119
 20
271.35063908250191
 30
0.0
 11
-588.68693351510592
 21
271.82761332722191
 31
0.0
  0
LINE
  5
1B1
  8
DETAIL
  6
CONTINUOUS
 62
     5
 10
-588.68693351510592
 20
271.82761332722191
 30
0.0
 11
-588.74341281573868
 21
272.28451152019881
 31
0.0
  0
LINE
  5
1B2
  8
DETAIL
  6
CONTINUOUS
 62
     5
 10
-588.74341281573868
 20
272.28451152019881
 30
0.0
 11
-588.79629984429118
 21
272.72844157900801
 31
0.0
  0
LINE
  5
1B3
  8
DETAIL
  6
CONTINUOUS
 62
     5
 10
-588.79629984429118
 20
272.72844157900801
 30
0.0
 11
-588.84626829653928
 21
273.16552445044601
 31
0.0
  0
LINE
  5
1B4
  8
DETAIL
  6
CONTINUOUS
 62
     5
 10
-588.84626829653928
 20
273.16552445044601
 30
0.0
 11
-588.89459259875912
 21
273.60460700289872
 31
0.0
  0
LINE
  5
1B5
  8
DETAIL
  6
CONTINUOUS
 62
     5
 10
-588.89459259875912
 20
273.60460700289872
 30
0.0
 11
-588.94103014292568
 21
274.04461938916251
 31
0.0
  0
LINE
  5
1B6
  8
DETAIL
  6
CONTINUOUS
 62
     5
 10
-588.94103014292568
 20
274.04461938916251
 30
0.0
 11
-588.98587411513881
 21
274.48817235805529
 31
0.0
  0
LINE
  5
1B7
  8
DETAIL
  6
CONTINUOUS
 62
     5
 10
-588.98587411513881
 20
274.48817235805529
 30
0.0
 11
-589.028791566211
 21
274.93307099339728
 31
0.0
  0
LINE
  5
1B8
  8
DETAIL
  6
CONTINUOUS
 62
     5
 10
-589.028791566211
 20
274.93307099339728
 30
0.0
 11
-589.06962236582297
 21
275.37829228417468
 31
0.0
  0
LINE
  5
1B9
  8
DETAIL
  6
CONTINUOUS
 62
     5
 10
-589.06962236582297
 20
275.37829228417468
 30
0.0
 11
-589.10814124479975
 21
275.82293126420541
 31
0.0
  0
LINE
  5
1BA
  8
DETAIL
  6
CONTINUOUS
 62
     5
 10
-589.10814124479975
 20
275.82293126420541
 30
0.0
 11
-589.14403472409685
 21
276.26558621696699
 31
0.0
  0
LINE
  5
1BB
  8
DETAIL
  6
CONTINUOUS
 62
     5
 10
-589.14403472409685
 20
276.26558621696699
 30
0.0
 11
-589.17740729654076
 21
276.7067243814659
 31
0.0
  0
LINE
  5
1BC
  8
DETAIL
  6
CONTINUOUS
 62
     5
 10
-582.17628057414345
 20
247.8404584415629
 30
0.0
 11
-582.2461192940815
 21
248.00096119023041
 31
0.0
  0
LINE
  5
1BD
  8
DETAIL
  6
CONTINUOUS
 62
     5
 10
-582.2461192940815
 20
248.00096119023041
 30
0.0
 11
-582.37730695367077
 21
248.3084957428317
 31
0.0
  0
LINE
  5
1BE
  8
DETAIL
  6
CONTINUOUS
 62
     5
 10
-582.37730695367077
 20
248.3084957428317
 30
0.0
 11
-582.43818263309311
 21
248.4554877866729
 31
0.0
  0
ARC
  5
1BF
  8
DETAIL
  6
CONTINUOUS
 62
     5
 10
-499.37910135389677
 20
283.203954656912
 30
0.0
 40
90.033048107102587
 50
184.1383442202989
 51
202.72929495290259
  0
LINE
  5
1C0
  8
DETAIL
  6
CONTINUOUS
 62
     5
 10
-582.17628057414345
 20
247.8404584415629
 30
0.0
 11
-582.42024206421161
 21
248.41719449149039
 31
0.0
  0
LINE
  5
1C1
  8
DETAIL
  6
CONTINUOUS
 62
     5
 10
-582.42024215723256
 20
248.41719445247699
 30
0.0
 11
-582.44120279818083
 21
248.46759154055411
 31
0.0
  0
LINE
  5
1C2
  8
DETAIL
  6
CONTINUOUS
 62
     5
 10
-582.44120279818083
 20
248.46759154055411
 30
0.0
 11
-582.47648991440997
 21
248.5542295504568
 31
0.0
  0
LINE
  5
1C3
  8
DETAIL
  6
CONTINUOUS
 62
     5
 10
-582.43818263309311
 20
248.4554877866729
 30
0.0
 11
-582.52128847395909
 21
248.66777914619851
 31
0.0
  0
LINE
  5
1C4
  8
DETAIL
  6
CONTINUOUS
 62
     5
 10
-582.52128847395909
 20
248.66777914619851
 30
0.0
 11
-582.57368820062675
 21
248.806311793379
 31
0.0
  0
ARC
  5
1C5
  8
DETAIL
  6
CONTINUOUS
 62
     5
 10
-588.61606118023963
 20
245.08996429156969
 30
0.0
 40
7.0025704083303557
 50
270.0
 51
23.127808470260572
  0
LINE
  5
1C6
  8
DETAIL
  6
CONTINUOUS
 62
     5
 10
-582.57368820062675
 20
248.806311793379
 30
0.0
 11
-582.63079250521082
 21
248.964809041894
 31
0.0
  0
ARC
  5
1C7
  8
DETAIL
  6
CONTINUOUS
 62
     5
 10
-590.61679558261267
 20
245.08996429156969
 30
0.0
 40
6.4023500876168589
 50
90.0
 51
180.0
  0
LINE
  5
1C8
  8
DETAIL
  6
CONTINUOUS
 62
     5
 10
-582.63079250521082
 20
248.964809041894
 30
0.0
 11
-582.66876525273096
 21
249.07462728998249
 31
0.0
  0
LINE
  5
1C9
  8
DETAIL
  6
CONTINUOUS
 62
     5
 10
-582.49507110844013
 20
248.5982069100678
 30
0.0
 11
-582.54789475671157
 21
248.73570272166111
 31
0.0
  0
ARC
  5
1CA
  8
DETAIL
  6
CONTINUOUS
 62
     5
 10
-597.71940271106769
 20
259.59528870882627
 30
0.0
 40
5.0018360059506541
 50
270.0
 51
90.0
  0
LINE
  5
1CB
  8
DETAIL
  6
CONTINUOUS
 62
     5
 10
-582.54789475671157
 20
248.73570272166111
 30
0.0
 11
-582.59625617507243
 21
248.86736712874139
 31
0.0
  0
LINE
  5
1CC
  8
DETAIL
  6
CONTINUOUS
 62
     5
 10
-582.59625617507243
 20
248.86736712874139
 30
0.0
 11
-582.64050956400899
 21
248.99243701869591
 31
0.0
  0
LINE
  5
1CD
  8
DETAIL
  6
CONTINUOUS
 62
     5
 10
-582.66882724647655
 20
249.0746062277519
 30
0.0
 11
-582.68071164283094
 21
249.10976914537761
 31
0.0
  0
LINE
  5
1CE
  8
DETAIL
  6
CONTINUOUS
 62
     5
 10
-582.68071164283094
 20
249.10976914537761
 30
0.0
 11
-582.71735744978855
 21
249.21989582318119
 31
0.0
  0
LINE
  5
1CF
  8
DETAIL
  6
CONTINUOUS
 62
     5
 10
-582.71735744978855
 20
249.21989582318119
 30
0.0
 11
-582.75074027900757
 21
249.3223805088661
 31
0.0
  0
CIRCLE
  5
1D0
  8
DETAIL
  6
CONTINUOUS
 62
     5
 10
-590.61679558261267
 20
245.08996429156969
 30
0.0
 40
3.0011016035702518
  0
LINE
  5
1D1
  8
DETAIL
  6
CONTINUOUS
 62
     5
 10
-582.75074027900757
 20
249.3223805088661
 30
0.0
 11
-582.78152208545521
 21
249.41898653219141
 31
0.0
  0
LINE
  5
1D2
  8
DETAIL
  6
CONTINUOUS
 62
     5
 10
-582.78152208545521
 20
249.41898653219141
 30
0.0
 11
-582.81032103109214
 21
249.5109031281857
 31
0.0
  0
LINE
  5
1D3
  8
DETAIL
  6
CONTINUOUS
 62
     5
 10
-582.81032103109214
 20
249.5109031281857
 30
0.0
 11
-582.86377832397181
 21
249.68587661257331
 31
0.0
  0
LINE
  5
1D4
  8
DETAIL
  6
CONTINUOUS
 62
     5
 10
-582.86377832397181
 20
249.68587661257331
 30
0.0
 11
-582.91452414955677
 21
249.85717983222949
 31
0.0
  0
LINE
  5
1D5
  8
DETAIL
  6
CONTINUOUS
 62
     5
 10
-582.91452414955677
 20
249.85717983222949
 30
0.0
 11
-582.9640516119174
 21
250.02963210116411
 31
0.0
  0
LINE
  5
1D6
  8
DETAIL
  6
CONTINUOUS
 62
     5
 10
-582.9640516119174
 20
250.02963210116411
 30
0.0
 11
-582.98826454918708
 21
250.1162435263077
 31
0.0
  0
LINE
  5
1D7
  8
DETAIL
  6
CONTINUOUS
 62
     5
 10
-582.98826454918708
 20
250.1162435263077
 30
0.0
 11
-583.01199733619728
 21
250.20302478279129
 31
0.0
  0
LINE
  5
1D8
  8
DETAIL
  6
CONTINUOUS
 62
     5
 10
-583.01199733619728
 20
250.20302478279129
 30
0.0
 11
-583.03515843734147
 21
250.28984287229571
 31
0.0
  0
LINE
  5
1D9
  8
DETAIL
  6
CONTINUOUS
 62
     5
 10
-583.03515843734147
 20
250.28984287229571
 30
0.0
 11
-583.05760672135807
 21
250.37646149158019
 31
0.0
  0
LINE
  5
1DA
  8
DETAIL
  6
CONTINUOUS
 62
     5
 10
-583.05760672135807
 20
250.37646149158019
 30
0.0
 11
-583.07942013983438
 21
250.46315417755289
 31
0.0
  0
LINE
  5
1DB
  8
DETAIL
  6
CONTINUOUS
 62
     5
 10
-583.07942013983438
 20
250.46315417755289
 30
0.0
 11
-583.10054757801299
 21
250.5498420107439
 31
0.0
  0
LINE
  5
1DC
  8
DETAIL
  6
CONTINUOUS
 62
     5
 10
-583.10054757801299
 20
250.5498420107439
 30
0.0
 11
-583.12123510569609
 21
250.63734605804009
 31
0.0
  0
LINE
  5
1DD
  8
DETAIL
  6
CONTINUOUS
 62
     5
 10
-583.12123510569609
 20
250.63734605804009
 30
0.0
 11
-583.14166758027125
 21
250.7263581098737
 31
0.0
  0
LINE
  5
1DE
  8
DETAIL
  6
CONTINUOUS
 62
     5
 10
-583.14166758027125
 20
250.7263581098737
 30
0.0
 11
-583.16197752038045
 21
250.8171870766364
 31
0.0
  0
LINE
  5
1DF
  8
DETAIL
  6
CONTINUOUS
 62
     5
 10
-583.16197752038045
 20
250.8171870766364
 30
0.0
 11
-583.20281221392065
 21
251.00591427504969
 31
0.0
  0
LINE
  5
1E0
  8
DETAIL
  6
CONTINUOUS
 62
     5
 10
-583.20281221392065
 20
251.00591427504969
 30
0.0
 11
-583.24370862410922
 21
251.20202692541491
 31
0.0
  0
LINE
  5
1E1
  8
DETAIL
  6
CONTINUOUS
 62
     5
 10
-583.64250754129807
 20
251.49231437918641
 30
0.0
 11
-583.64250754129807
 21
253.49304878156619
 31
0.0
  0
LINE
  5
1E2
  8
DETAIL
  6
CONTINUOUS
 62
     5
 10
-583.24370862410922
 20
251.20202692541491
 30
0.0
 11
-583.28469511938965
 21
251.4052921152369
 31
0.0
  0
LINE
  5
1E3
  8
DETAIL
  6
CONTINUOUS
 62
     5
 10
-583.28469511938965
 20
251.4052921152369
 30
0.0
 11
-583.32712615587855
 21
251.6227371900184
 31
0.0
  0
LINE
  5
1E4
  8
DETAIL
  6
CONTINUOUS
 62
     5
 10
-583.32712615587855
 20
251.6227371900184
 30
0.0
 11
-583.37241623185662
 21
251.86296217553979
 31
0.0
  0
LINE
  5
1E5
  8
DETAIL
  6
CONTINUOUS
 62
     5
 10
-583.37241623185662
 20
251.86296217553979
 30
0.0
 11
-583.42169130257673
 21
252.13460900946589
 31
0.0
  0
LINE
  5
1E6
  8
DETAIL
  6
CONTINUOUS
 62
     5
 10
-583.42169130257673
 20
252.13460900946589
 30
0.0
 11
-583.47445043217465
 21
252.4383205282607
 31
0.0
  0
LINE
  5
1E7
  8
DETAIL
  6
CONTINUOUS
 62
     5
 10
-583.47445043217465
 20
252.4383205282607
 30
0.0
 11
-583.52946548936063
 21
252.76928089469089
 31
0.0
  0
LINE
  5
1E8
  8
DETAIL
  6
CONTINUOUS
 62
     5
 10
-583.52946548936063
 20
252.76928089469089
 30
0.0
 11
-583.58574463754871
 21
253.12252843049399
 31
0.0
  0
LINE
  5
1E9
  8
DETAIL
  6
CONTINUOUS
 62
     5
 10
-583.58574463754871
 20
253.12252843049399
 30
0.0
 11
-583.64250754129807
 21
253.49304878156619
 31
0.0
  0
LINE
  5
1EA
  8
DETAIL
  6
CONTINUOUS
 62
     5
 10
-590.61679558261267
 20
251.49231437918641
 30
0.0
 11
-583.64250754129807
 21
251.49231437918641
 31
0.0
  0
LINE
  5
1EB
  8
DETAIL
  6
CONTINUOUS
 62
     5
 10
-583.64250754129807
 20
253.49304878156619
 30
0.0
 11
-584.18958391466322
 21
254.64689628471911
 31
0.0
  0
LINE
  5
1EC
  8
DETAIL
  6
CONTINUOUS
 62
     5
 10
-584.18958391466322
 20
254.64689628471911
 30
0.0
 11
-584.67818768918232
 21
255.75611802025091
 31
0.0
  0
LINE
  5
1ED
  8
DETAIL
  6
CONTINUOUS
 62
     5
 10
-584.67818768918232
 20
255.75611802025091
 30
0.0
 11
-585.10366747353009
 21
256.82033556325632
 31
0.0
  0
LINE
  5
1EE
  8
DETAIL
  6
CONTINUOUS
 62
     5
 10
-585.10366747353009
 20
256.82033556325632
 30
0.0
 11
-585.47997744325664
 21
257.84068418945611
 31
0.0
  0
LINE
  5
1EF
  8
DETAIL
  6
CONTINUOUS
 62
     5
 10
-585.47997744325664
 20
257.84068418945611
 30
0.0
 11
-585.81845833973296
 21
258.81636328797367
 31
0.0
  0
LINE
  5
1F0
  8
DETAIL
  6
CONTINUOUS
 62
     5
 10
-585.81845833973296
 20
258.81636328797367
 30
0.0
 11
-586.12229907546225
 21
259.7528020946981
 31
0.0
  0
LINE
  5
1F1
  8
DETAIL
  6
CONTINUOUS
 62
     5
 10
-586.12229907546225
 20
259.7528020946981
 30
0.0
 11
-586.3974415195006
 21
260.65364055423078
 31
0.0
  0
LINE
  5
1F2
  8
DETAIL
  6
CONTINUOUS
 62
     5
 10
-586.3974415195006
 20
260.65364055423078
 30
0.0
 11
-586.64696754362637
 21
261.52344593206209
 31
0.0
  0
LINE
  5
1F3
  8
DETAIL
  6
CONTINUOUS
 62
     5
 10
-586.64696754362637
 20
261.52344593206209
 30
0.0
 11
-586.8749927460193
 21
262.36664893805579
 31
0.0
  0
LINE
  5
1F4
  8
DETAIL
  6
CONTINUOUS
 62
     5
 10
-586.8749927460193
 20
262.36664893805579
 30
0.0
 11
-587.08435781140088
 21
263.18729918269008
 31
0.0
  0
LINE
  5
1F5
  8
DETAIL
  6
CONTINUOUS
 62
     5
 10
-587.08435781140088
 20
263.18729918269008
 30
0.0
 11
-587.27905009938445
 21
263.99109044395641
 31
0.0
  0
LINE
  5
1F6
  8
DETAIL
  6
CONTINUOUS
 62
     5
 10
-587.27905009938445
 20
263.99109044395641
 30
0.0
 11
-587.45974517749562
 21
264.77752093216662
 31
0.0
  0
LINE
  5
1F7
  8
DETAIL
  6
CONTINUOUS
 62
     5
 10
-587.45974517749562
 20
264.77752093216662
 30
0.0
 11
-587.62844187137568
 21
265.548600801681
 31
0.0
  0
LINE
  5
1F8
  8
DETAIL
  6
CONTINUOUS
 62
     5
 10
-587.62844187137568
 20
265.548600801681
 30
0.0
 11
-587.7851577680193
 21
266.30248800284392
 31
0.0
  0
LINE
  5
1F9
  8
DETAIL
  6
CONTINUOUS
 62
     5
 10
-587.7851577680193
 20
266.30248800284392
 30
0.0
 11
-587.93076159578641
 21
267.03969977251643
 31
0.0
  0
LINE
  5
1FA
  8
DETAIL
  6
CONTINUOUS
 62
     5
 10
-588.61606118023963
 20
238.0873938832394
 30
0.0
 11
-636.13400848572917
 21
238.0873938832394
 31
0.0
  0
ARC
  5
1FB
  8
DETAIL
  6
CONTINUOUS
 62
     5
 10
-596.16171998107779
 20
276.20138424858118
 30
0.0
 40
7.0025704083384239
 50
4.1383442202988574
 51
90.0
  0
LINE
  5
1FC
  8
DETAIL
  6
CONTINUOUS
 62
     5
 10
-604.22178951881824
 20
283.203954656912
 30
0.0
 11
-604.22178951881824
 21
285.20468905929221
 31
0.0
  0
ARC
  5
1FD
  8
DETAIL
  6
CONTINUOUS
 62
     5
 10
-604.22178951881824
 20
283.203954656912
 30
0.0
 40
4.0014688047676188
 50
0.0
 51
90.0
  0
ARC
  5
1FE
  8
DETAIL
  6
CONTINUOUS
 62
     5
 10
-604.22178951881824
 20
283.203954656912
 30
0.0
 40
2.0007344023947331
 50
0.0
 51
90.0
  0
LINE
  5
1FF
  8
DETAIL
  6
CONTINUOUS
 62
     5
 10
-610.22399272595851
 20
283.203954656912
 30
0.0
 11
-596.16171998107779
 21
283.203954656912
 31
0.0
  0
LINE
  5
200
  8
DETAIL
  6
CONTINUOUS
 62
     5
 10
-604.22178951881824
 20
285.20468905929221
 30
0.0
 11
-610.22399272595851
 21
285.20468905929221
 31
0.0
  0
LINE
  5
201
  8
DETAIL
  6
CONTINUOUS
 62
     5
 10
-610.22399272595851
 20
283.203954656912
 30
0.0
 11
-610.22399272595851
 21
287.20542346167241
 31
0.0
  0
LINE
  5
202
  8
DETAIL
  6
CONTINUOUS
 62
     5
 10
-667.14488647365386
 20
287.20542346167241
 30
0.0
 11
-604.22178951881824
 21
287.20542346167241
 31
0.0
  0
ARC
  5
203
  8
DETAIL
  6
CONTINUOUS
 62
     5
 10
-636.13400848572917
 20
245.08996429156969
 30
0.0
 40
7.0025704083271876
 50
225.00000000001151
 51
270.0
  0
ARC
  5
204
  8
DETAIL
  6
CONTINUOUS
 62
     5
 10
-660.14231606533815
 20
269.09827187117207
 30
0.0
 40
7.002570408316025
 50
180.0
 51
225.00000000001151
  0
ARC
  5
205
  8
DETAIL
  6
CONTINUOUS
 62
     5
 10
-621.42810537927767
 20
259.59528870882627
 30
0.0
 40
5.0018360059503157
 50
90.0
 51
270.0
  0
CIRCLE
  5
206
  8
DETAIL
  6
CONTINUOUS
 62
     5
 10
-647.13754244985944
 20
263.19661063311031
 30
0.0
 40
3.0011016035702518
  0
LINE
  5
207
  8
DETAIL
  6
CONTINUOUS
 62
     5
 10
-641.08557350738806
 20
240.13839927040891
 30
0.0
 11
-665.09388108699682
 21
264.1467068500109
 31
0.0
  0
LINE
  5
208
  8
DETAIL
  6
CONTINUOUS
 62
     5
 10
-660.56512099381609
 20
283.203954656912
 30
0.0
 11
-660.45054030159611
 21
283.40754624854492
 31
0.0
  0
LINE
  5
209
  8
DETAIL
  6
CONTINUOUS
 62
     5
 10
-660.45054030159611
 20
283.40754624854492
 30
0.0
 11
-660.34216900013712
 21
283.61086166780387
 31
0.0
  0
LINE
  5
20A
  8
DETAIL
  6
CONTINUOUS
 62
     5
 10
-660.34216900013712
 20
283.61086166780387
 30
0.0
 11
-660.24003759662128
 21
283.81366571835781
 31
0.0
  0
LINE
  5
20B
  8
DETAIL
  6
CONTINUOUS
 62
     5
 10
-660.24003759662128
 20
283.81366571835781
 30
0.0
 11
-660.14405457247381
 21
284.01666398820259
 31
0.0
  0
LINE
  5
20C
  8
DETAIL
  6
CONTINUOUS
 62
     5
 10
-660.14405457247381
 20
284.01666398820259
 30
0.0
 11
-660.05398209539453
 21
284.2204726695216
 31
0.0
  0
LINE
  5
20D
  8
DETAIL
  6
CONTINUOUS
 62
     5
 10
-660.05398209539453
 20
284.2204726695216
 30
0.0
 11
-659.97028961269484
 21
284.4251247499252
 31
0.0
  0
LINE
  5
20E
  8
DETAIL
  6
CONTINUOUS
 62
     5
 10
-659.97028961269484
 20
284.4251247499252
 30
0.0
 11
-659.89311061139563
 21
284.63089926583609
 31
0.0
  0
LINE
  5
20F
  8
DETAIL
  6
CONTINUOUS
 62
     5
 10
-659.89311061139563
 20
284.63089926583609
 30
0.0
 11
-659.82321514059606
 21
284.83767425848868
 31
0.0
  0
LINE
  5
210
  8
DETAIL
  6
CONTINUOUS
 62
     5
 10
-659.82321514059606
 20
284.83767425848868
 30
0.0
 11
-659.76091300259156
 21
285.04632987395547
 31
0.0
  0
LINE
  5
211
  8
DETAIL
  6
CONTINUOUS
 62
     5
 10
-659.76091300259156
 20
285.04632987395547
 30
0.0
 11
-659.70771842813326
 21
285.25413883214219
 31
0.0
  0
LINE
  5
212
  8
DETAIL
  6
CONTINUOUS
 62
     5
 10
-659.70771842813326
 20
285.25413883214219
 30
0.0
 11
-659.66497540010437
 21
285.45969596876108
 31
0.0
  0
LINE
  5
213
  8
DETAIL
  6
CONTINUOUS
 62
     5
 10
-659.66497540010437
 20
285.45969596876108
 30
0.0
 11
-659.63350446519155
 21
285.65991508797282
 31
0.0
  0
LINE
  5
214
  8
DETAIL
  6
CONTINUOUS
 62
     5
 10
-659.63350446519155
 20
285.65991508797282
 30
0.0
 11
-659.61461912202435
 21
285.85154201027768
 31
0.0
  0
LINE
  5
215
  8
DETAIL
  6
CONTINUOUS
 62
     5
 10
-659.61461912202435
 20
285.85154201027768
 30
0.0
 11
-659.60818450058468
 21
286.03367552137053
 31
0.0
  0
LINE
  5
216
  8
DETAIL
  6
CONTINUOUS
 62
     5
 10
-659.60818450058468
 20
286.03367552137053
 30
0.0
 11
-659.6146558114915
 21
286.20462902115707
 31
0.0
  0
LINE
  5
217
  8
DETAIL
  6
CONTINUOUS
 62
     5
 10
-659.6146558114915
 20
286.20462902115707
 30
0.0
 11
-659.63357631356087
 21
286.36350449050389
 31
0.0
  0
LINE
  5
218
  8
DETAIL
  6
CONTINUOUS
 62
     5
 10
-659.63357631356087
 20
286.36350449050389
 30
0.0
 11
-659.66507957285933
 21
286.50916751850752
 31
0.0
  0
LINE
  5
219
  8
DETAIL
  6
CONTINUOUS
 62
     5
 10
-659.66507957285933
 20
286.50916751850752
 30
0.0
 11
-659.70784987989566
 21
286.64064068538971
 31
0.0
  0
LINE
  5
21A
  8
DETAIL
  6
CONTINUOUS
 62
     5
 10
-659.70784987989566
 20
286.64064068538971
 30
0.0
 11
-659.76106427511672
 21
286.75625991332419
 31
0.0
  0
LINE
  5
21B
  8
DETAIL
  6
CONTINUOUS
 62
     5
 10
-659.76106427511672
 20
286.75625991332419
 30
0.0
 11
-659.82337807641159
 21
286.85695076855438
 31
0.0
  0
LINE
  5
21C
  8
DETAIL
  6
CONTINUOUS
 62
     5
 10
-659.82337807641159
 20
286.85695076855438
 30
0.0
 11
-659.89327517177958
 21
286.94261126464397
 31
0.0
  0
LINE
  5
21D
  8
DETAIL
  6
CONTINUOUS
 62
     5
 10
-659.89327517177958
 20
286.94261126464397
 30
0.0
 11
-659.97044689393294
 21
287.01465998180799
 31
0.0
  0
LINE
  5
21E
  8
DETAIL
  6
CONTINUOUS
 62
     5
 10
-659.97044689393294
 20
287.01465998180799
 30
0.0
 11
-660.05412281605413
 21
287.07431120776857
 31
0.0
  0
LINE
  5
21F
  8
DETAIL
  6
CONTINUOUS
 62
     5
 10
-660.05412281605413
 20
287.07431120776857
 30
0.0
 11
-660.1441721071327
 21
287.12207583305837
 31
0.0
  0
LINE
  5
220
  8
DETAIL
  6
CONTINUOUS
 62
     5
 10
-660.1441721071327
 20
287.12207583305837
 30
0.0
 11
-660.24012699693935
 21
287.15880182593611
 31
0.0
  0
LINE
  5
221
  8
DETAIL
  6
CONTINUOUS
 62
     5
 10
-660.24012699693935
 20
287.15880182593611
 30
0.0
 11
-660.34222787523765
 21
287.18469223993742
 31
0.0
  0
LINE
  5
222
  8
DETAIL
  6
CONTINUOUS
 62
     5
 10
-660.34222787523765
 20
287.18469223993742
 30
0.0
 11
-660.45056976541468
 21
287.20029349863478
 31
0.0
  0
LINE
  5
223
  8
DETAIL
  6
CONTINUOUS
 62
     5
 10
-660.45056976541468
 20
287.20029349863478
 30
0.0
 11
-660.56512099381609
 21
287.20542346167241
 31
0.0
  0
LINE
  5
224
  8
DETAIL
  6
CONTINUOUS
 62
     5
 10
-632.55483936048643
 20
283.203954656912
 30
0.0
 11
-632.44025986821407
 21
283.40754419629172
 31
0.0
  0
LINE
  5
225
  8
DETAIL
  6
CONTINUOUS
 62
     5
 10
-632.44025986821407
 20
283.40754419629172
 30
0.0
 11
-632.33189033640122
 21
283.61085593970188
 31
0.0
  0
LINE
  5
226
  8
DETAIL
  6
CONTINUOUS
 62
     5
 10
-632.33189033640122
 20
283.61085593970188
 30
0.0
 11
-632.22976151183445
 21
283.81365429016398
 31
0.0
  0
LINE
  5
227
  8
DETAIL
  6
CONTINUOUS
 62
     5
 10
-632.22976151183445
 20
283.81365429016398
 30
0.0
 11
-632.13378115166495
 21
284.01664604011438
 31
0.0
  0
LINE
  5
228
  8
DETAIL
  6
CONTINUOUS
 62
     5
 10
-632.13378115166495
 20
284.01664604011438
 30
0.0
 11
-632.04371085989965
 21
284.22044814502021
 31
0.0
  0
LINE
  5
229
  8
DETAIL
  6
CONTINUOUS
 62
     5
 10
-632.04371085989965
 20
284.22044814502021
 30
0.0
 11
-631.96001984123109
 21
284.42509451632782
 31
0.0
  0
LINE
  5
22A
  8
DETAIL
  6
CONTINUOUS
 62
     5
 10
-631.96001984123109
 20
284.42509451632782
 30
0.0
 11
-631.88284107851075
 21
284.63086526435592
 31
0.0
  0
LINE
  5
22B
  8
DETAIL
  6
CONTINUOUS
 62
     5
 10
-631.88284107851075
 20
284.63086526435592
 30
0.0
 11
-631.81294484044145
 21
284.8376387454536
 31
0.0
  0
LINE
  5
22C
  8
DETAIL
  6
CONTINUOUS
 62
     5
 10
-631.81294484044145
 20
284.8376387454536
 30
0.0
 11
-631.75064077371701
 21
285.04629603503417
 31
0.0
  0
LINE
  5
22D
  8
DETAIL
  6
CONTINUOUS
 62
     5
 10
-631.75064077371701
 20
285.04629603503417
 30
0.0
 11
-631.69744372335299
 21
285.25410908372243
 31
0.0
  0
LINE
  5
22E
  8
DETAIL
  6
CONTINUOUS
 62
     5
 10
-631.69744372335299
 20
285.25410908372243
 30
0.0
 11
-631.65469809036813
 21
285.45967261768919
 31
0.0
  0
LINE
  5
22F
  8
DETAIL
  6
CONTINUOUS
 62
     5
 10
-631.65469809036813
 20
285.45967261768919
 30
0.0
 11
-631.62322484960725
 21
285.6598993877098
 31
0.0
  0
LINE
  5
230
  8
DETAIL
  6
CONTINUOUS
 62
     5
 10
-631.62322484960725
 20
285.6598993877098
 30
0.0
 11
-631.60433806291303
 21
285.85153431795482
 31
0.0
  0
LINE
  5
231
  8
DETAIL
  6
CONTINUOUS
 62
     5
 10
-631.60433806291303
 20
285.85153431795482
 30
0.0
 11
-631.59790286725536
 21
286.03367561490489
 31
0.0
  0
LINE
  5
232
  8
DETAIL
  6
CONTINUOUS
 62
     5
 10
-631.59790286725536
 20
286.03367561490489
 30
0.0
 11
-631.60437476738139
 21
286.20463589367921
 31
0.0
  0
LINE
  5
233
  8
DETAIL
  6
CONTINUOUS
 62
     5
 10
-631.60437476738139
 20
286.20463589367921
 30
0.0
 11
-631.623296727499
 21
286.36351685654267
 31
0.0
  0
LINE
  5
234
  8
DETAIL
  6
CONTINUOUS
 62
     5
 10
-631.623296727499
 20
286.36351685654267
 30
0.0
 11
-631.65480230664207
 21
286.50918352338311
 31
0.0
  0
LINE
  5
235
  8
DETAIL
  6
CONTINUOUS
 62
     5
 10
-631.65480230664207
 20
286.50918352338311
 30
0.0
 11
-631.69757523014152
 21
286.64065855745071
 31
0.0
  0
LINE
  5
236
  8
DETAIL
  6
CONTINUOUS
 62
     5
 10
-631.69757523014152
 20
286.64065855745071
 30
0.0
 11
-631.75079210875845
 21
286.75627756530361
 31
0.0
  0
LINE
  5
237
  8
DETAIL
  6
CONTINUOUS
 62
     5
 10
-631.75079210875845
 20
286.75627756530361
 30
0.0
 11
-631.81310784226719
 21
286.85696673291432
 31
0.0
  0
LINE
  5
238
  8
DETAIL
  6
CONTINUOUS
 62
     5
 10
-631.81310784226719
 20
286.85696673291432
 30
0.0
 11
-631.88300570392187
 21
286.94262436845389
 31
0.0
  0
LINE
  5
239
  8
DETAIL
  6
CONTINUOUS
 62
     5
 10
-631.88300570392187
 20
286.94262436845389
 30
0.0
 11
-631.96017718249584
 21
287.01466971438037
 31
0.0
  0
LINE
  5
23A
  8
DETAIL
  6
CONTINUOUS
 62
     5
 10
-631.96017718249584
 20
287.01466971438037
 30
0.0
 11
-632.04385163257314
 21
287.07431775167049
 31
0.0
  0
LINE
  5
23B
  8
DETAIL
  6
CONTINUOUS
 62
     5
 10
-632.04385163257314
 20
287.07431775167049
 30
0.0
 11
-632.13389872833613
 21
287.12207957343082
 31
0.0
  0
LINE
  5
23C
  8
DETAIL
  6
CONTINUOUS
 62
     5
 10
-632.13389872833613
 20
287.12207957343082
 30
0.0
 11
-632.22985094265744
 21
287.15880365260631
 31
0.0
  0
LINE
  5
23D
  8
DETAIL
  6
CONTINUOUS
 62
     5
 10
-632.22985094265744
 20
287.15880365260631
 30
0.0
 11
-632.33194923001838
 21
287.18469282865368
 31
0.0
  0
LINE
  5
23E
  8
DETAIL
  6
CONTINUOUS
 62
     5
 10
-632.33194923001838
 20
287.18469282865368
 30
0.0
 11
-632.44028934153107
 21
287.20029347312578
 31
0.0
  0
LINE
  5
23F
  8
DETAIL
  6
CONTINUOUS
 62
     5
 10
-632.44028934153107
 20
287.20029347312578
 30
0.0
 11
-632.55483936048643
 21
287.20542346167241
 31
0.0
  0
LINE
  5
240
  8
DETAIL
  6
CONTINUOUS
 62
     5
 10
-660.56512099381609
 20
283.203954656912
 30
0.0
 11
-661.14268326651347
 21
282.20358745572167
 31
0.0
  0
LINE
  5
241
  8
DETAIL
  6
CONTINUOUS
 62
     5
 10
-632.55483936048643
 20
283.203954656912
 30
0.0
 11
-633.13240163320586
 21
282.20358745572167
 31
0.0
  0
LINE
  5
242
  8
DETAIL
  6
CONTINUOUS
 62
     5
 10
-661.72024553973495
 20
283.203954656912
 30
0.0
 11
-661.14268326651347
 21
282.20358745572167
 31
0.0
  0
LINE
  5
243
  8
DETAIL
  6
CONTINUOUS
 62
     5
 10
-633.70996390640516
 20
283.203954656912
 30
0.0
 11
-633.13240163320586
 21
282.20358745572167
 31
0.0
  0
LINE
  5
244
  8
DETAIL
  6
CONTINUOUS
 62
     5
 10
-661.72024553973495
 20
283.203954656912
 30
0.0
 11
-661.83482623195471
 21
283.40754624854492
 31
0.0
  0
LINE
  5
245
  8
DETAIL
  6
CONTINUOUS
 62
     5
 10
-661.83482623195471
 20
283.40754624854492
 30
0.0
 11
-661.94319753291131
 21
283.61086166780387
 31
0.0
  0
LINE
  5
246
  8
DETAIL
  6
CONTINUOUS
 62
     5
 10
-661.94319753291131
 20
283.61086166780387
 30
0.0
 11
-662.04532893642715
 21
283.81366571835781
 31
0.0
  0
LINE
  5
247
  8
DETAIL
  6
CONTINUOUS
 62
     5
 10
-662.04532893642715
 20
283.81366571835781
 30
0.0
 11
-662.14131196105564
 21
284.01666398820259
 31
0.0
  0
LINE
  5
248
  8
DETAIL
  6
CONTINUOUS
 62
     5
 10
-662.14131196105564
 20
284.01666398820259
 30
0.0
 11
-662.23138443765436
 21
284.2204726695216
 31
0.0
  0
LINE
  5
249
  8
DETAIL
  6
CONTINUOUS
 62
     5
 10
-662.23138443765436
 20
284.2204726695216
 30
0.0
 11
-662.31507692035382
 21
284.4251247499252
 31
0.0
  0
LINE
  5
24A
  8
DETAIL
  6
CONTINUOUS
 62
     5
 10
-662.31507692035382
 20
284.4251247499252
 30
0.0
 11
-662.39225592215541
 21
284.63089926583609
 31
0.0
  0
LINE
  5
24B
  8
DETAIL
  6
CONTINUOUS
 62
     5
 10
-662.39225592215541
 20
284.63089926583609
 30
0.0
 11
-662.46215139293338
 21
284.83767425848868
 31
0.0
  0
LINE
  5
24C
  8
DETAIL
  6
CONTINUOUS
 62
     5
 10
-662.46215139293338
 20
284.83767425848868
 30
0.0
 11
-662.52445353045721
 21
285.04632987395547
 31
0.0
  0
LINE
  5
24D
  8
DETAIL
  6
CONTINUOUS
 62
     5
 10
-662.52445353045721
 20
285.04632987395547
 30
0.0
 11
-662.57764810491517
 21
285.25413883214219
 31
0.0
  0
LINE
  5
24E
  8
DETAIL
  6
CONTINUOUS
 62
     5
 10
-662.57764810491517
 20
285.25413883214219
 30
0.0
 11
-662.62039113294429
 21
285.45969596876108
 31
0.0
  0
LINE
  5
24F
  8
DETAIL
  6
CONTINUOUS
 62
     5
 10
-662.62039113294429
 20
285.45969596876108
 30
0.0
 11
-662.65186206785688
 21
285.65991508797282
 31
0.0
  0
LINE
  5
250
  8
DETAIL
  6
CONTINUOUS
 62
     5
 10
-662.65186206785688
 20
285.65991508797282
 30
0.0
 11
-662.67074741102385
 21
285.85154201027768
 31
0.0
  0
LINE
  5
251
  8
DETAIL
  6
CONTINUOUS
 62
     5
 10
-662.67074741102385
 20
285.85154201027768
 30
0.0
 11
-662.67718203246409
 21
286.03367552137053
 31
0.0
  0
LINE
  5
252
  8
DETAIL
  6
CONTINUOUS
 62
     5
 10
-662.67718203246409
 20
286.03367552137053
 30
0.0
 11
-662.67071072155716
 21
286.20462902115707
 31
0.0
  0
LINE
  5
253
  8
DETAIL
  6
CONTINUOUS
 62
     5
 10
-662.67071072155716
 20
286.20462902115707
 30
0.0
 11
-662.65179021999018
 21
286.36350449050389
 31
0.0
  0
LINE
  5
254
  8
DETAIL
  6
CONTINUOUS
 62
     5
 10
-662.65179021999018
 20
286.36350449050389
 30
0.0
 11
-662.62028696018911
 21
286.50916751850752
 31
0.0
  0
LINE
  5
255
  8
DETAIL
  6
CONTINUOUS
 62
     5
 10
-662.62028696018911
 20
286.50916751850752
 30
0.0
 11
-662.57751665315277
 21
286.64064068538971
 31
0.0
  0
LINE
  5
256
  8
DETAIL
  6
CONTINUOUS
 62
     5
 10
-662.57751665315277
 20
286.64064068538971
 30
0.0
 11
-662.52430225793194
 21
286.75625991332419
 31
0.0
  0
LINE
  5
257
  8
DETAIL
  6
CONTINUOUS
 62
     5
 10
-662.52430225793194
 20
286.75625991332419
 30
0.0
 11
-662.4619884566373
 21
286.85695076855438
 31
0.0
  0
LINE
  5
258
  8
DETAIL
  6
CONTINUOUS
 62
     5
 10
-662.4619884566373
 20
286.85695076855438
 30
0.0
 11
-662.39209136174975
 21
286.94261126464397
 31
0.0
  0
LINE
  5
259
  8
DETAIL
  6
CONTINUOUS
 62
     5
 10
-662.39209136174975
 20
286.94261126464397
 30
0.0
 11
-662.31491963911606
 21
287.01465998180799
 31
0.0
  0
LINE
  5
25A
  8
DETAIL
  6
CONTINUOUS
 62
     5
 10
-662.31491963911606
 20
287.01465998180799
 30
0.0
 11
-662.23124371699453
 21
287.07431120776857
 31
0.0
  0
LINE
  5
25B
  8
DETAIL
  6
CONTINUOUS
 62
     5
 10
-662.23124371699453
 20
287.07431120776857
 30
0.0
 11
-662.14119442591652
 21
287.12207583305837
 31
0.0
  0
LINE
  5
25C
  8
DETAIL
  6
CONTINUOUS
 62
     5
 10
-597.71940271106769
 20
254.59345270287571
 30
0.0
 11
-621.42810537927767
 21
254.59345270287571
 31
0.0
  0
LINE
  5
25D
  8
DETAIL
  6
CONTINUOUS
 62
     5
 10
-662.14119442591652
 20
287.12207583305837
 30
0.0
 11
-662.04523953610942
 21
287.15880182593611
 31
0.0
  0
LINE
  5
25E
  8
DETAIL
  6
CONTINUOUS
 62
     5
 10
-662.04523953610942
 20
287.15880182593611
 30
0.0
 11
-661.94313865781135
 21
287.18469223993742
 31
0.0
  0
LINE
  5
25F
  8
DETAIL
  6
CONTINUOUS
 62
     5
 10
-661.94313865781135
 20
287.18469223993742
 30
0.0
 11
-661.83479676763386
 21
287.20029349863478
 31
0.0
  0
LINE
  5
260
  8
DETAIL
  6
CONTINUOUS
 62
     5
 10
-661.83479676763386
 20
287.20029349863478
 30
0.0
 11
-661.72024553973495
 21
287.20542346167241
 31
0.0
  0
LINE
  5
261
  8
DETAIL
  6
CONTINUOUS
 62
     5
 10
-633.70996390640516
 20
283.203954656912
 30
0.0
 11
-633.82454339819753
 21
283.40754419629172
 31
0.0
  0
LINE
  5
262
  8
DETAIL
  6
CONTINUOUS
 62
     5
 10
-633.82454339819753
 20
283.40754419629172
 30
0.0
 11
-633.93291293051243
 21
283.61085593970188
 31
0.0
  0
LINE
  5
263
  8
DETAIL
  6
CONTINUOUS
 62
     5
 10
-633.93291293051243
 20
283.61085593970188
 30
0.0
 11
-634.03504175455532
 21
283.81365429016398
 31
0.0
  0
LINE
  5
264
  8
DETAIL
  6
CONTINUOUS
 62
     5
 10
-634.03504175455532
 20
283.81365429016398
 30
0.0
 11
-634.13102211472415
 21
284.01664604011438
 31
0.0
  0
LINE
  5
265
  8
DETAIL
  6
CONTINUOUS
 62
     5
 10
-634.13102211472415
 20
284.01664604011438
 30
0.0
 11
-634.22109240651162
 21
284.22044814502021
 31
0.0
  0
LINE
  5
266
  8
DETAIL
  6
CONTINUOUS
 62
     5
 10
-634.22109240651162
 20
284.22044814502021
 30
0.0
 11
-634.30478342515835
 21
284.42509451632782
 31
0.0
  0
LINE
  5
267
  8
DETAIL
  6
CONTINUOUS
 62
     5
 10
-634.30478342515835
 20
284.42509451632782
 30
0.0
 11
-634.38196218790063
 21
284.63086526435592
 31
0.0
  0
LINE
  5
268
  8
DETAIL
  6
CONTINUOUS
 62
     5
 10
-621.42810537927767
 20
264.59712471477587
 30
0.0
 11
-597.71940271106769
 21
264.59712471477587
 31
0.0
  0
LINE
  5
269
  8
DETAIL
  6
CONTINUOUS
 62
     5
 10
-634.38196218790063
 20
284.63086526435592
 30
0.0
 11
-634.45185842596936
 21
284.8376387454536
 31
0.0
  0
LINE
  5
26A
  8
DETAIL
  6
CONTINUOUS
 62
     5
 10
-634.45185842596936
 20
284.8376387454536
 30
0.0
 11
-634.51416249269448
 21
285.04629603503417
 31
0.0
  0
LINE
  5
26B
  8
DETAIL
  6
CONTINUOUS
 62
     5
 10
-634.51416249269448
 20
285.04629603503417
 30
0.0
 11
-634.5673595435386
 21
285.25410908372243
 31
0.0
  0
LINE
  5
26C
  8
DETAIL
  6
CONTINUOUS
 62
     5
 10
-634.5673595435386
 20
285.25410908372243
 30
0.0
 11
-634.61010517602153
 21
285.45967261768919
 31
0.0
  0
LINE
  5
26D
  8
DETAIL
  6
CONTINUOUS
 62
     5
 10
-634.61010517602153
 20
285.45967261768919
 30
0.0
 11
-634.6415784168039
 21
285.6598993877098
 31
0.0
  0
LINE
  5
26E
  8
DETAIL
  6
CONTINUOUS
 62
     5
 10
-634.6415784168039
 20
285.6598993877098
 30
0.0
 11
-634.66046520400039
 21
285.85153431795482
 31
0.0
  0
LINE
  5
26F
  8
DETAIL
  6
CONTINUOUS
 62
     5
 10
-634.66046520400039
 20
285.85153431795482
 30
0.0
 11
-634.66690039913408
 21
286.03367561490489
 31
0.0
  0
LINE
  5
270
  8
DETAIL
  6
CONTINUOUS
 62
     5
 10
-634.66690039913408
 20
286.03367561490489
 30
0.0
 11
-634.66042849953214
 21
286.20463589367921
 31
0.0
  0
LINE
  5
271
  8
DETAIL
  6
CONTINUOUS
 62
     5
 10
-634.66042849953214
 20
286.20463589367921
 30
0.0
 11
-634.64150653891238
 21
286.36351685654267
 31
0.0
  0
LINE
  5
272
  8
DETAIL
  6
CONTINUOUS
 62
     5
 10
-634.64150653891238
 20
286.36351685654267
 30
0.0
 11
-634.61000095976931
 21
286.50918352338311
 31
0.0
  0
LINE
  5
273
  8
DETAIL
  6
CONTINUOUS
 62
     5
 10
-634.61000095976931
 20
286.50918352338311
 30
0.0
 11
-634.56722803677178
 21
286.64065855745071
 31
0.0
  0
LINE
  5
274
  8
DETAIL
  6
CONTINUOUS
 62
     5
 10
-634.56722803677178
 20
286.64065855745071
 30
0.0
 11
-634.51401115813348
 21
286.75627756530361
 31
0.0
  0
LINE
  5
275
  8
DETAIL
  6
CONTINUOUS
 62
     5
 10
-634.51401115813348
 20
286.75627756530361
 30
0.0
 11
-634.45169542462475
 21
286.85696673291432
 31
0.0
  0
LINE
  5
276
  8
DETAIL
  6
CONTINUOUS
 62
     5
 10
-634.45169542462475
 20
286.85696673291432
 30
0.0
 11
-634.38179756296972
 21
286.94262436845389
 31
0.0
  0
LINE
  5
277
  8
DETAIL
  6
CONTINUOUS
 62
     5
 10
-634.38179756296972
 20
286.94262436845389
 30
0.0
 11
-634.30462608441815
 21
287.01466971438037
 31
0.0
  0
LINE
  5
278
  8
DETAIL
  6
CONTINUOUS
 62
     5
 10
-634.30462608441815
 20
287.01466971438037
 30
0.0
 11
-634.22095163383835
 21
287.07431775167049
 31
0.0
  0
LINE
  5
279
  8
DETAIL
  6
CONTINUOUS
 62
     5
 10
-634.22095163383835
 20
287.07431775167049
 30
0.0
 11
-634.13090453807501
 21
287.12207957343082
 31
0.0
  0
LINE
  5
27A
  8
DETAIL
  6
CONTINUOUS
 62
     5
 10
-634.13090453807501
 20
287.12207957343082
 30
0.0
 11
-634.03495232373257
 21
287.15880365260631
 31
0.0
  0
LINE
  5
27B
  8
DETAIL
  6
CONTINUOUS
 62
     5
 10
-634.03495232373257
 20
287.15880365260631
 30
0.0
 11
-633.93285403639277
 21
287.18469282865368
 31
0.0
  0
LINE
  5
27C
  8
DETAIL
  6
CONTINUOUS
 62
     5
 10
-633.93285403639277
 20
287.18469282865368
 30
0.0
 11
-633.82451392487985
 21
287.20029347312578
 31
0.0
  0
LINE
  5
27D
  8
DETAIL
  6
CONTINUOUS
 62
     5
 10
-633.82451392487985
 20
287.20029347312578
 30
0.0
 11
-633.70996390640516
 21
287.20542346167241
 31
0.0
  0
LINE
  5
27E
  8
DETAIL
  6
CONTINUOUS
 62
     5
 10
-667.14488647365386
 20
269.09827187117207
 30
0.0
 11
-667.14488647365386
 21
287.20542346167241
 31
0.0
  0
LINE
  5
27F
  8
DETAIL
  6
CONTINUOUS
 62
     5
 10
-661.14268326651347
 20
282.20358745572167
 30
0.0
 11
-661.14268326651347
 21
287.20542346167241
 31
0.0
  0
LINE
  5
280
  8
DETAIL
  6
CONTINUOUS
 62
     5
 10
-633.13240163320586
 20
282.20358745572167
 30
0.0
 11
-633.13240163320586
 21
287.20542346167241
 31
0.0
  0
LINE
  5
281
  8
DETAIL
  6
CONTINUOUS
 62
     5
 10
610.22399272595885
 20
283.203954656912
 30
0.0
 11
610.22399272595885
 21
287.20542346167241
 31
0.0
  0
LINE
  5
282
  8
DETAIL
  6
CONTINUOUS
 62
     5
 10
633.70996390590358
 20
283.203954656912
 30
0.0
 11
633.82454339819787
 21
283.40754419629172
 31
0.0
  0
LINE
  5
283
  8
DETAIL
  6
CONTINUOUS
 62
     5
 10
633.82454339819787
 20
283.40754419629172
 30
0.0
 11
633.9329129300105
 21
283.61085593970188
 31
0.0
  0
LINE
  5
284
  8
DETAIL
  6
CONTINUOUS
 62
     5
 10
633.9329129300105
 20
283.61085593970188
 30
0.0
 11
634.03504175457715
 21
283.81365429016398
 31
0.0
  0
LINE
  5
285
  8
DETAIL
  6
CONTINUOUS
 62
     5
 10
634.03504175457715
 20
283.81365429016398
 30
0.0
 11
634.13102211474643
 21
284.01664604011438
 31
0.0
  0
LINE
  5
286
  8
DETAIL
  6
CONTINUOUS
 62
     5
 10
634.13102211474643
 20
284.01664604011438
 30
0.0
 11
634.22109240651196
 21
284.22044814502021
 31
0.0
  0
LINE
  5
287
  8
DETAIL
  6
CONTINUOUS
 62
     5
 10
634.22109240651196
 20
284.22044814502021
 30
0.0
 11
634.30478342518063
 21
284.42509451632782
 31
0.0
  0
LINE
  5
288
  8
DETAIL
  6
CONTINUOUS
 62
     5
 10
634.30478342518063
 20
284.42509451632782
 30
0.0
 11
634.38196218790085
 21
284.63086526435592
 31
0.0
  0
LINE
  5
289
  8
DETAIL
  6
CONTINUOUS
 62
     5
 10
634.38196218790085
 20
284.63086526435592
 30
0.0
 11
634.45185842597004
 21
284.8376387454536
 31
0.0
  0
LINE
  5
28A
  8
DETAIL
  6
CONTINUOUS
 62
     5
 10
634.45185842597004
 20
284.8376387454536
 30
0.0
 11
634.51416249269482
 21
285.04629603503417
 31
0.0
  0
LINE
  5
28B
  8
DETAIL
  6
CONTINUOUS
 62
     5
 10
634.51416249269482
 20
285.04629603503417
 30
0.0
 11
634.56735954303724
 21
285.25410908372243
 31
0.0
  0
LINE
  5
28C
  8
DETAIL
  6
CONTINUOUS
 62
     5
 10
634.56735954303724
 20
285.25410908372243
 30
0.0
 11
634.61010517602188
 21
285.45967261768919
 31
0.0
  0
LINE
  5
28D
  8
DETAIL
  6
CONTINUOUS
 62
     5
 10
634.61010517602188
 20
285.45967261768919
 30
0.0
 11
634.64157841680412
 21
285.6598993877098
 31
0.0
  0
LINE
  5
28E
  8
DETAIL
  6
CONTINUOUS
 62
     5
 10
634.64157841680412
 20
285.6598993877098
 30
0.0
 11
634.66046520349857
 21
285.85153431795482
 31
0.0
  0
LINE
  5
28F
  8
DETAIL
  6
CONTINUOUS
 62
     5
 10
633.13240163320586
 20
282.20358745572167
 30
0.0
 11
633.13240163320586
 21
287.20542346167241
 31
0.0
  0
LINE
  5
290
  8
DETAIL
  6
CONTINUOUS
 62
     5
 10
634.66046520349857
 20
285.85153431795482
 30
0.0
 11
634.6669003991567
 21
286.03367561490489
 31
0.0
  0
LINE
  5
291
  8
DETAIL
  6
CONTINUOUS
 62
     5
 10
634.6669003991567
 20
286.03367561490489
 30
0.0
 11
634.66042849903033
 21
286.20463589367921
 31
0.0
  0
LINE
  5
292
  8
DETAIL
  6
CONTINUOUS
 62
     5
 10
634.66042849903033
 20
286.20463589367921
 30
0.0
 11
634.64150653891272
 21
286.36351685654267
 31
0.0
  0
LINE
  5
293
  8
DETAIL
  6
CONTINUOUS
 62
     5
 10
634.64150653891272
 20
286.36351685654267
 30
0.0
 11
634.61000095976965
 21
286.50918352338311
 31
0.0
  0
LINE
  5
294
  8
DETAIL
  6
CONTINUOUS
 62
     5
 10
634.61000095976965
 20
286.50918352338311
 30
0.0
 11
634.56722803627019
 21
286.64065855745071
 31
0.0
  0
LINE
  5
295
  8
DETAIL
  6
CONTINUOUS
 62
     5
 10
634.56722803627019
 20
286.64065855745071
 30
0.0
 11
634.51401115765316
 21
286.75627756530361
 31
0.0
  0
LINE
  5
296
  8
DETAIL
  6
CONTINUOUS
 62
     5
 10
634.51401115765316
 20
286.75627756530361
 30
0.0
 11
634.45169542412248
 21
286.85696673291432
 31
0.0
  0
LINE
  5
297
  8
DETAIL
  6
CONTINUOUS
 62
     5
 10
634.45169542412248
 20
286.85696673291432
 30
0.0
 11
634.38179756246757
 21
286.94262436845389
 31
0.0
  0
LINE
  5
298
  8
DETAIL
  6
CONTINUOUS
 62
     5
 10
634.38179756246757
 20
286.94262436845389
 30
0.0
 11
634.30462608391588
 21
287.01466971438037
 31
0.0
  0
LINE
  5
299
  8
DETAIL
  6
CONTINUOUS
 62
     5
 10
634.30462608391588
 20
287.01466971438037
 30
0.0
 11
634.22095163383892
 21
287.07431775167049
 31
0.0
  0
LINE
  5
29A
  8
DETAIL
  6
CONTINUOUS
 62
     5
 10
634.22095163383892
 20
287.07431775167049
 30
0.0
 11
634.13090453807547
 21
287.12207957343082
 31
0.0
  0
LINE
  5
29B
  8
DETAIL
  6
CONTINUOUS
 62
     5
 10
634.13090453807547
 20
287.12207957343082
 30
0.0
 11
634.03495232373257
 21
287.15880365260631
 31
0.0
  0
LINE
  5
29C
  8
DETAIL
  6
CONTINUOUS
 62
     5
 10
634.03495232373257
 20
287.15880365260631
 30
0.0
 11
633.93285403639311
 21
287.18469282865368
 31
0.0
  0
LINE
  5
29D
  8
DETAIL
  6
CONTINUOUS
 62
     5
 10
633.93285403639311
 20
287.18469282865368
 30
0.0
 11
633.82451392488053
 21
287.20029347312578
 31
0.0
  0
LINE
  5
29E
  8
DETAIL
  6
CONTINUOUS
 62
     5
 10
633.82451392488053
 20
287.20029347312578
 30
0.0
 11
633.70996390590358
 21
287.20542346167241
 31
0.0
  0
LINE
  5
29F
  8
DETAIL
  6
CONTINUOUS
 62
     5
 10
633.70996390590358
 20
283.203954656912
 30
0.0
 11
633.13240163320586
 21
282.20358745572167
 31
0.0
  0
LINE
  5
2A0
  8
DETAIL
  6
CONTINUOUS
 62
     5
 10
632.55483936000644
 20
283.203954656912
 30
0.0
 11
633.13240163320586
 21
282.20358745572167
 31
0.0
  0
LINE
  5
2A1
  8
DETAIL
  6
CONTINUOUS
 62
     5
 10
632.55483936000644
 20
283.203954656912
 30
0.0
 11
632.44025986821407
 21
283.40754419629172
 31
0.0
  0
LINE
  5
2A2
  8
DETAIL
  6
CONTINUOUS
 62
     5
 10
632.44025986821407
 20
283.40754419629172
 30
0.0
 11
632.33189033589929
 21
283.61085593970188
 31
0.0
  0
LINE
  5
2A3
  8
DETAIL
  6
CONTINUOUS
 62
     5
 10
632.33189033589929
 20
283.61085593970188
 30
0.0
 11
632.22976151183479
 21
283.81365429016398
 31
0.0
  0
LINE
  5
2A4
  8
DETAIL
  6
CONTINUOUS
 62
     5
 10
632.22976151183479
 20
283.81365429016398
 30
0.0
 11
632.13378115168734
 21
284.01664604011438
 31
0.0
  0
LINE
  5
2A5
  8
DETAIL
  6
CONTINUOUS
 62
     5
 10
632.13378115168734
 20
284.01664604011438
 30
0.0
 11
632.04371085989999
 21
284.22044814502021
 31
0.0
  0
LINE
  5
2A6
  8
DETAIL
  6
CONTINUOUS
 62
     5
 10
632.04371085989999
 20
284.22044814502021
 30
0.0
 11
631.96001984123109
 21
284.42509451632782
 31
0.0
  0
LINE
  5
2A7
  8
DETAIL
  6
CONTINUOUS
 62
     5
 10
631.96001984123109
 20
284.42509451632782
 30
0.0
 11
631.88284107851098
 21
284.63086526435592
 31
0.0
  0
LINE
  5
2A8
  8
DETAIL
  6
CONTINUOUS
 62
     5
 10
631.88284107851098
 20
284.63086526435592
 30
0.0
 11
631.81294484044201
 21
284.8376387454536
 31
0.0
  0
LINE
  5
2A9
  8
DETAIL
  6
CONTINUOUS
 62
     5
 10
631.81294484044201
 20
284.8376387454536
 30
0.0
 11
631.75064077371724
 21
285.04629603503417
 31
0.0
  0
LINE
  5
2AA
  8
DETAIL
  6
CONTINUOUS
 62
     5
 10
631.75064077371724
 20
285.04629603503417
 30
0.0
 11
631.69744372287278
 21
285.25410908372243
 31
0.0
  0
LINE
  5
2AB
  8
DETAIL
  6
CONTINUOUS
 62
     5
 10
631.69744372287278
 20
285.25410908372243
 30
0.0
 11
631.65469809038996
 21
285.45967261768919
 31
0.0
  0
LINE
  5
2AC
  8
DETAIL
  6
CONTINUOUS
 62
     5
 10
631.65469809038996
 20
285.45967261768919
 30
0.0
 11
631.6232248496076
 21
285.6598993877098
 31
0.0
  0
LINE
  5
2AD
  8
DETAIL
  6
CONTINUOUS
 62
     5
 10
631.6232248496076
 20
285.6598993877098
 30
0.0
 11
631.6043380624111
 21
285.85153431795482
 31
0.0
  0
LINE
  5
2AE
  8
DETAIL
  6
CONTINUOUS
 62
     5
 10
631.6043380624111
 20
285.85153431795482
 30
0.0
 11
631.59790286725536
 21
286.03367561490489
 31
0.0
  0
LINE
  5
2AF
  8
DETAIL
  6
CONTINUOUS
 62
     5
 10
631.59790286725536
 20
286.03367561490489
 30
0.0
 11
631.60437476687957
 21
286.20463589367921
 31
0.0
  0
LINE
  5
2B0
  8
DETAIL
  6
CONTINUOUS
 62
     5
 10
631.60437476687957
 20
286.20463589367921
 30
0.0
 11
631.623296727499
 21
286.36351685654267
 31
0.0
  0
LINE
  5
2B1
  8
DETAIL
  6
CONTINUOUS
 62
     5
 10
631.623296727499
 20
286.36351685654267
 30
0.0
 11
631.65480230664241
 21
286.50918352338311
 31
0.0
  0
LINE
  5
2B2
  8
DETAIL
  6
CONTINUOUS
 62
     5
 10
631.65480230664241
 20
286.50918352338311
 30
0.0
 11
631.69757522963994
 21
286.64065855745071
 31
0.0
  0
LINE
  5
2B3
  8
DETAIL
  6
CONTINUOUS
 62
     5
 10
631.69757522963994
 20
286.64065855745071
 30
0.0
 11
631.75079210827846
 21
286.75627756530361
 31
0.0
  0
LINE
  5
2B4
  8
DETAIL
  6
CONTINUOUS
 62
     5
 10
631.75079210827846
 20
286.75627756530361
 30
0.0
 11
631.81310784178731
 21
286.85696673291432
 31
0.0
  0
LINE
  5
2B5
  8
DETAIL
  6
CONTINUOUS
 62
     5
 10
631.81310784178731
 20
286.85696673291432
 30
0.0
 11
631.883005703442
 21
286.94262436845389
 31
0.0
  0
LINE
  5
2B6
  8
DETAIL
  6
CONTINUOUS
 62
     5
 10
631.883005703442
 20
286.94262436845389
 30
0.0
 11
631.96017718199391
 21
287.01466971438037
 31
0.0
  0
LINE
  5
2B7
  8
DETAIL
  6
CONTINUOUS
 62
     5
 10
631.96017718199391
 20
287.01466971438037
 30
0.0
 11
632.04385163257325
 21
287.07431775167049
 31
0.0
  0
LINE
  5
2B8
  8
DETAIL
  6
CONTINUOUS
 62
     5
 10
632.04385163257325
 20
287.07431775167049
 30
0.0
 11
632.13389872833659
 21
287.12207957343082
 31
0.0
  0
LINE
  5
2B9
  8
DETAIL
  6
CONTINUOUS
 62
     5
 10
632.13389872833659
 20
287.12207957343082
 30
0.0
 11
632.22985094267949
 21
287.15880365260631
 31
0.0
  0
LINE
  5
2BA
  8
DETAIL
  6
CONTINUOUS
 62
     5
 10
632.22985094267949
 20
287.15880365260631
 30
0.0
 11
632.33194923001895
 21
287.18469282865368
 31
0.0
  0
LINE
  5
2BB
  8
DETAIL
  6
CONTINUOUS
 62
     5
 10
632.33194923001895
 20
287.18469282865368
 30
0.0
 11
632.44028934153152
 21
287.20029347312578
 31
0.0
  0
LINE
  5
2BC
  8
DETAIL
  6
CONTINUOUS
 62
     5
 10
632.44028934153152
 20
287.20029347312578
 30
0.0
 11
632.55483936000644
 21
287.20542346167241
 31
0.0
  0
LINE
  5
2BD
  8
DETAIL
  6
CONTINUOUS
 62
     5
 10
610.22399272595885
 20
287.20542346167241
 30
0.0
 11
641.635522843329
 21
287.20542346167241
 31
0.0
  0
LINE
  5
2BE
  8
DETAIL
  6
CONTINUOUS
 62
     5
 10
610.22399272595885
 20
287.20542346167241
 30
0.0
 11
667.14488647367614
 21
287.20542346167241
 31
0.0
  0
ARC
  5
2BF
  8
DETAIL
  6
CONTINUOUS
 62
     5
 10
604.22178951881835
 20
283.203954656912
 30
0.0
 40
4.0014688047604414
 50
90.0
 51
180.0
  0
ARC
  5
2C0
  8
DETAIL
  6
CONTINUOUS
 62
     5
 10
604.22178951881835
 20
283.203954656912
 30
0.0
 40
2.000734402380401
 50
90.0
 51
180.0
  0
LINE
  5
2C1
  8
DETAIL
  6
CONTINUOUS
 62
     5
 10
604.22178951881835
 20
283.203954656912
 30
0.0
 11
604.22178951881835
 21
285.20468905929221
 31
0.0
  0
LINE
  5
2C2
  8
DETAIL
  6
CONTINUOUS
 62
     5
 10
604.22178951881835
 20
285.20468905929221
 30
0.0
 11
610.22399272595885
 21
285.20468905929221
 31
0.0
  0
LINE
  5
2C3
  8
DETAIL
  6
CONTINUOUS
 62
     5
 10
604.22178951881835
 20
287.20542346167241
 30
0.0
 11
610.22399272595885
 21
287.20542346167241
 31
0.0
  0
LINE
  5
2C4
  8
DETAIL
  6
CONTINUOUS
 62
     5
 10
596.16171998057575
 20
283.203954656912
 30
0.0
 11
610.22399272595885
 21
283.203954656912
 31
0.0
  0
LINE
  5
2C5
  8
DETAIL
  6
CONTINUOUS
 62
     5
 10
589.02879156570884
 20
274.93307099339728
 30
0.0
 11
589.06962236582285
 21
275.37829228417468
 31
0.0
  0
LINE
  5
2C6
  8
DETAIL
  6
CONTINUOUS
 62
     5
 10
589.06962236582285
 20
275.37829228417468
 30
0.0
 11
589.1081412442976
 21
275.82293126420541
 31
0.0
  0
LINE
  5
2C7
  8
DETAIL
  6
CONTINUOUS
 62
     5
 10
589.1081412442976
 20
275.82293126420541
 30
0.0
 11
589.14403472359538
 21
276.26558621696699
 31
0.0
  0
LINE
  5
2C8
  8
DETAIL
  6
CONTINUOUS
 62
     5
 10
589.14403472359538
 20
276.26558621696699
 30
0.0
 11
589.17740729654099
 21
276.7067243814659
 31
0.0
  0
ARC
  5
2C9
  8
DETAIL
  6
CONTINUOUS
 62
     5
 10
596.16171998057575
 20
276.20138424858118
 30
0.0
 40
7.0025704083303557
 50
90.0
 51
175.86165577967509
  0
LINE
  5
2CA
  8
DETAIL
  6
CONTINUOUS
 62
     5
 10
588.84626829653928
 20
273.16552445044601
 30
0.0
 11
588.89459259827959
 21
273.60460700289872
 31
0.0
  0
LINE
  5
2CB
  8
DETAIL
  6
CONTINUOUS
 62
     5
 10
588.89459259827959
 20
273.60460700289872
 30
0.0
 11
588.94103014292602
 21
274.04461938916251
 31
0.0
  0
LINE
  5
2CC
  8
DETAIL
  6
CONTINUOUS
 62
     5
 10
588.94103014292602
 20
274.04461938916251
 30
0.0
 11
588.98587411516075
 21
274.48817235805529
 31
0.0
  0
LINE
  5
2CD
  8
DETAIL
  6
CONTINUOUS
 62
     5
 10
588.98587411516075
 20
274.48817235805529
 30
0.0
 11
589.02879156570884
 21
274.93307099339728
 31
0.0
  0
ARC
  5
2CE
  8
DETAIL
  6
CONTINUOUS
 62
     5
 10
499.37910135339479
 20
283.203954656912
 30
0.0
 40
90.033048107107163
 50
337.27070504709752
 51
355.8616557797011
  0
LINE
  5
2CF
  8
DETAIL
  6
CONTINUOUS
 62
     5
 10
587.08435781140156
 20
263.18729918269008
 30
0.0
 11
587.27905009940673
 21
263.99109044395641
 31
0.0
  0
LINE
  5
2D0
  8
DETAIL
  6
CONTINUOUS
 62
     5
 10
587.27905009940673
 20
263.99109044395641
 30
0.0
 11
587.45974517749607
 21
264.77752093216662
 31
0.0
  0
LINE
  5
2D1
  8
DETAIL
  6
CONTINUOUS
 62
     5
 10
587.45974517749607
 20
264.77752093216662
 30
0.0
 11
587.62844187137568
 21
265.548600801681
 31
0.0
  0
LINE
  5
2D2
  8
DETAIL
  6
CONTINUOUS
 62
     5
 10
587.62844187137568
 20
265.548600801681
 30
0.0
 11
587.78515776801942
 21
266.30248800284392
 31
0.0
  0
LINE
  5
2D3
  8
DETAIL
  6
CONTINUOUS
 62
     5
 10
587.78515776801942
 20
266.30248800284392
 30
0.0
 11
587.93076159578675
 21
267.03969977251643
 31
0.0
  0
LINE
  5
2D4
  8
DETAIL
  6
CONTINUOUS
 62
     5
 10
587.93076159578675
 20
267.03969977251643
 30
0.0
 11
588.06469876013296
 21
267.7551684035131
 31
0.0
  0
LINE
  5
2D5
  8
DETAIL
  6
CONTINUOUS
 62
     5
 10
588.06469876013296
 20
267.7551684035131
 30
0.0
 11
588.18668134083396
 21
268.44629519693922
 31
0.0
  0
LINE
  5
2D6
  8
DETAIL
  6
CONTINUOUS
 62
     5
 10
588.18668134083396
 20
268.44629519693922
 30
0.0
 11
588.29677804564619
 21
269.1061903617836
 31
0.0
  0
LINE
  5
2D7
  8
DETAIL
  6
CONTINUOUS
 62
     5
 10
588.29677804564619
 20
269.1061903617836
 30
0.0
 11
588.39450559363365
 21
269.72694158820372
 31
0.0
  0
LINE
  5
2D8
  8
DETAIL
  6
CONTINUOUS
 62
     5
 10
588.39450559363365
 20
269.72694158820372
 30
0.0
 11
588.48123202298871
 21
270.30901773730159
 31
0.0
  0
LINE
  5
2D9
  8
DETAIL
  6
CONTINUOUS
 62
     5
 10
588.48123202298871
 20
270.30901773730159
 30
0.0
 11
588.55741366071152
 21
270.84663809367231
 31
0.0
  0
LINE
  5
2DA
  8
DETAIL
  6
CONTINUOUS
 62
     5
 10
588.55741366071152
 20
270.84663809367231
 30
0.0
 11
588.62530235837119
 21
271.35063908250191
 31
0.0
  0
LINE
  5
2DB
  8
DETAIL
  6
CONTINUOUS
 62
     5
 10
588.62530235837119
 20
271.35063908250191
 30
0.0
 11
588.68693351510649
 21
271.82761332722191
 31
0.0
  0
LINE
  5
2DC
  8
DETAIL
  6
CONTINUOUS
 62
     5
 10
588.68693351510649
 20
271.82761332722191
 30
0.0
 11
588.74341281525869
 21
272.28451152019881
 31
0.0
  0
LINE
  5
2DD
  8
DETAIL
  6
CONTINUOUS
 62
     5
 10
588.74341281525869
 20
272.28451152019881
 30
0.0
 11
588.79629984431335
 21
272.72844157900801
 31
0.0
  0
LINE
  5
2DE
  8
DETAIL
  6
CONTINUOUS
 62
     5
 10
588.79629984431335
 20
272.72844157900801
 30
0.0
 11
588.84626829653928
 21
273.16552445044601
 31
0.0
  0
LINE
  5
2DF
  8
DETAIL
  6
CONTINUOUS
 62
     5
 10
586.8749927460193
 20
262.36664893805579
 30
0.0
 11
587.08435781140156
 21
263.18729918269008
 31
0.0
  0
LINE
  5
2E0
  8
DETAIL
  6
CONTINUOUS
 62
     5
 10
583.64250754129853
 20
253.49304878156619
 30
0.0
 11
584.1895839141614
 21
254.64689628471911
 31
0.0
  0
LINE
  5
2E1
  8
DETAIL
  6
CONTINUOUS
 62
     5
 10
584.1895839141614
 20
254.64689628471911
 30
0.0
 11
584.67818768918301
 21
255.75611802025091
 31
0.0
  0
LINE
  5
2E2
  8
DETAIL
  6
CONTINUOUS
 62
     5
 10
584.67818768918301
 20
255.75611802025091
 30
0.0
 11
585.10366747302828
 21
256.82033556325632
 31
0.0
  0
LINE
  5
2E3
  8
DETAIL
  6
CONTINUOUS
 62
     5
 10
585.10366747302828
 20
256.82033556325632
 30
0.0
 11
585.47997744277666
 21
257.84068418945611
 31
0.0
  0
LINE
  5
2E4
  8
DETAIL
  6
CONTINUOUS
 62
     5
 10
585.47997744277666
 20
257.84068418945611
 30
0.0
 11
585.81845833973352
 21
258.81636328797367
 31
0.0
  0
LINE
  5
2E5
  8
DETAIL
  6
CONTINUOUS
 62
     5
 10
585.81845833973352
 20
258.81636328797367
 30
0.0
 11
586.12229907546305
 21
259.7528020946981
 31
0.0
  0
LINE
  5
2E6
  8
DETAIL
  6
CONTINUOUS
 62
     5
 10
586.12229907546305
 20
259.7528020946981
 30
0.0
 11
586.39744151950072
 21
260.65364055423078
 31
0.0
  0
LINE
  5
2E7
  8
DETAIL
  6
CONTINUOUS
 62
     5
 10
586.39744151950072
 20
260.65364055423078
 30
0.0
 11
586.64696754312411
 21
261.52344593206209
 31
0.0
  0
LINE
  5
2E8
  8
DETAIL
  6
CONTINUOUS
 62
     5
 10
586.64696754312411
 20
261.52344593206209
 30
0.0
 11
586.8749927460193
 21
262.36664893805579
 31
0.0
  0
LINE
  5
2E9
  8
DETAIL
  6
CONTINUOUS
 62
     5
 10
582.49507110793843
 20
248.5982069100678
 30
0.0
 11
582.54789475673385
 21
248.73570272166111
 31
0.0
  0
LINE
  5
2EA
  8
DETAIL
  6
CONTINUOUS
 62
     5
 10
582.54789475673385
 20
248.73570272166111
 30
0.0
 11
582.59625617507265
 21
248.86736712874139
 31
0.0
  0
LINE
  5
2EB
  8
DETAIL
  6
CONTINUOUS
 62
     5
 10
582.59625617507265
 20
248.86736712874139
 30
0.0
 11
582.64050956400922
 21
248.99243701869591
 31
0.0
  0
LINE
  5
2EC
  8
DETAIL
  6
CONTINUOUS
 62
     5
 10
582.47648991441042
 20
248.5542295504568
 30
0.0
 11
582.44120279770061
 21
248.46759154055411
 31
0.0
  0
LINE
  5
2ED
  8
DETAIL
  6
CONTINUOUS
 62
     5
 10
582.44120279770061
 20
248.46759154055411
 30
0.0
 11
582.42024215675235
 21
248.41719445247699
 31
0.0
  0
LINE
  5
2EE
  8
DETAIL
  6
CONTINUOUS
 62
     5
 10
582.37730695367134
 20
248.3084957428317
 30
0.0
 11
582.43818263259129
 21
248.4554877866729
 31
0.0
  0
LINE
  5
2EF
  8
DETAIL
  6
CONTINUOUS
 62
     5
 10
582.43818263259129
 20
248.4554877866729
 30
0.0
 11
582.52128847395932
 21
248.66777914619851
 31
0.0
  0
LINE
  5
2F0
  8
DETAIL
  6
CONTINUOUS
 62
     5
 10
582.17628057414413
 20
247.8404584415629
 30
0.0
 11
582.42024206421195
 21
248.41719449149039
 31
0.0
  0
LINE
  5
2F1
  8
DETAIL
  6
CONTINUOUS
 62
     5
 10
582.17628057414413
 20
247.8404584415629
 30
0.0
 11
582.24611929410366
 21
248.00096119023041
 31
0.0
  0
LINE
  5
2F2
  8
DETAIL
  6
CONTINUOUS
 62
     5
 10
582.24611929410366
 20
248.00096119023041
 30
0.0
 11
582.37730695367134
 21
248.3084957428317
 31
0.0
  0
ARC
  5
2F3
  8
DETAIL
  6
CONTINUOUS
 62
     5
 10
588.61606118023997
 20
245.08996429156969
 30
0.0
 40
7.0025704083172018
 50
156.87219152973941
 51
270.0
  0
ARC
  5
2F4
  8
DETAIL
  6
CONTINUOUS
 62
     5
 10
590.61679558263461
 20
245.08996429156969
 30
0.0
 40
6.4023500876107118
 50
0.0
 51
90.0
  0
CIRCLE
  5
2F5
  8
DETAIL
  6
CONTINUOUS
 62
     5
 10
590.61679558263461
 20
245.08996429156969
 30
0.0
 40
3.0011016035702518
  0
LINE
  5
2F6
  8
DETAIL
  6
CONTINUOUS
 62
     5
 10
583.64250754129853
 20
251.49231437918641
 30
0.0
 11
583.64250754129853
 21
253.49304878156619
 31
0.0
  0
LINE
  5
2F7
  8
DETAIL
  6
CONTINUOUS
 62
     5
 10
590.61679558263461
 20
251.49231437918641
 30
0.0
 11
583.64250754129853
 21
251.49231437918641
 31
0.0
  0
LINE
  5
2F8
  8
DETAIL
  6
CONTINUOUS
 62
     5
 10
597.01914567024517
 20
238.0873938832394
 30
0.0
 11
597.01914567024517
 21
245.08996429156969
 31
0.0
  0
LINE
  5
2F9
  8
DETAIL
  6
CONTINUOUS
 62
     5
 10
583.58574463754917
 20
253.12252843049399
 30
0.0
 11
583.64250754129853
 21
253.49304878156619
 31
0.0
  0
LINE
  5
2FA
  8
DETAIL
  6
CONTINUOUS
 62
     5
 10
583.52946548936086
 20
252.76928089469089
 30
0.0
 11
583.58574463754917
 21
253.12252843049399
 31
0.0
  0
LINE
  5
2FB
  8
DETAIL
  6
CONTINUOUS
 62
     5
 10
583.47445043217476
 20
252.4383205282607
 30
0.0
 11
583.52946548936086
 21
252.76928089469089
 31
0.0
  0
LINE
  5
2FC
  8
DETAIL
  6
CONTINUOUS
 62
     5
 10
583.42169130257685
 20
252.13460900946589
 30
0.0
 11
583.47445043217476
 21
252.4383205282607
 31
0.0
  0
LINE
  5
2FD
  8
DETAIL
  6
CONTINUOUS
 62
     5
 10
583.37241623185719
 20
251.86296217553979
 30
0.0
 11
583.42169130257685
 21
252.13460900946589
 31
0.0
  0
LINE
  5
2FE
  8
DETAIL
  6
CONTINUOUS
 62
     5
 10
583.32712615590071
 20
251.6227371900184
 30
0.0
 11
583.37241623185719
 21
251.86296217553979
 31
0.0
  0
LINE
  5
2FF
  8
DETAIL
  6
CONTINUOUS
 62
     5
 10
583.28469511888761
 20
251.4052921152369
 30
0.0
 11
583.32712615590071
 21
251.6227371900184
 31
0.0
  0
LINE
  5
300
  8
DETAIL
  6
CONTINUOUS
 62
     5
 10
583.24370862410956
 20
251.20202692541491
 30
0.0
 11
583.28469511888761
 21
251.4052921152369
 31
0.0
  0
LINE
  5
301
  8
DETAIL
  6
CONTINUOUS
 62
     5
 10
583.20281221392088
 20
251.00591427504969
 30
0.0
 11
583.24370862410956
 21
251.20202692541491
 31
0.0
  0
LINE
  5
302
  8
DETAIL
  6
CONTINUOUS
 62
     5
 10
582.96405161191774
 20
250.02963210116411
 30
0.0
 11
582.98826454868515
 21
250.1162435263077
 31
0.0
  0
LINE
  5
303
  8
DETAIL
  6
CONTINUOUS
 62
     5
 10
582.98826454868515
 20
250.1162435263077
 30
0.0
 11
583.01199733619762
 21
250.20302478279129
 31
0.0
  0
LINE
  5
304
  8
DETAIL
  6
CONTINUOUS
 62
     5
 10
583.01199733619762
 20
250.20302478279129
 30
0.0
 11
583.03515843736386
 21
250.28984287229571
 31
0.0
  0
LINE
  5
305
  8
DETAIL
  6
CONTINUOUS
 62
     5
 10
583.03515843736386
 20
250.28984287229571
 30
0.0
 11
583.05760672135852
 21
250.37646149158019
 31
0.0
  0
LINE
  5
306
  8
DETAIL
  6
CONTINUOUS
 62
     5
 10
583.05760672135852
 20
250.37646149158019
 30
0.0
 11
583.0794201398345
 21
250.46315417755289
 31
0.0
  0
LINE
  5
307
  8
DETAIL
  6
CONTINUOUS
 62
     5
 10
583.0794201398345
 20
250.46315417755289
 30
0.0
 11
583.10054757801311
 21
250.5498420107439
 31
0.0
  0
LINE
  5
308
  8
DETAIL
  6
CONTINUOUS
 62
     5
 10
583.10054757801311
 20
250.5498420107439
 30
0.0
 11
583.12123510571814
 21
250.63734605804009
 31
0.0
  0
LINE
  5
309
  8
DETAIL
  6
CONTINUOUS
 62
     5
 10
583.12123510571814
 20
250.63734605804009
 30
0.0
 11
583.14166757979115
 21
250.7263581098737
 31
0.0
  0
LINE
  5
30A
  8
DETAIL
  6
CONTINUOUS
 62
     5
 10
583.14166757979115
 20
250.7263581098737
 30
0.0
 11
583.16197752038045
 21
250.8171870766364
 31
0.0
  0
LINE
  5
30B
  8
DETAIL
  6
CONTINUOUS
 62
     5
 10
583.16197752038045
 20
250.8171870766364
 30
0.0
 11
583.20281221392088
 21
251.00591427504969
 31
0.0
  0
LINE
  5
30C
  8
DETAIL
  6
CONTINUOUS
 62
     5
 10
582.91452414955722
 20
249.85717983222949
 30
0.0
 11
582.96405161191774
 21
250.02963210116411
 31
0.0
  0
LINE
  5
30D
  8
DETAIL
  6
CONTINUOUS
 62
     5
 10
582.86377832347023
 20
249.68587661257331
 30
0.0
 11
582.91452414955722
 21
249.85717983222949
 31
0.0
  0
LINE
  5
30E
  8
DETAIL
  6
CONTINUOUS
 62
     5
 10
582.66882724647678
 20
249.0746062277519
 30
0.0
 11
582.68071164285266
 21
249.10976914537761
 31
0.0
  0
LINE
  5
30F
  8
DETAIL
  6
CONTINUOUS
 62
     5
 10
582.68071164285266
 20
249.10976914537761
 30
0.0
 11
582.71735744978901
 21
249.21989582318119
 31
0.0
  0
LINE
  5
310
  8
DETAIL
  6
CONTINUOUS
 62
     5
 10
582.71735744978901
 20
249.21989582318119
 30
0.0
 11
582.75074027900757
 21
249.3223805088661
 31
0.0
  0
LINE
  5
311
  8
DETAIL
  6
CONTINUOUS
 62
     5
 10
582.75074027900757
 20
249.3223805088661
 30
0.0
 11
582.7815220854776
 21
249.41898653219141
 31
0.0
  0
LINE
  5
312
  8
DETAIL
  6
CONTINUOUS
 62
     5
 10
582.7815220854776
 20
249.41898653219141
 30
0.0
 11
582.8103210310926
 21
249.5109031281857
 31
0.0
  0
LINE
  5
313
  8
DETAIL
  6
CONTINUOUS
 62
     5
 10
582.8103210310926
 20
249.5109031281857
 30
0.0
 11
582.86377832347023
 21
249.68587661257331
 31
0.0
  0
LINE
  5
314
  8
DETAIL
  6
CONTINUOUS
 62
     5
 10
582.66882724647678
 20
249.0746062277519
 30
0.0
 11
582.63079250470878
 21
248.964809041894
 31
0.0
  0
LINE
  5
315
  8
DETAIL
  6
CONTINUOUS
 62
     5
 10
582.63079250470878
 20
248.964809041894
 30
0.0
 11
582.57368820012516
 21
248.806311793379
 31
0.0
  0
LINE
  5
316
  8
DETAIL
  6
CONTINUOUS
 62
     5
 10
582.57368820012516
 20
248.806311793379
 30
0.0
 11
582.52128847395932
 21
248.66777914619851
 31
0.0
  0
LINE
  5
317
  8
DETAIL
  6
CONTINUOUS
 62
     5
 10
588.61606118023997
 20
238.0873938832394
 30
0.0
 11
636.13400848572985
 21
238.0873938832394
 31
0.0
  0
ARC
  5
318
  8
DETAIL
  6
CONTINUOUS
 62
     5
 10
597.71940271106837
 20
259.59528870882627
 30
0.0
 40
5.0018360059503157
 50
90.0
 51
270.0
  0
ARC
  5
319
  8
DETAIL
  6
CONTINUOUS
 62
     5
 10
636.13400848572985
 20
245.08996429156969
 30
0.0
 40
7.0025704083303557
 50
270.0
 51
315.00000000010118
  0
ARC
  5
31A
  8
DETAIL
  6
CONTINUOUS
 62
     5
 10
621.42810537927767
 20
259.59528870882627
 30
0.0
 40
5.0018360059506541
 50
270.0
 51
90.0
  0
LINE
  5
31B
  8
DETAIL
  6
CONTINUOUS
 62
     5
 10
597.71940271106837
 20
254.59345270287571
 30
0.0
 11
621.42810537927767
 21
254.59345270287571
 31
0.0
  0
LINE
  5
31C
  8
DETAIL
  6
CONTINUOUS
 62
     5
 10
621.42810537927767
 20
264.59712471477587
 30
0.0
 11
597.71940271106837
 21
264.59712471477587
 31
0.0
  0
LINE
  5
31D
  8
DETAIL
  6
CONTINUOUS
 62
     5
 10
641.08557350690796
 20
240.13839927040891
 30
0.0
 11
665.09388108649466
 21
264.1467068500109
 31
0.0
  0
LINE
  5
31E
  8
DETAIL
  6
CONTINUOUS
 62
     5
 10
661.72024553923347
 20
283.203954656912
 30
0.0
 11
661.83482623145312
 21
283.40754624854492
 31
0.0
  0
LINE
  5
31F
  8
DETAIL
  6
CONTINUOUS
 62
     5
 10
661.83482623145312
 20
283.40754624854492
 30
0.0
 11
661.943197532912
 21
283.61086166780387
 31
0.0
  0
LINE
  5
320
  8
DETAIL
  6
CONTINUOUS
 62
     5
 10
661.943197532912
 20
283.61086166780387
 30
0.0
 11
662.04532893642818
 21
283.81366571835781
 31
0.0
  0
LINE
  5
321
  8
DETAIL
  6
CONTINUOUS
 62
     5
 10
662.04532893642818
 20
283.81366571835781
 30
0.0
 11
662.14131196057542
 21
284.01666398820259
 31
0.0
  0
LINE
  5
322
  8
DETAIL
  6
CONTINUOUS
 62
     5
 10
662.14131196057542
 20
284.01666398820259
 30
0.0
 11
662.23138443765504
 21
284.2204726695216
 31
0.0
  0
LINE
  5
323
  8
DETAIL
  6
CONTINUOUS
 62
     5
 10
662.23138443765504
 20
284.2204726695216
 30
0.0
 11
662.31507692035382
 21
284.4251247499252
 31
0.0
  0
LINE
  5
324
  8
DETAIL
  6
CONTINUOUS
 62
     5
 10
662.31507692035382
 20
284.4251247499252
 30
0.0
 11
662.39225592167531
 21
284.63089926583609
 31
0.0
  0
LINE
  5
325
  8
DETAIL
  6
CONTINUOUS
 62
     5
 10
662.39225592167531
 20
284.63089926583609
 30
0.0
 11
662.46215139245317
 21
284.83767425848868
 31
0.0
  0
LINE
  5
326
  8
DETAIL
  6
CONTINUOUS
 62
     5
 10
662.46215139245317
 20
284.83767425848868
 30
0.0
 11
662.5244535304796
 21
285.04632987395547
 31
0.0
  0
LINE
  5
327
  8
DETAIL
  6
CONTINUOUS
 62
     5
 10
662.5244535304796
 20
285.04632987395547
 30
0.0
 11
662.57764810491551
 21
285.25413883214219
 31
0.0
  0
LINE
  5
328
  8
DETAIL
  6
CONTINUOUS
 62
     5
 10
662.57764810491551
 20
285.25413883214219
 30
0.0
 11
662.62039113294463
 21
285.45969596876108
 31
0.0
  0
LINE
  5
329
  8
DETAIL
  6
CONTINUOUS
 62
     5
 10
662.62039113294463
 20
285.45969596876108
 30
0.0
 11
662.65186206785745
 21
285.65991508797282
 31
0.0
  0
LINE
  5
32A
  8
DETAIL
  6
CONTINUOUS
 62
     5
 10
662.65186206785745
 20
285.65991508797282
 30
0.0
 11
662.6707474110467
 21
285.85154201027768
 31
0.0
  0
LINE
  5
32B
  8
DETAIL
  6
CONTINUOUS
 62
     5
 10
662.6707474110467
 20
285.85154201027768
 30
0.0
 11
662.67718203246409
 21
286.03367552137053
 31
0.0
  0
LINE
  5
32C
  8
DETAIL
  6
CONTINUOUS
 62
     5
 10
662.67718203246409
 20
286.03367552137053
 30
0.0
 11
662.67071072157933
 21
286.20462902115707
 31
0.0
  0
LINE
  5
32D
  8
DETAIL
  6
CONTINUOUS
 62
     5
 10
662.67071072157933
 20
286.20462902115707
 30
0.0
 11
662.65179021948768
 21
286.36350449050389
 31
0.0
  0
LINE
  5
32E
  8
DETAIL
  6
CONTINUOUS
 62
     5
 10
662.65179021948768
 20
286.36350449050389
 30
0.0
 11
662.62028696021139
 21
286.50916751850752
 31
0.0
  0
LINE
  5
32F
  8
DETAIL
  6
CONTINUOUS
 62
     5
 10
662.62028696021139
 20
286.50916751850752
 30
0.0
 11
662.57751665315357
 21
286.64064068538971
 31
0.0
  0
LINE
  5
330
  8
DETAIL
  6
CONTINUOUS
 62
     5
 10
662.57751665315357
 20
286.64064068538971
 30
0.0
 11
662.52430225793205
 21
286.75625991332419
 31
0.0
  0
LINE
  5
331
  8
DETAIL
  6
CONTINUOUS
 62
     5
 10
662.52430225793205
 20
286.75625991332419
 30
0.0
 11
662.46198845663753
 21
286.85695076855438
 31
0.0
  0
LINE
  5
332
  8
DETAIL
  6
CONTINUOUS
 62
     5
 10
662.46198845663753
 20
286.85695076855438
 30
0.0
 11
662.39209136126965
 21
286.94261126464397
 31
0.0
  0
LINE
  5
333
  8
DETAIL
  6
CONTINUOUS
 62
     5
 10
662.39209136126965
 20
286.94261126464397
 30
0.0
 11
662.31491963911617
 21
287.01465998180799
 31
0.0
  0
LINE
  5
334
  8
DETAIL
  6
CONTINUOUS
 62
     5
 10
662.31491963911617
 20
287.01465998180799
 30
0.0
 11
662.23124371699487
 21
287.07431120776857
 31
0.0
  0
LINE
  5
335
  8
DETAIL
  6
CONTINUOUS
 62
     5
 10
662.23124371699487
 20
287.07431120776857
 30
0.0
 11
662.14119442593835
 21
287.12207583305837
 31
0.0
  0
LINE
  5
336
  8
DETAIL
  6
CONTINUOUS
 62
     5
 10
662.14119442593835
 20
287.12207583305837
 30
0.0
 11
662.04523953610965
 21
287.15880182593611
 31
0.0
  0
LINE
  5
337
  8
DETAIL
  6
CONTINUOUS
 62
     5
 10
662.04523953610965
 20
287.15880182593611
 30
0.0
 11
661.94313865781135
 21
287.18469223993742
 31
0.0
  0
LINE
  5
338
  8
DETAIL
  6
CONTINUOUS
 62
     5
 10
661.94313865781135
 20
287.18469223993742
 30
0.0
 11
661.83479676763454
 21
287.20029349863478
 31
0.0
  0
LINE
  5
339
  8
DETAIL
  6
CONTINUOUS
 62
     5
 10
661.83479676763454
 20
287.20029349863478
 30
0.0
 11
661.72024553923347
 21
287.20542346167241
 31
0.0
  0
LINE
  5
33A
  8
DETAIL
  6
CONTINUOUS
 62
     5
 10
661.72024553923347
 20
283.203954656912
 30
0.0
 11
661.14268326653564
 21
282.20358745572167
 31
0.0
  0
LINE
  5
33B
  8
DETAIL
  6
CONTINUOUS
 62
     5
 10
660.56512099331405
 20
283.203954656912
 30
0.0
 11
661.14268326653564
 21
282.20358745572167
 31
0.0
  0
LINE
  5
33C
  8
DETAIL
  6
CONTINUOUS
 62
     5
 10
660.56512099331405
 20
283.203954656912
 30
0.0
 11
660.45054030109441
 21
283.40754624854492
 31
0.0
  0
LINE
  5
33D
  8
DETAIL
  6
CONTINUOUS
 62
     5
 10
660.45054030109441
 20
283.40754624854492
 30
0.0
 11
660.34216900013746
 21
283.61086166780387
 31
0.0
  0
LINE
  5
33E
  8
DETAIL
  6
CONTINUOUS
 62
     5
 10
660.34216900013746
 20
283.61086166780387
 30
0.0
 11
660.24003759662139
 21
283.81366571835781
 31
0.0
  0
LINE
  5
33F
  8
DETAIL
  6
CONTINUOUS
 62
     5
 10
660.24003759662139
 20
283.81366571835781
 30
0.0
 11
660.14405457199359
 21
284.01666398820259
 31
0.0
  0
LINE
  5
340
  8
DETAIL
  6
CONTINUOUS
 62
     5
 10
660.14405457199359
 20
284.01666398820259
 30
0.0
 11
660.05398209541625
 21
284.2204726695216
 31
0.0
  0
LINE
  5
341
  8
DETAIL
  6
CONTINUOUS
 62
     5
 10
660.05398209541625
 20
284.2204726695216
 30
0.0
 11
659.97028961271712
 21
284.4251247499252
 31
0.0
  0
LINE
  5
342
  8
DETAIL
  6
CONTINUOUS
 62
     5
 10
659.97028961271712
 20
284.4251247499252
 30
0.0
 11
659.8931106108937
 21
284.63089926583609
 31
0.0
  0
LINE
  5
343
  8
DETAIL
  6
CONTINUOUS
 62
     5
 10
659.8931106108937
 20
284.63089926583609
 30
0.0
 11
659.82321514011585
 21
284.83767425848868
 31
0.0
  0
LINE
  5
344
  8
DETAIL
  6
CONTINUOUS
 62
     5
 10
659.82321514011585
 20
284.83767425848868
 30
0.0
 11
659.76091300259179
 21
285.04632987395547
 31
0.0
  0
LINE
  5
345
  8
DETAIL
  6
CONTINUOUS
 62
     5
 10
659.76091300259179
 20
285.04632987395547
 30
0.0
 11
659.70771842815554
 21
285.25413883214219
 31
0.0
  0
LINE
  5
346
  8
DETAIL
  6
CONTINUOUS
 62
     5
 10
659.70771842815554
 20
285.25413883214219
 30
0.0
 11
659.66497540012665
 21
285.45969596876108
 31
0.0
  0
LINE
  5
347
  8
DETAIL
  6
CONTINUOUS
 62
     5
 10
659.66497540012665
 20
285.45969596876108
 30
0.0
 11
659.63350446519212
 21
285.65991508797282
 31
0.0
  0
LINE
  5
348
  8
DETAIL
  6
CONTINUOUS
 62
     5
 10
659.63350446519212
 20
285.65991508797282
 30
0.0
 11
659.61461912202481
 21
285.85154201027768
 31
0.0
  0
LINE
  5
349
  8
DETAIL
  6
CONTINUOUS
 62
     5
 10
659.61461912202481
 20
285.85154201027768
 30
0.0
 11
659.60818450058525
 21
286.03367552137053
 31
0.0
  0
LINE
  5
34A
  8
DETAIL
  6
CONTINUOUS
 62
     5
 10
659.60818450058525
 20
286.03367552137053
 30
0.0
 11
659.61465581149162
 21
286.20462902115707
 31
0.0
  0
LINE
  5
34B
  8
DETAIL
  6
CONTINUOUS
 62
     5
 10
659.61465581149162
 20
286.20462902115707
 30
0.0
 11
659.63357631305905
 21
286.36350449050389
 31
0.0
  0
LINE
  5
34C
  8
DETAIL
  6
CONTINUOUS
 62
     5
 10
659.63357631305905
 20
286.36350449050389
 30
0.0
 11
659.66507957285978
 21
286.50916751850752
 31
0.0
  0
LINE
  5
34D
  8
DETAIL
  6
CONTINUOUS
 62
     5
 10
659.66507957285978
 20
286.50916751850752
 30
0.0
 11
659.707849879896
 21
286.64064068538971
 31
0.0
  0
LINE
  5
34E
  8
DETAIL
  6
CONTINUOUS
 62
     5
 10
659.707849879896
 20
286.64064068538971
 30
0.0
 11
659.76106427511752
 21
286.75625991332419
 31
0.0
  0
LINE
  5
34F
  8
DETAIL
  6
CONTINUOUS
 62
     5
 10
659.76106427511752
 20
286.75625991332419
 30
0.0
 11
659.82337807641193
 21
286.85695076855438
 31
0.0
  0
LINE
  5
350
  8
DETAIL
  6
CONTINUOUS
 62
     5
 10
659.82337807641193
 20
286.85695076855438
 30
0.0
 11
659.89327517129959
 21
286.94261126464397
 31
0.0
  0
LINE
  5
351
  8
DETAIL
  6
CONTINUOUS
 62
     5
 10
659.89327517129959
 20
286.94261126464397
 30
0.0
 11
659.97044689393317
 21
287.01465998180799
 31
0.0
  0
LINE
  5
352
  8
DETAIL
  6
CONTINUOUS
 62
     5
 10
659.97044689393317
 20
287.01465998180799
 30
0.0
 11
660.05412281605459
 21
287.07431120776857
 31
0.0
  0
LINE
  5
353
  8
DETAIL
  6
CONTINUOUS
 62
     5
 10
660.05412281605459
 20
287.07431120776857
 30
0.0
 11
660.14417210713304
 21
287.12207583305837
 31
0.0
  0
LINE
  5
354
  8
DETAIL
  6
CONTINUOUS
 62
     5
 10
660.14417210713304
 20
287.12207583305837
 30
0.0
 11
660.24012699693981
 21
287.15880182593611
 31
0.0
  0
LINE
  5
355
  8
DETAIL
  6
CONTINUOUS
 62
     5
 10
660.24012699693981
 20
287.15880182593611
 30
0.0
 11
660.34222787523822
 21
287.18469223993742
 31
0.0
  0
LINE
  5
356
  8
DETAIL
  6
CONTINUOUS
 62
     5
 10
660.34222787523822
 20
287.18469223993742
 30
0.0
 11
660.45056976541525
 21
287.20029349863478
 31
0.0
  0
LINE
  5
357
  8
DETAIL
  6
CONTINUOUS
 62
     5
 10
660.45056976541525
 20
287.20029349863478
 30
0.0
 11
660.56512099331405
 21
287.20542346167241
 31
0.0
  0
ARC
  5
358
  8
DETAIL
  6
CONTINUOUS
 62
     5
 10
660.14231606533826
 20
269.09827187117207
 30
0.0
 40
7.0025704083274292
 50
314.99999999998852
 51
0.0
  0
LINE
  5
359
  8
DETAIL
  6
CONTINUOUS
 62
     5
 10
661.14268326653564
 20
282.20358745572167
 30
0.0
 11
661.14268326653564
 21
287.20542346167241
 31
0.0
  0
LINE
  5
35A
  8
DETAIL
  6
CONTINUOUS
 62
     5
 10
667.14488647367614
 20
269.09827187117207
 30
0.0
 11
667.14488647367614
 21
287.20542346167241
 31
0.0
  0
CIRCLE
  5
35B
  8
DETAIL
  6
CONTINUOUS
 62
     5
 10
647.13754244985978
 20
263.19661063311031
 30
0.0
 40
3.0011016035702518
  0
LINE
  5
35C
  8
DETAIL
  6
CONTINUOUS
 62
     5
 10
652.63956205641273
 20
287.20542346167241
 30
0.0
 11
667.14488647367614
 21
287.20542346167241
 31
0.0
  0
LINE
  5
35D
  8
DETAIL
  6
CONTINUOUS
 62
     5
 10
224.08225306657181
 20
302.92218139847319
 30
0.0
 11
224.08225306657181
 21
238.2764744458608
 31
0.0
  0
ARC
  5
35E
  8
DETAIL
  6
CONTINUOUS
 62
     5
 10
140.05140816660489
 20
270.5993279219166
 30
0.0
 40
90.033048107098537
 50
201.0394697813004
 51
338.96053021869972
  0
LINE
  5
35F
  8
DETAIL
  6
CONTINUOUS
 62
     5
 10
56.02056326663763
 20
238.2764744458608
 30
0.0
 11
56.02056326663763
 21
302.92218139847319
 31
0.0
  0
ARC
  5
360
  8
DETAIL
  6
CONTINUOUS
 62
     5
 10
140.05140816660489
 20
270.5993279219166
 30
0.0
 40
90.033048107118788
 50
21.039469781300269
 51
158.96053021869969
  0
CIRCLE
  5
361
  8
DETAIL
  6
CONTINUOUS
 62
     5
 10
140.05140816660489
 20
270.5993279219166
 30
0.0
 40
80.029376095206686
  0
CIRCLE
  5
362
  8
DETAIL
  6
CONTINUOUS
 62
     5
 10
140.05140816660489
 20
270.5993279219166
 30
0.0
 40
80.029376095206686
  0
CIRCLE
  5
363
  8
DETAIL
  6
CONTINUOUS
 62
     5
 10
140.05140816660489
 20
270.5993279219166
 30
0.0
 40
80.029376095206686
  0
CIRCLE
  5
364
  8
DETAIL
  6
CONTINUOUS
 62
     5
 10
140.05140816660489
 20
270.5993279219166
 30
0.0
 40
71.026071284495956
  0
CIRCLE
  5
365
  8
DETAIL
  6
CONTINUOUS
 62
     5
 10
140.05140816660489
 20
270.5993279219166
 30
0.0
 40
70.425850963781954
  0
ARC
  5
366
  8
DETAIL
  6
CONTINUOUS
 62
     5
 10
-460.16891254744593
 20
295.60850795166931
 30
0.0
 40
90.033048107098537
 50
201.0394697813004
 51
338.96053021869972
  0
LINE
  5
367
  8
DETAIL
  6
CONTINUOUS
 62
     5
 10
-376.13806764747892
 20
327.93136142822487
 30
0.0
 11
-376.13806764747892
 21
263.28565447561323
 31
0.0
  0
LINE
  5
368
  8
DETAIL
  6
CONTINUOUS
 62
     5
 10
-544.19975744741294
 20
263.28565447561323
 30
0.0
 11
-544.19975744741294
 21
327.93136142822487
 31
0.0
  0
ARC
  5
369
  8
DETAIL
  6
CONTINUOUS
 62
     5
 10
-460.16891254744593
 20
295.60850795166931
 30
0.0
 40
90.033048107118788
 50
21.039469781300269
 51
158.96053021869969
  0
CIRCLE
  5
36A
  8
DETAIL
  6
CONTINUOUS
 62
     5
 10
-460.16891254744593
 20
295.60850795166931
 30
0.0
 40
80.029376095206814
  0
CIRCLE
  5
36B
  8
DETAIL
  6
CONTINUOUS
 62
     5
 10
-460.16891254744593
 20
295.60850795166931
 30
0.0
 40
80.029376095206814
  0
CIRCLE
  5
36C
  8
DETAIL
  6
CONTINUOUS
 62
     5
 10
-460.16891254744593
 20
295.60850795166931
 30
0.0
 40
71.026071284496055
  0
CIRCLE
  5
36D
  8
DETAIL
  6
CONTINUOUS
 62
     5
 10
-460.16891254744593
 20
295.60850795166931
 30
0.0
 40
70.425850963782025
  0
LINE
  5
36E
  8
DETAIL
  6
CONTINUOUS
 62
     5
 10
-600.62046759452073
 20
137.7505636038741
 30
0.0
 11
-601.22068791524782
 21
137.7505636038741
 31
0.0
  0
LINE
  5
36F
  8
DETAIL
  6
CONTINUOUS
 62
     5
 10
-600.62046759452073
 20
140.75166520744381
 30
0.0
 11
-601.22068791524782
 21
140.75166520744381
 31
0.0
  0
LINE
  5
370
  8
DETAIL
  6
CONTINUOUS
 62
     5
 10
-600.62046759452073
 20
140.75166520744381
 30
0.0
 11
-600.62046759452073
 21
126.9465978310209
 31
0.0
  0
LINE
  5
371
  8
DETAIL
  6
CONTINUOUS
 62
     5
 10
-601.22068791524782
 20
126.9465978310209
 30
0.0
 11
-601.22068791524782
 21
140.75166520744381
 31
0.0
  0
ARC
  5
372
  8
DETAIL
  6
CONTINUOUS
 62
     5
 10
-600.02024727381513
 20
126.9465978310209
 30
0.0
 40
1.2004406414324711
 50
180.0
 51
270.0
  0
ARC
  5
373
  8
DETAIL
  6
CONTINUOUS
 62
     5
 10
-600.02024727381513
 20
126.9465978310209
 30
0.0
 40
0.6002203207053116
 50
180.0
 51
270.0
  0
LINE
  5
374
  8
DETAIL
  6
CONTINUOUS
 62
     5
 10
-600.02024727381513
 20
126.3463775103064
 30
0.0
 11
-599.21995351285261
 21
126.3463775103064
 31
0.0
  0
LINE
  5
375
  8
DETAIL
  6
CONTINUOUS
 62
     5
 10
-599.21995351285261
 20
125.7461571895923
 30
0.0
 11
-599.21995351285261
 21
137.7505636038741
 31
0.0
  0
LINE
  5
376
  8
DETAIL
  6
CONTINUOUS
 62
     5
 10
-596.21885190928253
 20
140.75166520744381
 30
0.0
 11
-599.21995351285261
 21
137.7505636038741
 31
0.0
  0
LINE
  5
377
  8
DETAIL
  6
CONTINUOUS
 62
     5
 10
-600.02024727381513
 20
125.7461571895923
 30
0.0
 11
-320.51765126128998
 21
125.7461571895923
 31
0.0
  0
LINE
  5
378
  8
DETAIL
  6
CONTINUOUS
 62
     5
 10
-320.51765126128998
 20
137.7505636038741
 30
0.0
 11
-320.51765126128998
 21
125.7461571895923
 31
0.0
  0
LINE
  5
379
  8
DETAIL
  6
CONTINUOUS
 62
     5
 10
-320.51765126128998
 20
137.7505636038741
 30
0.0
 11
-323.51875286486018
 21
140.75166520744381
 31
0.0
  0
LINE
  5
37A
  8
DETAIL
  6
CONTINUOUS
 62
     5
 10
-596.21885190928253
 20
140.75166520744381
 30
0.0
 11
-323.51875286486018
 21
140.75166520744381
 31
0.0
  0
LINE
  5
37B
  8
DETAIL
  6
CONTINUOUS
 62
     5
 10
600.62046759452107
 20
137.7505636038741
 30
0.0
 11
601.22068791524839
 21
137.7505636038741
 31
0.0
  0
LINE
  5
37C
  8
DETAIL
  6
CONTINUOUS
 62
     5
 10
600.62046759452107
 20
140.75166520744381
 30
0.0
 11
601.22068791524839
 21
140.75166520744381
 31
0.0
  0
LINE
  5
37D
  8
DETAIL
  6
CONTINUOUS
 62
     5
 10
600.62046759452107
 20
126.9465978310209
 30
0.0
 11
600.62046759452107
 21
140.75166520744381
 31
0.0
  0
LINE
  5
37E
  8
DETAIL
  6
CONTINUOUS
 62
     5
 10
601.22068791524839
 20
126.9465978310209
 30
0.0
 11
601.22068791524839
 21
140.75166520744381
 31
0.0
  0
ARC
  5
37F
  8
DETAIL
  6
CONTINUOUS
 62
     5
 10
600.02024727381547
 20
126.9465978310209
 30
0.0
 40
1.200440641428365
 50
270.0
 51
0.0
  0
ARC
  5
380
  8
DETAIL
  6
CONTINUOUS
 62
     5
 10
600.02024727381547
 20
126.9465978310209
 30
0.0
 40
0.6002203207141948
 50
270.0
 51
0.0
  0
LINE
  5
381
  8
DETAIL
  6
CONTINUOUS
 62
     5
 10
600.02024727381547
 20
126.3463775103064
 30
0.0
 11
599.21995351285352
 21
126.3463775103064
 31
0.0
  0
LINE
  5
382
  8
DETAIL
  6
CONTINUOUS
 62
     5
 10
600.02024727381547
 20
125.7461571895923
 30
0.0
 11
320.51765126131193
 21
125.7461571895923
 31
0.0
  0
LINE
  5
383
  8
DETAIL
  6
CONTINUOUS
 62
     5
 10
599.21995351285352
 20
137.7505636038741
 30
0.0
 11
599.21995351285352
 21
125.7461571895923
 31
0.0
  0
LINE
  5
384
  8
DETAIL
  6
CONTINUOUS
 62
     5
 10
599.21995351285352
 20
137.7505636038741
 30
0.0
 11
596.21885190928322
 21
140.75166520744381
 31
0.0
  0
LINE
  5
385
  8
DETAIL
  6
CONTINUOUS
 62
     5
 10
320.51765126131193
 20
125.7461571895923
 30
0.0
 11
320.51765126131193
 21
137.7505636038741
 31
0.0
  0
LINE
  5
386
  8
DETAIL
  6
CONTINUOUS
 62
     5
 10
323.51875286488217
 20
140.75166520744381
 30
0.0
 11
320.51765126131193
 21
137.7505636038741
 31
0.0
  0
LINE
  5
387
  8
DETAIL
  6
CONTINUOUS
 62
     5
 10
323.51875286488217
 20
140.75166520744381
 30
0.0
 11
596.21885190928322
 21
140.75166520744381
 31
0.0
  0
ARC
  5
388
  8
DETAIL
  6
CONTINUOUS
 62
     5
 10
599.21995351285352
 20
127.34674471149739
 30
0.0
 40
1.000367201190548
 50
270.0
 51
0.0
  0
ARC
  5
389
  8
DETAIL
  6
CONTINUOUS
 62
     5
 10
599.21995351285352
 20
127.34674471149739
 30
0.0
 40
0.5001836005952745
 50
270.0
 51
0.0
  0
LINE
  5
38A
  8
DETAIL
  6
CONTINUOUS
 62
     5
 10
599.72013711346312
 20
238.0873938832394
 30
0.0
 11
599.72013711346312
 21
127.34674471149739
 31
0.0
  0
LINE
  5
38B
  8
DETAIL
  6
CONTINUOUS
 62
     5
 10
600.22032071405101
 20
238.0873938832394
 30
0.0
 11
600.22032071405101
 21
127.34674471149739
 31
0.0
  0
LINE
  5
38C
  8
DETAIL
  6
CONTINUOUS
 62
     5
 10
599.72013711346312
 20
452.66615853851198
 30
0.0
 11
600.22032071405101
 21
452.66615853851198
 31
0.0
  0
LINE
  5
38D
  8
DETAIL
  6
CONTINUOUS
 62
     5
 10
599.72013711346312
 20
454.6668929408923
 30
0.0
 11
600.22032071405101
 21
454.6668929408923
 31
0.0
  0
LINE
  5
38E
  8
DETAIL
  6
CONTINUOUS
 62
     5
 10
599.72013711346312
 20
283.203954656912
 30
0.0
 11
599.72013711346312
 21
454.6668929408923
 31
0.0
  0
LINE
  5
38F
  8
DETAIL
  6
CONTINUOUS
 62
     5
 10
600.22032071405101
 20
454.6668929408923
 30
0.0
 11
600.22032071405101
 21
283.203954656912
 31
0.0
  0
LINE
  5
390
  8
DETAIL
  6
CONTINUOUS
 62
     5
 10
-599.72013711346256
 20
452.66615853851198
 30
0.0
 11
-600.22032071405079
 21
452.66615853851198
 31
0.0
  0
LINE
  5
391
  8
DETAIL
  6
CONTINUOUS
 62
     5
 10
-599.72013711346256
 20
454.6668929408923
 30
0.0
 11
-600.22032071405079
 21
454.6668929408923
 31
0.0
  0
LINE
  5
392
  8
DETAIL
  6
CONTINUOUS
 62
     5
 10
-599.72013711346256
 20
283.203954656912
 30
0.0
 11
-599.72013711346256
 21
454.6668929408923
 31
0.0
  0
LINE
  5
393
  8
DETAIL
  6
CONTINUOUS
 62
     5
 10
-600.22032071405079
 20
283.203954656912
 30
0.0
 11
-600.22032071405079
 21
454.6668929408923
 31
0.0
  0
ARC
  5
394
  8
DETAIL
  6
CONTINUOUS
 62
     5
 10
-599.21995351285261
 20
127.34674471149739
 30
0.0
 40
1.0003672011973661
 50
180.0
 51
270.0
  0
ARC
  5
395
  8
DETAIL
  6
CONTINUOUS
 62
     5
 10
-599.21995351285261
 20
127.34674471149739
 30
0.0
 40
0.5001836006096077
 50
180.0
 51
270.0
  0
LINE
  5
396
  8
DETAIL
  6
CONTINUOUS
 62
     5
 10
-600.22032071405079
 20
127.34674471149739
 30
0.0
 11
-600.22032071405079
 21
238.0873938832394
 31
0.0
  0
LINE
  5
397
  8
DETAIL
  6
CONTINUOUS
 62
     5
 10
-599.72013711346256
 20
127.34674471149739
 30
0.0
 11
-599.72013711346256
 21
238.0873938832394
 31
0.0
  0
LINE
  5
398
  8
DETAIL
  6
CONTINUOUS
 62
     5
 10
-391.34364910556502
 20
310.44925438207707
 30
0.0
 11
-391.34364910556502
 21
280.76776152126058
 31
0.0
  0
LINE
  5
399
  8
DETAIL
  6
CONTINUOUS
 62
     5
 10
-528.99417598930461
 20
280.76776152126058
 30
0.0
 11
-528.99417598930461
 21
310.44925438207707
 31
0.0
  0
LINE
  5
39A
  8
DETAIL
  6
CONTINUOUS
 62
     5
 10
-56.67080194741235
 20
455.76729686220142
 30
0.0
 11
-52.769369862784004
 21
455.76729686220142
 31
0.0
  0
ARC
  5
39B
  8
DETAIL
  6
CONTINUOUS
 62
     5
 10
-54.720085905087302
 20
454.10418639022322
 30
0.0
 40
2.5634409530354181
 50
40.44971886256662
 51
139.55028113774279
  0
ARC
  5
39C
  8
DETAIL
  6
CONTINUOUS
 62
     5
 10
-56.770838667529539
 20
455.76729686220142
 30
0.0
 40
0.1000367201189204
 50
270.0
 51
0.0
  0
ARC
  5
39D
  8
DETAIL
  6
CONTINUOUS
 62
     5
 10
-52.669333142644398
 20
455.76729686220142
 30
0.0
 40
0.1000367201393999
 50
180.0
 51
270.0
  0
LINE
  5
39E
  8
DETAIL
  6
CONTINUOUS
 62
     5
 10
598.21958631167786
 20
455.66726014208228
 30
0.0
 11
-598.21958631167763
 21
455.66726014208228
 31
0.0
  0
LINE
  5
39F
  8
DETAIL
  6
CONTINUOUS
 62
     5
 10
599.21995351285352
 20
137.7505636038741
 30
0.0
 11
599.21995351285352
 21
238.0873938832394
 31
0.0
  0
LINE
  5
3A0
  8
DETAIL
  6
CONTINUOUS
 62
     5
 10
316.51618245654441
 20
126.8465611109019
 30
0.0
 11
316.51618245654441
 21
126.3463775103064
 31
0.0
  0
LINE
  5
3A1
  8
DETAIL
  6
CONTINUOUS
 62
     5
 10
319.51728406011472
 20
126.8465611109019
 30
0.0
 11
319.51728406011472
 21
126.3463775103064
 31
0.0
  0
LINE
  5
3A2
  8
DETAIL
  6
CONTINUOUS
 62
     5
 10
319.51728406011472
 20
126.8465611109019
 30
0.0
 11
319.51728406011472
 21
127.34674471149739
 31
0.0
  0
LINE
  5
3A3
  8
DETAIL
  6
CONTINUOUS
 62
     5
 10
319.51728406011472
 20
127.34674471149739
 30
0.0
 11
320.51765126131193
 21
127.34674471149739
 31
0.0
  0
LINE
  5
3A4
  8
DETAIL
  6
CONTINUOUS
 62
     5
 10
-316.51618245654407
 20
126.8465611109019
 30
0.0
 11
-316.51618245654407
 21
126.3463775103064
 31
0.0
  0
LINE
  5
3A5
  8
DETAIL
  6
CONTINUOUS
 62
     5
 10
-319.51728406011432
 20
126.8465611109019
 30
0.0
 11
-319.51728406011432
 21
126.3463775103064
 31
0.0
  0
LINE
  5
3A6
  8
DETAIL
  6
CONTINUOUS
 62
     5
 10
-319.51728406011432
 20
126.8465611109019
 30
0.0
 11
-319.51728406011432
 21
127.34674471149739
 31
0.0
  0
LINE
  5
3A7
  8
DETAIL
  6
CONTINUOUS
 62
     5
 10
-320.51765126128998
 20
127.34674471149739
 30
0.0
 11
-319.51728406011432
 21
127.34674471149739
 31
0.0
  0
LINE
  5
3A8
  8
DETAIL
  6
CONTINUOUS
 62
     5
 10
-319.51728406011432
 20
126.8465611109019
 30
0.0
 11
319.51728406011472
 21
126.8465611109019
 31
0.0
  0
LINE
  5
3A9
  8
DETAIL
  6
CONTINUOUS
 62
     5
 10
-319.51728406011432
 20
126.3463775103064
 30
0.0
 11
319.51728406011472
 21
126.3463775103064
 31
0.0
  0
LINE
  5
3AA
  8
DETAIL
  6
CONTINUOUS
 62
     5
 10
-599.21995351285261
 20
238.0873938832394
 30
0.0
 11
-599.21995351285261
 21
137.7505636038741
 31
0.0
  0
LINE
  5
3AB
  8
DETAIL
  6
CONTINUOUS
 62
     5
 10
-598.21958631167763
 20
453.9666359000592
 30
0.0
 11
-598.21958631167763
 21
455.66726014208228
 31
0.0
  0
LINE
  5
3AC
  8
DETAIL
  6
CONTINUOUS
 62
     5
 10
-598.21958631167763
 20
453.9666359000592
 30
0.0
 11
-599.21995351285261
 21
453.9666359000592
 31
0.0
  0
LINE
  5
3AD
  8
DETAIL
  6
CONTINUOUS
 62
     5
 10
-599.21995351285261
 20
454.6668929408923
 30
0.0
 11
-598.71976991226541
 21
454.6668929408923
 31
0.0
  0
LINE
  5
3AE
  8
DETAIL
  6
CONTINUOUS
 62
     5
 10
-599.21995351285261
 20
283.203954656912
 30
0.0
 11
-599.21995351285261
 21
454.6668929408923
 31
0.0
  0
LINE
  5
3AF
  8
DETAIL
  6
CONTINUOUS
 62
     5
 10
-598.71976991226541
 20
453.9666359000592
 30
0.0
 11
-598.71976991226541
 21
454.6668929408923
 31
0.0
  0
ARC
  5
3B0
  8
DETAIL
  6
CONTINUOUS
 62
     5
 10
-598.21958631167763
 20
454.6668929408923
 30
0.0
 40
1.000367201189851
 50
90.0
 51
180.0
  0
ARC
  5
3B1
  8
DETAIL
  6
CONTINUOUS
 62
     5
 10
-598.21958631167763
 20
454.6668929408923
 30
0.0
 40
0.5001836005945779
 50
90.0
 51
180.0
  0
LINE
  5
3B2
  8
DETAIL
  6
CONTINUOUS
 62
     5
 10
599.21995351285352
 20
454.6668929408923
 30
0.0
 11
598.71976991226575
 21
454.6668929408923
 31
0.0
  0
ARC
  5
3B3
  8
DETAIL
  6
CONTINUOUS
 62
     5
 10
598.21958631167786
 20
454.6668929408923
 30
0.0
 40
1.000367201175518
 50
0.0
 51
90.0
  0
ARC
  5
3B4
  8
DETAIL
  6
CONTINUOUS
 62
     5
 10
598.21958631167786
 20
454.6668929408923
 30
0.0
 40
0.5001836005877597
 50
0.0
 51
90.0
  0
LINE
  5
3B5
  8
DETAIL
  6
CONTINUOUS
 62
     5
 10
598.71976991226575
 20
454.6668929408923
 30
0.0
 11
598.71976991226575
 21
453.9666359000592
 31
0.0
  0
LINE
  5
3B6
  8
DETAIL
  6
CONTINUOUS
 62
     5
 10
599.21995351285352
 20
283.203954656912
 30
0.0
 11
599.21995351285352
 21
454.6668929408923
 31
0.0
  0
LINE
  5
3B7
  8
DETAIL
  6
CONTINUOUS
 62
     5
 10
598.21958631167786
 20
453.9666359000592
 30
0.0
 11
599.21995351285352
 21
453.9666359000592
 31
0.0
  0
LINE
  5
3B8
  8
DETAIL
  6
CONTINUOUS
 62
     5
 10
598.21958631167786
 20
453.9666359000592
 30
0.0
 11
598.21958631167786
 21
455.66726014208228
 31
0.0
  0
LINE
  5
3B9
  8
DETAIL
  6
CONTINUOUS
 62
     5
 10
317.61658637785922
 20
125.0459001487601
 30
0.0
 11
329.52095607202273
 21
125.0459001487601
 31
0.0
  0
LINE
  5
3BA
  8
DETAIL
  6
CONTINUOUS
 62
     5
 10
-326.92000134892231
 20
125.7461571895923
 30
0.0
 11
-326.92000134892231
 21
125.6461204694737
 31
0.0
  0
LINE
  5
3BB
  8
DETAIL
  6
CONTINUOUS
 62
     5
 10
-327.52022166962769
 20
125.7461571895923
 30
0.0
 11
-327.52022166962769
 21
125.6461204694737
 31
0.0
  0
LINE
  5
3BC
  8
DETAIL
  6
CONTINUOUS
 62
     5
 10
375.1377004462816
 20
-3.0011016035698761
 30
0.0
 11
375.1377004462816
 21
-0.5001836005950551
 31
0.0
  0
LINE
  5
3BD
  8
DETAIL
  6
CONTINUOUS
 62
     5
 10
385.14137245819001
 20
-44.016156852364382
 30
0.0
 11
385.14137245819001
 21
-40.014688047603947
 31
0.0
  0
LINE
  5
3BE
  8
DETAIL
  6
CONTINUOUS
 62
     5
 10
375.1377004462816
 20
-3.0011016035698761
 30
0.0
 11
355.13035642248741
 21
-6.0022032071402061
 31
0.0
  0
LINE
  5
3BF
  8
DETAIL
  6
CONTINUOUS
 62
     5
 10
384.14100525699263
 20
-40.014688047603947
 30
0.0
 11
385.14137245819001
 21
-40.014688047603947
 31
0.0
  0
LINE
  5
3C0
  8
DETAIL
  6
CONTINUOUS
 62
     5
 10
355.13035642248741
 20
-35.012852041653403
 30
0.0
 11
352.62943841950482
 21
-35.012852041653403
 31
0.0
  0
LINE
  5
3C1
  8
DETAIL
  6
CONTINUOUS
 62
     5
 10
351.12888761771973
 20
-10.003672011901561
 30
0.0
 11
348.62796961475908
 21
-10.003672011901561
 31
0.0
  0
LINE
  5
3C2
  8
DETAIL
  6
CONTINUOUS
 62
     5
 10
355.13035642248741
 20
-6.0022032071402061
 30
0.0
 11
352.62943841950482
 21
-6.0022032071402061
 31
0.0
  0
LINE
  5
3C3
  8
DETAIL
  6
CONTINUOUS
 62
     5
 10
375.1377004462816
 20
-0.5001836005950551
 30
0.0
 11
374.63751684569399
 21
-0.5001836005950551
 31
0.0
  0
LINE
  5
3C4
  8
DETAIL
  6
CONTINUOUS
 62
     5
 10
350.12852041652241
 20
-40.014688047603947
 30
0.0
 11
362.38301863110809
 21
-40.014688047603947
 31
0.0
  0
LINE
  5
3C5
  8
DETAIL
  6
CONTINUOUS
 62
     5
 10
372.88687424360421
 20
-40.014688047603947
 30
0.0
 11
384.14100525699263
 21
-40.014688047603947
 31
0.0
  0
LINE
  5
3C6
  8
DETAIL
  6
CONTINUOUS
 62
     5
 10
374.9376270060468
 20
-3.0311126196058971
 30
0.0
 11
374.89234017376799
 21
-3.0220566179527859
 31
0.0
  0
LINE
  5
3C7
  8
DETAIL
  6
CONTINUOUS
 62
     5
 10
374.89234017376799
 20
-3.0220566179527859
 30
0.0
 11
374.84486742161442
 21
-3.0146025052983361
 31
0.0
  0
ARC
  5
3C8
  8
DETAIL
  6
CONTINUOUS
 62
     5
 10
384.14100525699263
 20
-44.016156852364382
 30
0.0
 40
1.0003672011891791
 50
270.0
 51
0.0
  0
LINE
  5
3C9
  8
DETAIL
  6
CONTINUOUS
 62
     5
 10
374.84486742161442
 20
-3.0146025052983361
 30
0.0
 11
374.79493377264947
 21
-3.0087317408380709
 31
0.0
  0
LINE
  5
3CA
  8
DETAIL
  6
CONTINUOUS
 62
     5
 10
374.79493377264947
 20
-3.0087317408380709
 30
0.0
 11
374.74336415768278
 21
-3.0044999474893741
 31
0.0
  0
LINE
  5
3CB
  8
DETAIL
  6
CONTINUOUS
 62
     5
 10
374.74336415768278
 20
-3.0044999474893741
 30
0.0
 11
374.69098350800402
 21
-3.0019627486676792
 31
0.0
  0
LINE
  5
3CC
  8
DETAIL
  6
CONTINUOUS
 62
     5
 10
374.69098350800402
 20
-3.0019627486676792
 30
0.0
 11
374.63751684569399
 21
-3.0011016035698761
 31
0.0
  0
LINE
  5
3CD
  8
DETAIL
  6
CONTINUOUS
 62
     5
 10
348.62796961475908
 20
-15.05554226774378
 30
0.0
 11
348.62796961475908
 21
-18.95694257271996
 31
0.0
  0
LINE
  5
3CE
  8
DETAIL
  6
CONTINUOUS
 62
     5
 10
348.62796961475908
 20
-40.014688047603947
 30
0.0
 11
348.62796961475908
 21
-10.003672011901561
 31
0.0
  0
LINE
  5
3CF
  8
DETAIL
  6
CONTINUOUS
 62
     5
 10
351.12888761771973
 20
-40.014688047603947
 30
0.0
 11
351.12888761771973
 21
-10.003672011901561
 31
0.0
  0
LINE
  5
3D0
  8
DETAIL
  6
CONTINUOUS
 62
     5
 10
352.62943841950482
 20
-35.012852041653403
 30
0.0
 11
352.62943841950482
 21
-6.0022032071402061
 31
0.0
  0
LINE
  5
3D1
  8
DETAIL
  6
CONTINUOUS
 62
     5
 10
355.13035642248741
 20
-6.0022032071402061
 30
0.0
 11
355.13035642248741
 21
-35.012852041653403
 31
0.0
  0
LINE
  5
3D2
  8
DETAIL
  6
CONTINUOUS
 62
     5
 10
375.1377004462816
 20
-0.5001836005950551
 30
0.0
 11
374.63751684569399
 21
0.0
 31
0.0
  0
LINE
  5
3D3
  8
DETAIL
  6
CONTINUOUS
 62
     5
 10
333.17508824766281
 20
60.019461582864537
 30
0.0
 11
334.22273184644109
 21
0.0
 31
0.0
  0
LINE
  5
3D4
  8
DETAIL
  6
CONTINUOUS
 62
     5
 10
331.14783609752112
 20
60.021223544621563
 30
0.0
 11
331.671633379892
 21
0.0
 31
0.0
  0
LINE
  5
3D5
  8
DETAIL
  6
CONTINUOUS
 62
     5
 10
309.75171602468282
 20
56.626673199736977
 30
0.0
 11
310.65538269585011
 21
0.0
 31
0.0
  0
LINE
  5
3D6
  8
DETAIL
  6
CONTINUOUS
 62
     5
 10
306.19431123939893
 20
56.627265691721433
 30
0.0
 11
306.60373342753752
 21
0.0
 31
0.0
  0
LINE
  5
3D7
  8
DETAIL
  6
CONTINUOUS
 62
     5
 10
-355.13035642248718
 20
-6.0022032071402061
 30
0.0
 11
352.62943841950482
 21
-6.0022032071402061
 31
0.0
  0
LINE
  5
3D8
  8
DETAIL
  6
CONTINUOUS
 62
     5
 10
-374.6375168456936
 20
-3.0011016035698761
 30
0.0
 11
374.63751684569399
 21
-3.0011016035698761
 31
0.0
  0
LINE
  5
3D9
  8
DETAIL
  6
CONTINUOUS
 62
     5
 10
-375.1377004462816
 20
-0.5001836005950551
 30
0.0
 11
374.63751684569399
 21
-0.5001836005950551
 31
0.0
  0
LINE
  5
3DA
  8
DETAIL
  6
CONTINUOUS
 62
     5
 10
-374.6375168456936
 20
0.0
 30
0.0
 11
374.63751684569399
 21
0.0
 31
0.0
  0
LINE
  5
3DB
  8
DETAIL
  6
CONTINUOUS
 62
     5
 10
384.14100525699263
 20
-45.016524053553603
 30
0.0
 11
-384.1410052569924
 21
-45.016524053553603
 31
0.0
  0
LINE
  5
3DC
  8
DETAIL
  6
CONTINUOUS
 62
     5
 10
0.500183600588005
 20
-40.014688047603947
 30
0.0
 11
349.9284469762872
 21
-40.014688047603947
 31
0.0
  0
LINE
  5
3DD
  8
DETAIL
  6
CONTINUOUS
 62
     5
 10
-385.14137245818961
 20
-40.014688047603947
 30
0.0
 11
384.14100525699263
 21
-40.014688047603947
 31
0.0
  0
ARC
  5
3DE
  8
DETAIL
  6
CONTINUOUS
 62
     5
 10
-384.1410052569924
 20
-44.016156852364382
 30
0.0
 40
1.0003672011973661
 50
180.0
 51
270.0
  0
LINE
  5
3DF
  8
DETAIL
  6
CONTINUOUS
 62
     5
 10
-374.9376270060464
 20
-3.0311126196058971
 30
0.0
 11
-374.8923401737672
 21
-3.0220566179527859
 31
0.0
  0
LINE
  5
3E0
  8
DETAIL
  6
CONTINUOUS
 62
     5
 10
-374.8923401737672
 20
-3.0220566179527859
 30
0.0
 11
-374.84486742161408
 21
-3.0146025052983361
 31
0.0
  0
LINE
  5
3E1
  8
DETAIL
  6
CONTINUOUS
 62
     5
 10
-374.84486742161408
 20
-3.0146025052983361
 30
0.0
 11
-374.79493377264907
 21
-3.0087317408380709
 31
0.0
  0
LINE
  5
3E2
  8
DETAIL
  6
CONTINUOUS
 62
     5
 10
-375.1377004462816
 20
-0.5001836005950551
 30
0.0
 11
-374.6375168456936
 21
0.0
 31
0.0
  0
LINE
  5
3E3
  8
DETAIL
  6
CONTINUOUS
 62
     5
 10
-374.79493377264907
 20
-3.0087317408380709
 30
0.0
 11
-374.74336415818448
 21
-3.0044999474893741
 31
0.0
  0
LINE
  5
3E4
  8
DETAIL
  6
CONTINUOUS
 62
     5
 10
-374.74336415818448
 20
-3.0044999474893741
 30
0.0
 11
-374.69098350800368
 21
-3.0019627486676792
 31
0.0
  0
LINE
  5
3E5
  8
DETAIL
  6
CONTINUOUS
 62
     5
 10
-374.69098350800368
 20
-3.0019627486676792
 30
0.0
 11
-374.6375168456936
 21
-3.0011016035698761
 31
0.0
  0
LINE
  5
3E6
  8
DETAIL
  6
CONTINUOUS
 62
     5
 10
-385.14137245818961
 20
-44.016156852364382
 30
0.0
 11
-385.14137245818961
 21
-40.014688047603947
 31
0.0
  0
LINE
  5
3E7
  8
DETAIL
  6
CONTINUOUS
 62
     5
 10
-375.1377004462816
 20
-3.0011016035698761
 30
0.0
 11
-375.1377004462816
 21
-0.5001836005950551
 31
0.0
  0
LINE
  5
3E8
  8
DETAIL
  6
CONTINUOUS
 62
     5
 10
-375.1377004462816
 20
-3.0011016035698761
 30
0.0
 11
-355.13035642248718
 21
-6.0022032071402061
 31
0.0
  0
LINE
  5
3E9
  8
DETAIL
  6
CONTINUOUS
 62
     5
 10
-352.62943841950482
 20
-35.012852041653403
 30
0.0
 11
-355.13035642248718
 21
-35.012852041653403
 31
0.0
  0
LINE
  5
3EA
  8
DETAIL
  6
CONTINUOUS
 62
     5
 10
-355.13035642248718
 20
-6.0022032071402061
 30
0.0
 11
-355.13035642248718
 21
-35.012852041653403
 31
0.0
  0
LINE
  5
3EB
  8
DETAIL
  6
CONTINUOUS
 62
     5
 10
-352.62943841950482
 20
-35.012852041653403
 30
0.0
 11
-352.62943841950482
 21
-6.0022032071402061
 31
0.0
  0
LINE
  5
3EC
  8
DETAIL
  6
CONTINUOUS
 62
     5
 10
-351.12888761771973
 20
-40.014688047603947
 30
0.0
 11
-351.12888761771973
 21
-10.003672011901561
 31
0.0
  0
LINE
  5
3ED
  8
DETAIL
  6
CONTINUOUS
 62
     5
 10
-348.62796961473663
 20
-40.014688047603947
 30
0.0
 11
-348.62796961473663
 21
-10.003672011901561
 31
0.0
  0
LINE
  5
3EE
  8
DETAIL
  6
CONTINUOUS
 62
     5
 10
-351.12888761771973
 20
-10.003672011901561
 30
0.0
 11
-348.62796961473663
 21
-10.003672011901561
 31
0.0
  0
LINE
  5
3EF
  8
DETAIL
  6
CONTINUOUS
 62
     5
 10
-306.19431123939847
 20
56.627265691721433
 30
0.0
 11
-306.60373342753712
 21
0.0
 31
0.0
  0
LINE
  5
3F0
  8
DETAIL
  6
CONTINUOUS
 62
     5
 10
-331.14783609752078
 20
60.021223544621563
 30
0.0
 11
-331.67163338039359
 21
0.0
 31
0.0
  0
LINE
  5
3F1
  8
DETAIL
  6
CONTINUOUS
 62
     5
 10
-309.75171602468242
 20
56.626673199736977
 30
0.0
 11
-310.65538269584931
 21
0.0
 31
0.0
  0
LINE
  5
3F2
  8
DETAIL
  6
CONTINUOUS
 62
     5
 10
-333.17508824766219
 20
60.019461582864537
 30
0.0
 11
-334.22273184644052
 21
0.0
 31
0.0
  0
LINE
  5
3F3
  8
DETAIL
  6
CONTINUOUS
 62
     5
 10
-334.52279207796562
 20
61.338475006876898
 30
0.0
 11
-334.52279207796562
 21
60.022032071405242
 31
0.0
  0
LINE
  5
3F4
  8
DETAIL
  6
CONTINUOUS
 62
     5
 10
-334.52279207796562
 20
61.338475006876898
 30
0.0
 11
-334.52279207796562
 21
87.982295344667705
 31
0.0
  0
LINE
  5
3F5
  8
DETAIL
  6
CONTINUOUS
 62
     5
 10
-334.54729554235962
 20
61.161711964603988
 30
0.0
 11
-334.52963167905239
 21
61.289423764313852
 31
0.0
  0
LINE
  5
3F6
  8
DETAIL
  6
CONTINUOUS
 62
     5
 10
-334.52963167905239
 20
61.289423764313852
 30
0.0
 11
-334.52279207796562
 21
61.422546153070478
 31
0.0
  0
LINE
  5
3F7
  8
DETAIL
  6
CONTINUOUS
 62
     5
 10
-329.12080919152999
 20
56.626673199736977
 30
0.0
 11
-329.12080919152999
 21
60.51927086606004
 31
0.0
  0
LINE
  5
3F8
  8
DETAIL
  6
CONTINUOUS
 62
     5
 10
-335.12301239867048
 20
63.765046792854022
 30
0.0
 11
-338.26580679940258
 21
60.622252392118853
 31
0.0
  0
LINE
  5
3F9
  8
DETAIL
  6
CONTINUOUS
 62
     5
 10
-317.61658637785888
 20
57.226893520450581
 30
0.0
 11
-317.61658637785888
 21
56.626673199736977
 31
0.0
  0
LINE
  5
3FA
  8
DETAIL
  6
CONTINUOUS
 62
     5
 10
-311.61438317069639
 20
57.226893520450581
 30
0.0
 11
-311.61438317069639
 21
56.626673199736977
 31
0.0
  0
ARC
  5
3FB
  8
DETAIL
  6
CONTINUOUS
 62
     5
 10
-331.2404840924861
 20
61.022399272594427
 30
0.0
 40
1.000367201190548
 50
270.0
 51
341.6790355654183
  0
LINE
  5
3FC
  8
DETAIL
  6
CONTINUOUS
 62
     5
 10
-335.92330615963311
 20
60.622252392118853
 30
0.0
 11
-335.83735327071759
 21
60.627291406270942
 31
0.0
  0
ARC
  5
3FD
  8
DETAIL
  6
CONTINUOUS
 62
     5
 10
-329.72102951225759
 20
60.51927086606004
 30
0.0
 40
0.6002203207271596
 50
0.0
 51
161.67903556462309
  0
LINE
  5
3FE
  8
DETAIL
  6
CONTINUOUS
 62
     5
 10
-335.83735327071759
 20
60.627291406270942
 30
0.0
 11
-335.75549032707198
 21
60.640045066711657
 31
0.0
  0
ARC
  5
3FF
  8
DETAIL
  6
CONTINUOUS
 62
     5
 10
-305.51214324346017
 20
61.222472712832463
 30
0.0
 40
0.6002203207271596
 50
0.0
 51
180.0
  0
LINE
  5
400
  8
DETAIL
  6
CONTINUOUS
 62
     5
 10
-335.75549032707198
 20
60.640045066711657
 30
0.0
 11
-335.67755168741297
 21
60.660905982052597
 31
0.0
  0
LINE
  5
401
  8
DETAIL
  6
CONTINUOUS
 62
     5
 10
-335.67755168741297
 20
60.660905982052597
 30
0.0
 11
-335.60403427615529
 21
60.688696326453993
 31
0.0
  0
LINE
  5
402
  8
DETAIL
  6
CONTINUOUS
 62
     5
 10
-306.11236356416578
 20
56.626673199736977
 30
0.0
 11
-306.11236356416578
 21
61.222472712832463
 31
0.0
  0
LINE
  5
403
  8
DETAIL
  6
CONTINUOUS
 62
     5
 10
-304.91192292273342
 20
60.622252392118853
 30
0.0
 11
-304.91192292273342
 21
60.022032071405242
 31
0.0
  0
LINE
  5
404
  8
DETAIL
  6
CONTINUOUS
 62
     5
 10
-335.60403427615529
 20
60.688696326453993
 30
0.0
 11
-335.53548138818678
 21
60.722430385093993
 31
0.0
  0
LINE
  5
405
  8
DETAIL
  6
CONTINUOUS
 62
     5
 10
-304.91192292273342
 20
60.622252392118853
 30
0.0
 11
-304.91192292273342
 21
60.630317161923877
 31
0.0
  0
LINE
  5
406
  8
DETAIL
  6
CONTINUOUS
 62
     5
 10
-304.91192292273342
 20
60.630317161923877
 30
0.0
 11
-304.91192292273342
 21
61.222472712832463
 31
0.0
  0
LINE
  5
407
  8
DETAIL
  6
CONTINUOUS
 62
     5
 10
-335.53548138818678
 20
60.722430385093993
 30
0.0
 11
-335.47158827067369
 21
60.76192443653342
 31
0.0
  0
LINE
  5
408
  8
DETAIL
  6
CONTINUOUS
 62
     5
 10
-335.47158827067369
 20
60.76192443653342
 30
0.0
 11
-335.41214194391853
 21
60.806730827954468
 31
0.0
  0
LINE
  5
409
  8
DETAIL
  6
CONTINUOUS
 62
     5
 10
-335.41214194391853
 20
60.806730827954468
 30
0.0
 11
-335.35741038130311
 21
60.856655640675683
 31
0.0
  0
LINE
  5
40A
  8
DETAIL
  6
CONTINUOUS
 62
     5
 10
-335.35741038130311
 20
60.856655640675683
 30
0.0
 11
-335.30748697358831
 21
60.911386333474503
 31
0.0
  0
LINE
  5
40B
  8
DETAIL
  6
CONTINUOUS
 62
     5
 10
-335.30748697358831
 20
60.911386333474503
 30
0.0
 11
-335.26268248688388
 21
60.970831124659398
 31
0.0
  0
LINE
  5
40C
  8
DETAIL
  6
CONTINUOUS
 62
     5
 10
-335.26268248688388
 20
60.970831124659398
 30
0.0
 11
-335.22318939777381
 21
61.034723210297841
 31
0.0
  0
LINE
  5
40D
  8
DETAIL
  6
CONTINUOUS
 62
     5
 10
-335.22318939777381
 20
61.034723210297841
 30
0.0
 11
-335.1894559643743
 21
61.10327511639948
 31
0.0
  0
LINE
  5
40E
  8
DETAIL
  6
CONTINUOUS
 62
     5
 10
-335.1894559643743
 20
61.10327511639948
 30
0.0
 11
-335.16166604263452
 21
61.176791330232497
 31
0.0
  0
LINE
  5
40F
  8
DETAIL
  6
CONTINUOUS
 62
     5
 10
-335.16166604263452
 20
61.176791330232497
 30
0.0
 11
-335.14080532035172
 21
61.254729167593347
 31
0.0
  0
LINE
  5
410
  8
DETAIL
  6
CONTINUOUS
 62
     5
 10
-335.14080532035172
 20
61.254729167593347
 30
0.0
 11
-335.12805164441278
 21
61.336592293795881
 31
0.0
  0
LINE
  5
411
  8
DETAIL
  6
CONTINUOUS
 62
     5
 10
-335.12805164441278
 20
61.336592293795881
 30
0.0
 11
-335.12301239867048
 21
61.422546153070478
 31
0.0
  0
LINE
  5
412
  8
DETAIL
  6
CONTINUOUS
 62
     5
 10
-335.92330615963311
 20
60.022032071405242
 30
0.0
 11
-335.79018499882068
 21
60.028871421900043
 31
0.0
  0
LINE
  5
413
  8
DETAIL
  6
CONTINUOUS
 62
     5
 10
-335.91520394207799
 20
60.62229340667303
 30
0.0
 11
-335.92330615963311
 21
60.622252392118853
 31
0.0
  0
LINE
  5
414
  8
DETAIL
  6
CONTINUOUS
 62
     5
 10
-344.02628048926402
 20
60.022032071405242
 30
0.0
 11
-335.91520394207799
 21
60.022055508006851
 31
0.0
  0
LINE
  5
415
  8
DETAIL
  6
CONTINUOUS
 62
     5
 10
-311.61782179841549
 20
60.094851006789142
 30
0.0
 11
-311.61631199220511
 21
60.109825790028751
 31
0.0
  0
LINE
  5
416
  8
DETAIL
  6
CONTINUOUS
 62
     5
 10
-311.61631199220511
 20
60.109825790028751
 30
0.0
 11
-311.61523561861151
 21
60.125275117958168
 31
0.0
  0
LINE
  5
417
  8
DETAIL
  6
CONTINUOUS
 62
     5
 10
-344.02628048926402
 20
60.622252392118853
 30
0.0
 11
-335.92330615963311
 21
60.622252392118853
 31
0.0
  0
LINE
  5
418
  8
DETAIL
  6
CONTINUOUS
 62
     5
 10
-311.61523561861151
 20
60.125275117958168
 30
0.0
 11
-311.61459267811608
 21
60.141178778157638
 31
0.0
  0
LINE
  5
419
  8
DETAIL
  6
CONTINUOUS
 62
     5
 10
-311.61459267811608
 20
60.141178778157638
 30
0.0
 11
-311.61438317069639
 21
60.157516124048023
 31
0.0
  0
LINE
  5
41A
  8
DETAIL
  6
CONTINUOUS
 62
     5
 10
-311.62984785476613
 20
60.029589743571819
 30
0.0
 11
-311.61782179841549
 21
60.094851006789142
 31
0.0
  0
LINE
  5
41B
  8
DETAIL
  6
CONTINUOUS
 62
     5
 10
-341.82547264665601
 20
61.722656313427969
 30
0.0
 11
-337.42385696141821
 21
61.722656313427969
 31
0.0
  0
LINE
  5
41C
  8
DETAIL
  6
CONTINUOUS
 62
     5
 10
-317.60112169378948
 20
60.029589743571819
 30
0.0
 11
-317.58076445232081
 21
59.965851923058892
 31
0.0
  0
LINE
  5
41D
  8
DETAIL
  6
CONTINUOUS
 62
     5
 10
-317.58076445232081
 20
59.965851923058892
 30
0.0
 11
-317.55193184334388
 21
59.903349085367623
 31
0.0
  0
LINE
  5
41E
  8
DETAIL
  6
CONTINUOUS
 62
     5
 10
-317.55193184334388
 20
59.903349085367623
 30
0.0
 11
-317.51505641710861
 21
59.842946610148502
 31
0.0
  0
LINE
  5
41F
  8
DETAIL
  6
CONTINUOUS
 62
     5
 10
-317.61314775064182
 20
60.094851006789142
 30
0.0
 11
-317.60112169378948
 21
60.029589743571819
 31
0.0
  0
LINE
  5
420
  8
DETAIL
  6
CONTINUOUS
 62
     5
 10
-311.71591313144683
 20
59.842946610148502
 30
0.0
 11
-311.67903770521173
 21
59.903349085367623
 31
0.0
  0
LINE
  5
421
  8
DETAIL
  6
CONTINUOUS
 62
     5
 10
-311.67903770521173
 20
59.903349085367623
 30
0.0
 11
-311.6502050962348
 21
59.965851923058892
 31
0.0
  0
LINE
  5
422
  8
DETAIL
  6
CONTINUOUS
 62
     5
 10
-311.6502050962348
 20
59.965851923058892
 30
0.0
 11
-311.62984785476613
 21
60.029589743571819
 31
0.0
  0
LINE
  5
423
  8
DETAIL
  6
CONTINUOUS
 62
     5
 10
-312.61475037189348
 20
59.446084729485577
 30
0.0
 11
-312.52139480521771
 21
59.449192438220138
 31
0.0
  0
LINE
  5
424
  8
DETAIL
  6
CONTINUOUS
 62
     5
 10
-312.52139480521771
 20
59.449192438220138
 30
0.0
 11
-312.42964633992369
 21
59.458299726200501
 31
0.0
  0
LINE
  5
425
  8
DETAIL
  6
CONTINUOUS
 62
     5
 10
-312.42964633992369
 20
59.458299726200501
 30
0.0
 11
-312.33912148929687
 21
59.4734848841615
 31
0.0
  0
LINE
  5
426
  8
DETAIL
  6
CONTINUOUS
 62
     5
 10
-312.33912148929687
 20
59.4734848841615
 30
0.0
 11
-312.25097071361091
 21
59.494513038891007
 31
0.0
  0
LINE
  5
427
  8
DETAIL
  6
CONTINUOUS
 62
     5
 10
-312.25097071361091
 20
59.494513038891007
 30
0.0
 11
-312.16598583802181
 21
59.521276894003023
 31
0.0
  0
LINE
  5
428
  8
DETAIL
  6
CONTINUOUS
 62
     5
 10
-312.16598583802181
 20
59.521276894003023
 30
0.0
 11
-312.08485927967638
 21
59.553472008247319
 31
0.0
  0
LINE
  5
429
  8
DETAIL
  6
CONTINUOUS
 62
     5
 10
-312.08485927967638
 20
59.553472008247319
 30
0.0
 11
-312.00834847264508
 21
59.590887695289382
 31
0.0
  0
LINE
  5
42A
  8
DETAIL
  6
CONTINUOUS
 62
     5
 10
-317.51505641710861
 20
59.842946610148502
 30
0.0
 11
-317.47036245045922
 21
59.785267874223059
 31
0.0
  0
LINE
  5
42B
  8
DETAIL
  6
CONTINUOUS
 62
     5
 10
-312.00834847264508
 20
59.590887695289382
 30
0.0
 11
-311.93705019094051
 21
59.633135390498452
 31
0.0
  0
LINE
  5
42C
  8
DETAIL
  6
CONTINUOUS
 62
     5
 10
-317.47036245045922
 20
59.785267874223059
 30
0.0
 11
-317.41833058430637
 21
59.730750423697103
 31
0.0
  0
LINE
  5
42D
  8
DETAIL
  6
CONTINUOUS
 62
     5
 10
-311.93705019094051
 20
59.633135390498452
 30
0.0
 11
-311.871651874414
 21
59.679909606742463
 31
0.0
  0
LINE
  5
42E
  8
DETAIL
  6
CONTINUOUS
 62
     5
 10
-317.41833058430637
 20
59.730750423697103
 30
0.0
 11
-317.35931767464359
 21
59.679909606742463
 31
0.0
  0
LINE
  5
42F
  8
DETAIL
  6
CONTINUOUS
 62
     5
 10
-311.871651874414
 20
59.679909606742463
 30
0.0
 11
-311.81263896424878
 21
59.730750423697103
 31
0.0
  0
LINE
  5
430
  8
DETAIL
  6
CONTINUOUS
 62
     5
 10
-317.35931767464359
 20
59.679909606742463
 30
0.0
 11
-317.29391935763692
 21
59.633135390498452
 31
0.0
  0
LINE
  5
431
  8
DETAIL
  6
CONTINUOUS
 62
     5
 10
-311.81263896424878
 20
59.730750423697103
 30
0.0
 11
-311.76060709859883
 21
59.785267874223059
 31
0.0
  0
LINE
  5
432
  8
DETAIL
  6
CONTINUOUS
 62
     5
 10
-317.29391935763692
 20
59.633135390498452
 30
0.0
 11
-317.22262107643422
 21
59.590887695289382
 31
0.0
  0
LINE
  5
433
  8
DETAIL
  6
CONTINUOUS
 62
     5
 10
-311.76060709859883
 20
59.785267874223059
 30
0.0
 11
-311.71591313144683
 21
59.842946610148502
 31
0.0
  0
LINE
  5
434
  8
DETAIL
  6
CONTINUOUS
 62
     5
 10
-317.22262107643422
 20
59.590887695289382
 30
0.0
 11
-317.14611026887889
 21
59.553472008247319
 31
0.0
  0
LINE
  5
435
  8
DETAIL
  6
CONTINUOUS
 62
     5
 10
-317.14611026887889
 20
59.553472008247319
 30
0.0
 11
-317.06498371053351
 21
59.521276894003023
 31
0.0
  0
LINE
  5
436
  8
DETAIL
  6
CONTINUOUS
 62
     5
 10
-317.06498371053351
 20
59.521276894003023
 30
0.0
 11
-316.97999883544668
 21
59.494513038891007
 31
0.0
  0
LINE
  5
437
  8
DETAIL
  6
CONTINUOUS
 62
     5
 10
-329.12080919152999
 20
56.626673199736977
 30
0.0
 11
-306.11236356416578
 21
56.626673199736977
 31
0.0
  0
LINE
  5
438
  8
DETAIL
  6
CONTINUOUS
 62
     5
 10
-316.97999883544668
 20
59.494513038891007
 30
0.0
 11
-316.89184805976049
 21
59.4734848841615
 31
0.0
  0
LINE
  5
439
  8
DETAIL
  6
CONTINUOUS
 62
     5
 10
-316.89184805976049
 20
59.4734848841615
 30
0.0
 11
-316.80132320913401
 21
59.458299726200501
 31
0.0
  0
LINE
  5
43A
  8
DETAIL
  6
CONTINUOUS
 62
     5
 10
-329.12080919152999
 20
57.226893520450581
 30
0.0
 11
-306.11236356416578
 21
57.226893520450581
 31
0.0
  0
LINE
  5
43B
  8
DETAIL
  6
CONTINUOUS
 62
     5
 10
-316.80132320913401
 20
59.458299726200501
 30
0.0
 11
-316.70957474335938
 21
59.449192438220138
 31
0.0
  0
LINE
  5
43C
  8
DETAIL
  6
CONTINUOUS
 62
     5
 10
-316.70957474335938
 20
59.449192438220138
 30
0.0
 11
-316.61621917666167
 21
59.446084729485577
 31
0.0
  0
LINE
  5
43D
  8
DETAIL
  6
CONTINUOUS
 62
     5
 10
-316.61621917666167
 20
59.446084729485577
 30
0.0
 11
-312.61475037189348
 21
59.446084729485577
 31
0.0
  0
LINE
  5
43E
  8
DETAIL
  6
CONTINUOUS
 62
     5
 10
-334.52279207796562
 20
60.022032071405242
 30
0.0
 11
-331.2404840924861
 21
60.022032071405242
 31
0.0
  0
LINE
  5
43F
  8
DETAIL
  6
CONTINUOUS
 62
     5
 10
-335.79018499882068
 20
60.028871421900043
 30
0.0
 11
-335.66247348471842
 21
60.046535248697509
 31
0.0
  0
LINE
  5
440
  8
DETAIL
  6
CONTINUOUS
 62
     5
 10
-335.66247348471842
 20
60.046535248697509
 30
0.0
 11
-335.53998795739631
 21
60.07548288140147
 31
0.0
  0
LINE
  5
441
  8
DETAIL
  6
CONTINUOUS
 62
     5
 10
-335.53998795739631
 20
60.07548288140147
 30
0.0
 11
-335.42327939710202
 21
60.114336334698137
 31
0.0
  0
LINE
  5
442
  8
DETAIL
  6
CONTINUOUS
 62
     5
 10
-335.42327939710202
 20
60.114336334698137
 30
0.0
 11
-335.3129460444332
 21
60.16194911825059
 31
0.0
  0
LINE
  5
443
  8
DETAIL
  6
CONTINUOUS
 62
     5
 10
-335.3129460444332
 20
60.16194911825059
 30
0.0
 11
-335.20866245593908
 21
60.2180860792445
 31
0.0
  0
LINE
  5
444
  8
DETAIL
  6
CONTINUOUS
 62
     5
 10
-335.20866245593908
 20
60.2180860792445
 30
0.0
 11
-335.110040386582
 21
60.282378146200877
 31
0.0
  0
LINE
  5
445
  8
DETAIL
  6
CONTINUOUS
 62
     5
 10
-335.110040386582
 20
60.282378146200877
 30
0.0
 11
-335.01786647763549
 21
60.354080582756389
 31
0.0
  0
LINE
  5
446
  8
DETAIL
  6
CONTINUOUS
 62
     5
 10
-335.01786647763549
 20
60.354080582756389
 30
0.0
 11
-334.932925301598
 21
60.432172084523557
 31
0.0
  0
LINE
  5
447
  8
DETAIL
  6
CONTINUOUS
 62
     5
 10
-334.932925301598
 20
60.432172084523557
 30
0.0
 11
-334.85483481469328
 21
60.517113285084712
 31
0.0
  0
LINE
  5
448
  8
DETAIL
  6
CONTINUOUS
 62
     5
 10
-334.85483481469328
 20
60.517113285084712
 30
0.0
 11
-334.78313437086928
 21
60.609285453391607
 31
0.0
  0
LINE
  5
449
  8
DETAIL
  6
CONTINUOUS
 62
     5
 10
-334.78313437086928
 20
60.609285453391607
 30
0.0
 11
-334.71884434816161
 21
60.707905378452807
 31
0.0
  0
LINE
  5
44A
  8
DETAIL
  6
CONTINUOUS
 62
     5
 10
-311.61438317069639
 20
63.023133674973757
 30
0.0
 11
-317.61658637785888
 21
63.023133674973757
 31
0.0
  0
LINE
  5
44B
  8
DETAIL
  6
CONTINUOUS
 62
     5
 10
-334.71884434816161
 20
60.707905378452807
 30
0.0
 11
-334.66270833052971
 21
60.812187772014852
 31
0.0
  0
LINE
  5
44C
  8
DETAIL
  6
CONTINUOUS
 62
     5
 10
-334.66270833052971
 20
60.812187772014852
 30
0.0
 11
-334.6150960571614
 21
60.922520133317477
 31
0.0
  0
LINE
  5
44D
  8
DETAIL
  6
CONTINUOUS
 62
     5
 10
-334.6150960571614
 20
60.922520133317477
 30
0.0
 11
-334.57624299799801
 21
61.039227334109661
 31
0.0
  0
LINE
  5
44E
  8
DETAIL
  6
CONTINUOUS
 62
     5
 10
-334.57624299799801
 20
61.039227334109661
 30
0.0
 11
-334.54729554235962
 21
61.161711964603988
 31
0.0
  0
LINE
  5
44F
  8
DETAIL
  6
CONTINUOUS
 62
     5
 10
-344.02628048926402
 20
60.022032071405242
 30
0.0
 11
-344.02628048926402
 21
60.622252392118853
 31
0.0
  0
LINE
  5
450
  8
DETAIL
  6
CONTINUOUS
 62
     5
 10
-341.82547264665601
 20
61.722656313427969
 30
0.0
 11
-341.82547264665601
 21
61.222472712832463
 31
0.0
  0
LINE
  5
451
  8
DETAIL
  6
CONTINUOUS
 62
     5
 10
-337.42385696141821
 20
61.722656313427969
 30
0.0
 11
-337.42385696141821
 21
61.4642022301163
 31
0.0
  0
ARC
  5
452
  8
DETAIL
  6
CONTINUOUS
 62
     5
 10
-335.92330615963311
 20
61.422546153070478
 30
0.0
 40
1.4005140816656541
 50
270.33146790073408
 51
0.0
  0
ARC
  5
453
  8
DETAIL
  6
CONTINUOUS
 62
     5
 10
-335.92330615963311
 20
61.422546153070478
 30
0.0
 40
0.8002937609524673
 50
270.58007550017749
 51
0.0
  0
LINE
  5
454
  8
DETAIL
  6
CONTINUOUS
 62
     5
 10
-317.61658637785888
 20
60.157516124048023
 30
0.0
 11
-317.61637275192891
 21
60.141101294715753
 31
0.0
  0
ARC
  5
455
  8
DETAIL
  6
CONTINUOUS
 62
     5
 10
-342.42569296736161
 20
61.222472712832463
 30
0.0
 40
0.6002203207141948
 50
270.0
 51
0.0
  0
LINE
  5
456
  8
DETAIL
  6
CONTINUOUS
 62
     5
 10
-317.61637275192891
 20
60.141101294715753
 30
0.0
 11
-317.61572843893862
 21
60.125174770624149
 31
0.0
  0
LINE
  5
457
  8
DETAIL
  6
CONTINUOUS
 62
     5
 10
-317.61572843893862
 20
60.125174770624149
 30
0.0
 11
-317.6146534383422
 21
60.109752841751423
 31
0.0
  0
LINE
  5
458
  8
DETAIL
  6
CONTINUOUS
 62
     5
 10
-317.6146534383422
 20
60.109752841751423
 30
0.0
 11
-317.61314775064182
 21
60.094851006789142
 31
0.0
  0
LINE
  5
459
  8
DETAIL
  6
CONTINUOUS
 62
     5
 10
-317.61658637785888
 20
60.157516124048023
 30
0.0
 11
-317.61658637785888
 21
125.0459001487601
 31
0.0
  0
LINE
  5
45A
  8
DETAIL
  6
CONTINUOUS
 62
     5
 10
-311.61438317069639
 20
60.157516124048023
 30
0.0
 11
-311.61438317069639
 21
125.0459001487601
 31
0.0
  0
LINE
  5
45B
  8
DETAIL
  6
CONTINUOUS
 62
     5
 10
-335.12301239867048
 20
61.422546153070478
 30
0.0
 11
-335.12301239867048
 21
123.84545950733239
 31
0.0
  0
LINE
  5
45C
  8
DETAIL
  6
CONTINUOUS
 62
     5
 10
-333.92257175723819
 20
60.022032071405242
 30
0.0
 11
-333.92257175723819
 21
123.84545950733239
 31
0.0
  0
LINE
  5
45D
  8
DETAIL
  6
CONTINUOUS
 62
     5
 10
-334.52279207796562
 20
61.422546153070478
 30
0.0
 11
-334.52279207796562
 21
123.84545950733239
 31
0.0
  0
LINE
  5
45E
  8
DETAIL
  6
CONTINUOUS
 62
     5
 10
-304.91192292273342
 20
60.022032071405242
 30
0.0
 11
302.91118852036078
 21
60.022032071405242
 31
0.0
  0
LINE
  5
45F
  8
DETAIL
  6
CONTINUOUS
 62
     5
 10
-304.91192292273342
 20
60.622252392118853
 30
0.0
 11
302.91118852036078
 21
60.622252392118853
 31
0.0
  0
LINE
  5
460
  8
DETAIL
  6
CONTINUOUS
 62
     5
 10
304.91192292273342
 20
60.622252392118853
 30
0.0
 11
304.91192292273342
 21
60.022032071405242
 31
0.0
  0
LINE
  5
461
  8
DETAIL
  6
CONTINUOUS
 62
     5
 10
304.91192292273342
 20
60.630317161923877
 30
0.0
 11
304.91192292273342
 21
61.222472712832463
 31
0.0
  0
LINE
  5
462
  8
DETAIL
  6
CONTINUOUS
 62
     5
 10
306.11236356416578
 20
56.626673199736977
 30
0.0
 11
306.11236356416578
 21
61.222472712832463
 31
0.0
  0
LINE
  5
463
  8
DETAIL
  6
CONTINUOUS
 62
     5
 10
304.91192292273342
 20
60.622252392118853
 30
0.0
 11
304.91192292273342
 21
60.630317161923877
 31
0.0
  0
LINE
  5
464
  8
DETAIL
  6
CONTINUOUS
 62
     5
 10
304.91192292273342
 20
60.022032071405242
 30
0.0
 11
302.91118852036078
 21
60.022032071405242
 31
0.0
  0
LINE
  5
465
  8
DETAIL
  6
CONTINUOUS
 62
     5
 10
302.91118852036078
 20
60.622252392118853
 30
0.0
 11
304.91192292273342
 21
60.622252392118853
 31
0.0
  0
ARC
  5
466
  8
DETAIL
  6
CONTINUOUS
 62
     5
 10
305.51214324346068
 20
61.222472712832463
 30
0.0
 40
0.6002203207053116
 50
0.0
 51
180.0
  0
LINE
  5
467
  8
DETAIL
  6
CONTINUOUS
 62
     5
 10
329.12080919153061
 20
56.626673199736977
 30
0.0
 11
306.11236356416578
 21
56.626673199736977
 31
0.0
  0
LINE
  5
468
  8
DETAIL
  6
CONTINUOUS
 62
     5
 10
306.11236356416578
 20
57.226893520450581
 30
0.0
 11
329.12080919153061
 21
57.226893520450581
 31
0.0
  0
LINE
  5
469
  8
DETAIL
  6
CONTINUOUS
 62
     5
 10
311.61438317071878
 20
57.226893520450581
 30
0.0
 11
311.61438317071878
 21
56.626673199736977
 31
0.0
  0
LINE
  5
46A
  8
DETAIL
  6
CONTINUOUS
 62
     5
 10
317.61658637785922
 20
57.226893520450581
 30
0.0
 11
317.61658637785922
 21
56.626673199736977
 31
0.0
  0
LINE
  5
46B
  8
DETAIL
  6
CONTINUOUS
 62
     5
 10
317.6146534383426
 20
60.109752841751423
 30
0.0
 11
317.61314775014029
 21
60.094851006789142
 31
0.0
  0
LINE
  5
46C
  8
DETAIL
  6
CONTINUOUS
 62
     5
 10
311.6298478547883
 20
60.029589743571819
 30
0.0
 11
311.61782179791368
 21
60.094851006789142
 31
0.0
  0
LINE
  5
46D
  8
DETAIL
  6
CONTINUOUS
 62
     5
 10
317.61314775014029
 20
60.094851006789142
 30
0.0
 11
317.60112169378982
 21
60.029589743571819
 31
0.0
  0
LINE
  5
46E
  8
DETAIL
  6
CONTINUOUS
 62
     5
 10
317.60112169378982
 20
60.029589743571819
 30
0.0
 11
317.58076445232132
 21
59.965851923058892
 31
0.0
  0
LINE
  5
46F
  8
DETAIL
  6
CONTINUOUS
 62
     5
 10
317.58076445232132
 20
59.965851923058892
 30
0.0
 11
317.55193184334399
 21
59.903349085367623
 31
0.0
  0
LINE
  5
470
  8
DETAIL
  6
CONTINUOUS
 62
     5
 10
317.55193184334399
 20
59.903349085367623
 30
0.0
 11
317.51505641710912
 21
59.842946610148502
 31
0.0
  0
LINE
  5
471
  8
DETAIL
  6
CONTINUOUS
 62
     5
 10
311.715913131447
 20
59.842946610148502
 30
0.0
 11
311.67903770521212
 21
59.903349085367623
 31
0.0
  0
LINE
  5
472
  8
DETAIL
  6
CONTINUOUS
 62
     5
 10
311.67903770521212
 20
59.903349085367623
 30
0.0
 11
311.65020509623503
 21
59.965851923058892
 31
0.0
  0
LINE
  5
473
  8
DETAIL
  6
CONTINUOUS
 62
     5
 10
311.65020509623503
 20
59.965851923058892
 30
0.0
 11
311.6298478547883
 21
60.029589743571819
 31
0.0
  0
LINE
  5
474
  8
DETAIL
  6
CONTINUOUS
 62
     5
 10
311.61782179791368
 20
60.094851006789142
 30
0.0
 11
311.61631199172501
 21
60.109825790028751
 31
0.0
  0
LINE
  5
475
  8
DETAIL
  6
CONTINUOUS
 62
     5
 10
311.61631199172501
 20
60.109825790028751
 30
0.0
 11
311.61523561861168
 21
60.125275117958168
 31
0.0
  0
LINE
  5
476
  8
DETAIL
  6
CONTINUOUS
 62
     5
 10
311.61523561861168
 20
60.125275117958168
 30
0.0
 11
311.61459267811659
 21
60.141178778157638
 31
0.0
  0
LINE
  5
477
  8
DETAIL
  6
CONTINUOUS
 62
     5
 10
311.61459267811659
 20
60.141178778157638
 30
0.0
 11
311.61438317071878
 21
60.157516124048023
 31
0.0
  0
LINE
  5
478
  8
DETAIL
  6
CONTINUOUS
 62
     5
 10
316.61621917666167
 20
59.446084729485577
 30
0.0
 11
312.61475037189427
 21
59.446084729485577
 31
0.0
  0
LINE
  5
479
  8
DETAIL
  6
CONTINUOUS
 62
     5
 10
311.61438317071878
 20
63.023133674973757
 30
0.0
 11
317.61658637785922
 21
63.023133674973757
 31
0.0
  0
LINE
  5
47A
  8
DETAIL
  6
CONTINUOUS
 62
     5
 10
312.61475037189427
 20
59.446084729485577
 30
0.0
 11
312.52139480521822
 21
59.449192438220138
 31
0.0
  0
LINE
  5
47B
  8
DETAIL
  6
CONTINUOUS
 62
     5
 10
312.52139480521822
 20
59.449192438220138
 30
0.0
 11
312.42964633942171
 21
59.458299726200501
 31
0.0
  0
LINE
  5
47C
  8
DETAIL
  6
CONTINUOUS
 62
     5
 10
312.42964633942171
 20
59.458299726200501
 30
0.0
 11
312.33912148879529
 21
59.4734848841615
 31
0.0
  0
LINE
  5
47D
  8
DETAIL
  6
CONTINUOUS
 62
     5
 10
312.33912148879529
 20
59.4734848841615
 30
0.0
 11
312.25097071310881
 21
59.494513038891007
 31
0.0
  0
LINE
  5
47E
  8
DETAIL
  6
CONTINUOUS
 62
     5
 10
312.25097071310881
 20
59.494513038891007
 30
0.0
 11
312.16598583802238
 21
59.521276894003023
 31
0.0
  0
LINE
  5
47F
  8
DETAIL
  6
CONTINUOUS
 62
     5
 10
312.16598583802238
 20
59.521276894003023
 30
0.0
 11
312.08485927967689
 21
59.553472008247319
 31
0.0
  0
LINE
  5
480
  8
DETAIL
  6
CONTINUOUS
 62
     5
 10
312.08485927967689
 20
59.553472008247319
 30
0.0
 11
312.00834847214321
 21
59.590887695289382
 31
0.0
  0
LINE
  5
481
  8
DETAIL
  6
CONTINUOUS
 62
     5
 10
312.00834847214321
 20
59.590887695289382
 30
0.0
 11
311.93705019094062
 21
59.633135390498452
 31
0.0
  0
LINE
  5
482
  8
DETAIL
  6
CONTINUOUS
 62
     5
 10
311.93705019094062
 20
59.633135390498452
 30
0.0
 11
311.87165187391219
 21
59.679909606742463
 31
0.0
  0
LINE
  5
483
  8
DETAIL
  6
CONTINUOUS
 62
     5
 10
311.87165187391219
 20
59.679909606742463
 30
0.0
 11
311.81263896424917
 21
59.730750423697103
 31
0.0
  0
LINE
  5
484
  8
DETAIL
  6
CONTINUOUS
 62
     5
 10
311.81263896424917
 20
59.730750423697103
 30
0.0
 11
311.76060709809678
 21
59.785267874223059
 31
0.0
  0
LINE
  5
485
  8
DETAIL
  6
CONTINUOUS
 62
     5
 10
311.76060709809678
 20
59.785267874223059
 30
0.0
 11
311.715913131447
 21
59.842946610148502
 31
0.0
  0
LINE
  5
486
  8
DETAIL
  6
CONTINUOUS
 62
     5
 10
317.61658637785922
 20
60.157516124048023
 30
0.0
 11
317.61637275195108
 21
60.141101294715753
 31
0.0
  0
LINE
  5
487
  8
DETAIL
  6
CONTINUOUS
 62
     5
 10
317.51505641710912
 20
59.842946610148502
 30
0.0
 11
317.47036244995701
 21
59.785267874223059
 31
0.0
  0
LINE
  5
488
  8
DETAIL
  6
CONTINUOUS
 62
     5
 10
317.47036244995701
 20
59.785267874223059
 30
0.0
 11
317.41833058430689
 21
59.730750423697103
 31
0.0
  0
LINE
  5
489
  8
DETAIL
  6
CONTINUOUS
 62
     5
 10
317.41833058430689
 20
59.730750423697103
 30
0.0
 11
317.35931767416372
 21
59.679909606742463
 31
0.0
  0
LINE
  5
48A
  8
DETAIL
  6
CONTINUOUS
 62
     5
 10
317.35931767416372
 20
59.679909606742463
 30
0.0
 11
317.29391935763732
 21
59.633135390498452
 31
0.0
  0
LINE
  5
48B
  8
DETAIL
  6
CONTINUOUS
 62
     5
 10
317.29391935763732
 20
59.633135390498452
 30
0.0
 11
317.22262107593252
 21
59.590887695289382
 31
0.0
  0
LINE
  5
48C
  8
DETAIL
  6
CONTINUOUS
 62
     5
 10
317.22262107593252
 20
59.590887695289382
 30
0.0
 11
317.14611026887923
 21
59.553472008247319
 31
0.0
  0
LINE
  5
48D
  8
DETAIL
  6
CONTINUOUS
 62
     5
 10
317.14611026887923
 20
59.553472008247319
 30
0.0
 11
317.06498371055562
 21
59.521276894003023
 31
0.0
  0
LINE
  5
48E
  8
DETAIL
  6
CONTINUOUS
 62
     5
 10
317.06498371055562
 20
59.521276894003023
 30
0.0
 11
316.97999883496681
 21
59.494513038891007
 31
0.0
  0
LINE
  5
48F
  8
DETAIL
  6
CONTINUOUS
 62
     5
 10
316.97999883496681
 20
59.494513038891007
 30
0.0
 11
316.89184805925868
 21
59.4734848841615
 31
0.0
  0
LINE
  5
490
  8
DETAIL
  6
CONTINUOUS
 62
     5
 10
316.89184805925868
 20
59.4734848841615
 30
0.0
 11
316.80132320863248
 21
59.458299726200501
 31
0.0
  0
LINE
  5
491
  8
DETAIL
  6
CONTINUOUS
 62
     5
 10
316.80132320863248
 20
59.458299726200501
 30
0.0
 11
316.70957474335972
 21
59.449192438220138
 31
0.0
  0
LINE
  5
492
  8
DETAIL
  6
CONTINUOUS
 62
     5
 10
316.70957474335972
 20
59.449192438220138
 30
0.0
 11
316.61621917666167
 21
59.446084729485577
 31
0.0
  0
LINE
  5
493
  8
DETAIL
  6
CONTINUOUS
 62
     5
 10
317.61637275195108
 20
60.141101294715753
 30
0.0
 11
317.61572843893907
 21
60.125174770624149
 31
0.0
  0
LINE
  5
494
  8
DETAIL
  6
CONTINUOUS
 62
     5
 10
317.61572843893907
 20
60.125174770624149
 30
0.0
 11
317.6146534383426
 21
60.109752841751423
 31
0.0
  0
LINE
  5
495
  8
DETAIL
  6
CONTINUOUS
 62
     5
 10
311.61438317071878
 20
60.157516124048023
 30
0.0
 11
311.61438317071878
 21
125.0459001487601
 31
0.0
  0
LINE
  5
496
  8
DETAIL
  6
CONTINUOUS
 62
     5
 10
317.61658637785922
 20
60.157516124048023
 30
0.0
 11
317.61658637785922
 21
125.0459001487601
 31
0.0
  0
LINE
  5
497
  8
DETAIL
  6
CONTINUOUS
 62
     5
 10
335.41214194391893
 20
60.806730827954468
 30
0.0
 11
335.3574103813034
 21
60.856655640675683
 31
0.0
  0
LINE
  5
498
  8
DETAIL
  6
CONTINUOUS
 62
     5
 10
335.3574103813034
 20
60.856655640675683
 30
0.0
 11
335.30748697361031
 21
60.911386333474503
 31
0.0
  0
LINE
  5
499
  8
DETAIL
  6
CONTINUOUS
 62
     5
 10
335.30748697361031
 20
60.911386333474503
 30
0.0
 11
335.26268248688422
 21
60.970831124659398
 31
0.0
  0
LINE
  5
49A
  8
DETAIL
  6
CONTINUOUS
 62
     5
 10
335.26268248688422
 20
60.970831124659398
 30
0.0
 11
335.22318939729388
 21
61.034723210297841
 31
0.0
  0
LINE
  5
49B
  8
DETAIL
  6
CONTINUOUS
 62
     5
 10
335.22318939729388
 20
61.034723210297841
 30
0.0
 11
335.18945596437447
 21
61.10327511639948
 31
0.0
  0
LINE
  5
49C
  8
DETAIL
  6
CONTINUOUS
 62
     5
 10
335.18945596437447
 20
61.10327511639948
 30
0.0
 11
335.16166604213288
 21
61.176791330232497
 31
0.0
  0
LINE
  5
49D
  8
DETAIL
  6
CONTINUOUS
 62
     5
 10
335.16166604213288
 20
61.176791330232497
 30
0.0
 11
335.140805320374
 21
61.254729167593347
 31
0.0
  0
LINE
  5
49E
  8
DETAIL
  6
CONTINUOUS
 62
     5
 10
335.140805320374
 20
61.254729167593347
 30
0.0
 11
335.12805164441301
 21
61.336592293795881
 31
0.0
  0
LINE
  5
49F
  8
DETAIL
  6
CONTINUOUS
 62
     5
 10
335.12805164441301
 20
61.336592293795881
 30
0.0
 11
335.12301239867111
 21
61.422546153070478
 31
0.0
  0
LINE
  5
4A0
  8
DETAIL
  6
CONTINUOUS
 62
     5
 10
335.42327939660009
 20
60.114336334698137
 30
0.0
 11
335.3129460444336
 21
60.16194911825059
 31
0.0
  0
LINE
  5
4A1
  8
DETAIL
  6
CONTINUOUS
 62
     5
 10
335.3129460444336
 20
60.16194911825059
 30
0.0
 11
335.20866245593947
 21
60.2180860792445
 31
0.0
  0
LINE
  5
4A2
  8
DETAIL
  6
CONTINUOUS
 62
     5
 10
335.20866245593947
 20
60.2180860792445
 30
0.0
 11
335.11004038658228
 21
60.282378146200877
 31
0.0
  0
LINE
  5
4A3
  8
DETAIL
  6
CONTINUOUS
 62
     5
 10
335.11004038658228
 20
60.282378146200877
 30
0.0
 11
335.01786647715562
 21
60.354080582756389
 31
0.0
  0
LINE
  5
4A4
  8
DETAIL
  6
CONTINUOUS
 62
     5
 10
335.01786647715562
 20
60.354080582756389
 30
0.0
 11
334.93292530159817
 21
60.432172084523557
 31
0.0
  0
LINE
  5
4A5
  8
DETAIL
  6
CONTINUOUS
 62
     5
 10
334.93292530159817
 20
60.432172084523557
 30
0.0
 11
334.85483481469362
 21
60.517113285084712
 31
0.0
  0
LINE
  5
4A6
  8
DETAIL
  6
CONTINUOUS
 62
     5
 10
331.24048409248638
 20
60.022032071405242
 30
0.0
 11
334.5227920779659
 21
60.022032071405242
 31
0.0
  0
LINE
  5
4A7
  8
DETAIL
  6
CONTINUOUS
 62
     5
 10
334.85483481469362
 20
60.517113285084712
 30
0.0
 11
334.78313437036718
 21
60.609285453391607
 31
0.0
  0
LINE
  5
4A8
  8
DETAIL
  6
CONTINUOUS
 62
     5
 10
334.78313437036718
 20
60.609285453391607
 30
0.0
 11
334.71884434765963
 21
60.707905378452807
 31
0.0
  0
LINE
  5
4A9
  8
DETAIL
  6
CONTINUOUS
 62
     5
 10
334.71884434765963
 20
60.707905378452807
 30
0.0
 11
334.66270833052999
 21
60.812187772014852
 31
0.0
  0
LINE
  5
4AA
  8
DETAIL
  6
CONTINUOUS
 62
     5
 10
334.66270833052999
 20
60.812187772014852
 30
0.0
 11
334.61509605716162
 21
60.922520133317477
 31
0.0
  0
LINE
  5
4AB
  8
DETAIL
  6
CONTINUOUS
 62
     5
 10
334.61509605716162
 20
60.922520133317477
 30
0.0
 11
334.57624299799818
 21
61.039227334109661
 31
0.0
  0
LINE
  5
4AC
  8
DETAIL
  6
CONTINUOUS
 62
     5
 10
334.57624299799818
 20
61.039227334109661
 30
0.0
 11
334.54729554235968
 21
61.161711964603988
 31
0.0
  0
LINE
  5
4AD
  8
DETAIL
  6
CONTINUOUS
 62
     5
 10
334.54729554235968
 20
61.161711964603988
 30
0.0
 11
334.52963167855052
 21
61.289423764313852
 31
0.0
  0
LINE
  5
4AE
  8
DETAIL
  6
CONTINUOUS
 62
     5
 10
334.52963167855052
 20
61.289423764313852
 30
0.0
 11
334.5227920779659
 21
61.422546153070478
 31
0.0
  0
ARC
  5
4AF
  8
DETAIL
  6
CONTINUOUS
 62
     5
 10
331.24048409248638
 20
61.022399272594427
 30
0.0
 40
1.0003672011889391
 50
198.3209644349925
 51
270.0
  0
ARC
  5
4B0
  8
DETAIL
  6
CONTINUOUS
 62
     5
 10
329.72102951225781
 20
60.51927086606004
 30
0.0
 40
0.600220320709441
 50
18.320964435185239
 51
180.0
  0
LINE
  5
4B1
  8
DETAIL
  6
CONTINUOUS
 62
     5
 10
334.5227920779659
 20
61.422546153070478
 30
0.0
 11
334.5227920779659
 21
63.023133674973757
 31
0.0
  0
LINE
  5
4B2
  8
DETAIL
  6
CONTINUOUS
 62
     5
 10
329.12080919153061
 20
56.626673199736977
 30
0.0
 11
329.12080919153061
 21
60.51927086606004
 31
0.0
  0
LINE
  5
4B3
  8
DETAIL
  6
CONTINUOUS
 62
     5
 10
335.12301239867111
 20
61.422546153070478
 30
0.0
 11
335.12301239867111
 21
63.765046792854022
 31
0.0
  0
LINE
  5
4B4
  8
DETAIL
  6
CONTINUOUS
 62
     5
 10
334.5227920779659
 20
61.338475006876898
 30
0.0
 11
334.5227920779659
 21
60.022032071405242
 31
0.0
  0
LINE
  5
4B5
  8
DETAIL
  6
CONTINUOUS
 62
     5
 10
334.5227920779659
 20
61.338475006876898
 30
0.0
 11
334.5227920779659
 21
61.422546153070478
 31
0.0
  0
LINE
  5
4B6
  8
DETAIL
  6
CONTINUOUS
 62
     5
 10
333.92257175726053
 20
60.022032071405242
 30
0.0
 11
333.92257175726053
 21
123.84545950733239
 31
0.0
  0
LINE
  5
4B7
  8
DETAIL
  6
CONTINUOUS
 62
     5
 10
334.5227920779659
 20
61.422546153070478
 30
0.0
 11
334.5227920779659
 21
123.84545950733239
 31
0.0
  0
LINE
  5
4B8
  8
DETAIL
  6
CONTINUOUS
 62
     5
 10
335.12301239867111
 20
61.422546153070478
 30
0.0
 11
335.12301239867111
 21
123.84545950733239
 31
0.0
  0
LINE
  5
4B9
  8
DETAIL
  6
CONTINUOUS
 62
     5
 10
335.92330615963351
 20
60.022032071405242
 30
0.0
 11
335.79018499882108
 21
60.028871421900043
 31
0.0
  0
LINE
  5
4BA
  8
DETAIL
  6
CONTINUOUS
 62
     5
 10
335.92330615963351
 20
60.622252392118853
 30
0.0
 11
335.837353270216
 21
60.627291406270942
 31
0.0
  0
LINE
  5
4BB
  8
DETAIL
  6
CONTINUOUS
 62
     5
 10
335.837353270216
 20
60.627291406270942
 30
0.0
 11
335.75549032657011
 21
60.640045066711657
 31
0.0
  0
LINE
  5
4BC
  8
DETAIL
  6
CONTINUOUS
 62
     5
 10
335.75549032657011
 20
60.640045066711657
 30
0.0
 11
335.67755168741343
 21
60.660905982052597
 31
0.0
  0
LINE
  5
4BD
  8
DETAIL
  6
CONTINUOUS
 62
     5
 10
335.67755168741343
 20
60.660905982052597
 30
0.0
 11
335.6040342761558
 21
60.688696326453993
 31
0.0
  0
LINE
  5
4BE
  8
DETAIL
  6
CONTINUOUS
 62
     5
 10
335.6040342761558
 20
60.688696326453993
 30
0.0
 11
335.53548138818718
 21
60.722430385093993
 31
0.0
  0
LINE
  5
4BF
  8
DETAIL
  6
CONTINUOUS
 62
     5
 10
335.53548138818718
 20
60.722430385093993
 30
0.0
 11
335.47158827067392
 21
60.76192443653342
 31
0.0
  0
LINE
  5
4C0
  8
DETAIL
  6
CONTINUOUS
 62
     5
 10
335.47158827067392
 20
60.76192443653342
 30
0.0
 11
335.41214194391893
 21
60.806730827954468
 31
0.0
  0
LINE
  5
4C1
  8
DETAIL
  6
CONTINUOUS
 62
     5
 10
335.79018499882108
 20
60.028871421900043
 30
0.0
 11
335.66247348471848
 21
60.046535248697509
 31
0.0
  0
LINE
  5
4C2
  8
DETAIL
  6
CONTINUOUS
 62
     5
 10
335.66247348471848
 20
60.046535248697509
 30
0.0
 11
335.53998795739648
 21
60.07548288140147
 31
0.0
  0
LINE
  5
4C3
  8
DETAIL
  6
CONTINUOUS
 62
     5
 10
335.53998795739648
 20
60.07548288140147
 30
0.0
 11
335.42327939660009
 21
60.114336334698137
 31
0.0
  0
ARC
  5
4C4
  8
DETAIL
  6
CONTINUOUS
 62
     5
 10
335.92330615963351
 20
61.422546153070478
 30
0.0
 40
1.400514081667575
 50
180.0
 51
269.66853209926592
  0
ARC
  5
4C5
  8
DETAIL
  6
CONTINUOUS
 62
     5
 10
335.92330615963351
 20
61.422546153070478
 30
0.0
 40
0.8002937609622634
 50
180.0
 51
269.41992449982251
  0
LINE
  5
4C6
  8
DETAIL
  6
CONTINUOUS
 62
     5
 10
335.92330615963351
 20
60.022032071405242
 30
0.0
 11
342.62576640759681
 21
60.022032071405242
 31
0.0
  0
LINE
  5
4C7
  8
DETAIL
  6
CONTINUOUS
 62
     5
 10
335.92330615963351
 20
60.622252392118853
 30
0.0
 11
342.62576640759681
 21
60.622252392118853
 31
0.0
  0
LINE
  5
4C8
  8
DETAIL
  6
CONTINUOUS
 62
     5
 10
335.92330615963351
 20
60.622252392118853
 30
0.0
 11
344.02628048926459
 21
60.622252392118853
 31
0.0
  0
LINE
  5
4C9
  8
DETAIL
  6
CONTINUOUS
 62
     5
 10
341.82547264665641
 20
61.722656313427969
 30
0.0
 11
337.42385696141861
 21
61.722656313427969
 31
0.0
  0
LINE
  5
4CA
  8
DETAIL
  6
CONTINUOUS
 62
     5
 10
335.12301239867111
 20
63.765046792854022
 30
0.0
 11
338.26580679942481
 21
60.622252392118853
 31
0.0
  0
LINE
  5
4CB
  8
DETAIL
  6
CONTINUOUS
 62
     5
 10
344.02628048926459
 20
60.022032071405242
 30
0.0
 11
335.91520394207822
 21
60.022055508006851
 31
0.0
  0
LINE
  5
4CC
  8
DETAIL
  6
CONTINUOUS
 62
     5
 10
335.91520394207822
 20
60.62229340667303
 30
0.0
 11
335.92330615963351
 21
60.622252392118853
 31
0.0
  0
ARC
  5
4CD
  8
DETAIL
  6
CONTINUOUS
 62
     5
 10
342.42569296736178
 20
61.222472712832463
 30
0.0
 40
0.6002203207053116
 50
180.0
 51
270.0
  0
LINE
  5
4CE
  8
DETAIL
  6
CONTINUOUS
 62
     5
 10
337.42385696141861
 20
61.4642022301163
 30
0.0
 11
337.42385696141861
 21
61.722656313427969
 31
0.0
  0
LINE
  5
4CF
  8
DETAIL
  6
CONTINUOUS
 62
     5
 10
341.82547264665641
 20
61.222472712832463
 30
0.0
 11
341.82547264665641
 21
61.722656313427969
 31
0.0
  0
LINE
  5
4D0
  8
DETAIL
  6
CONTINUOUS
 62
     5
 10
344.02628048926459
 20
60.022032071405242
 30
0.0
 11
344.02628048926459
 21
60.622252392118853
 31
0.0
  0
LINE
  5
4D1
  8
DETAIL
  6
CONTINUOUS
 62
     5
 10
329.52095607202273
 20
125.0459001487601
 30
0.0
 11
329.52095607202273
 21
123.84545950733239
 31
0.0
  0
LINE
  5
4D2
  8
DETAIL
  6
CONTINUOUS
 62
     5
 10
330.12117639272788
 20
124.4456798280456
 30
0.0
 11
330.12117639272788
 21
125.0459001487601
 31
0.0
  0
LINE
  5
4D3
  8
DETAIL
  6
CONTINUOUS
 62
     5
 10
327.52022166962809
 20
125.6461204694737
 30
0.0
 11
327.52022166962809
 21
125.7461571895923
 31
0.0
  0
ARC
  5
4D4
  8
DETAIL
  6
CONTINUOUS
 62
     5
 10
328.12044199035512
 20
125.6461204694737
 30
0.0
 40
0.6002203207271596
 50
180.0
 51
270.0
  0
LINE
  5
4D5
  8
DETAIL
  6
CONTINUOUS
 62
     5
 10
326.92000134892282
 20
125.6461204694737
 30
0.0
 11
326.92000134892282
 21
125.7461571895923
 31
0.0
  0
ARC
  5
4D6
  8
DETAIL
  6
CONTINUOUS
 62
     5
 10
328.12044199035512
 20
125.6461204694737
 30
0.0
 40
1.2004406414324711
 50
180.0
 51
209.99999999975981
  0
LINE
  5
4D7
  8
DETAIL
  6
CONTINUOUS
 62
     5
 10
334.35116612533773
 20
124.9667822092229
 30
0.0
 11
334.44573757033561
 21
124.9259712513913
 31
0.0
  0
LINE
  5
4D8
  8
DETAIL
  6
CONTINUOUS
 62
     5
 10
334.44573757033561
 20
124.9259712513913
 30
0.0
 11
334.5351235034243
 21
124.87785385661179
 31
0.0
  0
LINE
  5
4D9
  8
DETAIL
  6
CONTINUOUS
 62
     5
 10
334.5351235034243
 20
124.87785385661179
 30
0.0
 11
334.61965670521869
 21
124.8227463705044
 31
0.0
  0
LINE
  5
4DA
  8
DETAIL
  6
CONTINUOUS
 62
     5
 10
334.61965670521869
 20
124.8227463705044
 30
0.0
 11
334.69866291323649
 21
124.761287138886
 31
0.0
  0
LINE
  5
4DB
  8
DETAIL
  6
CONTINUOUS
 62
     5
 10
331.98021799793918
 20
123.84545950733239
 30
0.0
 11
331.37999767723392
 21
124.4456798280456
 31
0.0
  0
LINE
  5
4DC
  8
DETAIL
  6
CONTINUOUS
 62
     5
 10
334.5227920779659
 20
123.84545950733239
 30
0.0
 11
334.5227920779659
 21
121.30288542731
 31
0.0
  0
LINE
  5
4DD
  8
DETAIL
  6
CONTINUOUS
 62
     5
 10
335.12301239867111
 20
123.84545950733239
 30
0.0
 11
335.12301239867111
 21
122.0447985451902
 31
0.0
  0
ARC
  5
4DE
  8
DETAIL
  6
CONTINUOUS
 62
     5
 10
333.92257175726053
 20
123.84545950733239
 30
0.0
 40
1.200440641410623
 50
0.0
 51
90.0
  0
ARC
  5
4DF
  8
DETAIL
  6
CONTINUOUS
 62
     5
 10
333.92257175726053
 20
123.84545950733239
 30
0.0
 40
0.6002203207053116
 50
0.0
 51
90.0
  0
LINE
  5
4E0
  8
DETAIL
  6
CONTINUOUS
 62
     5
 10
329.52095607202273
 20
123.84545950733239
 30
0.0
 11
335.12301239867111
 21
123.84545950733239
 31
0.0
  0
LINE
  5
4E1
  8
DETAIL
  6
CONTINUOUS
 62
     5
 10
333.92257175726053
 20
124.4456798280456
 30
0.0
 11
329.52095607202273
 21
124.4456798280456
 31
0.0
  0
LINE
  5
4E2
  8
DETAIL
  6
CONTINUOUS
 62
     5
 10
329.52095607202273
 20
125.0459001487601
 30
0.0
 11
333.92257175726053
 21
125.0459001487601
 31
0.0
  0
LINE
  5
4E3
  8
DETAIL
  6
CONTINUOUS
 62
     5
 10
317.61658637785922
 20
124.4456798280456
 30
0.0
 11
311.61438317071878
 21
124.4456798280456
 31
0.0
  0
LINE
  5
4E4
  8
DETAIL
  6
CONTINUOUS
 62
     5
 10
311.61438317071878
 20
125.0459001487601
 30
0.0
 11
329.52095607202273
 21
125.0459001487601
 31
0.0
  0
LINE
  5
4E5
  8
DETAIL
  6
CONTINUOUS
 62
     5
 10
-317.61658637785888
 20
124.4456798280456
 30
0.0
 11
-311.61438317069639
 21
124.4456798280456
 31
0.0
  0
LINE
  5
4E6
  8
DETAIL
  6
CONTINUOUS
 62
     5
 10
-328.72063534166392
 20
125.0459001487601
 30
0.0
 11
-320.11750438081918
 21
125.0459001487601
 31
0.0
  0
ARC
  5
4E7
  8
DETAIL
  6
CONTINUOUS
 62
     5
 10
-328.12044199035478
 20
125.6461204694737
 30
0.0
 40
1.200440641437249
 50
330.00000000024028
 51
0.0
  0
ARC
  5
4E8
  8
DETAIL
  6
CONTINUOUS
 62
     5
 10
-328.12044199035478
 20
125.6461204694737
 30
0.0
 40
0.6002203207141948
 50
270.0
 51
0.0
  0
LINE
  5
4E9
  8
DETAIL
  6
CONTINUOUS
 62
     5
 10
-329.52095607202227
 20
125.0459001487601
 30
0.0
 11
311.61438317071878
 21
125.0459001487601
 31
0.0
  0
LINE
  5
4EA
  8
DETAIL
  6
CONTINUOUS
 62
     5
 10
-329.5351441639786
 20
125.0459001487601
 30
0.0
 11
-320.11750438081918
 21
125.0459001487601
 31
0.0
  0
LINE
  5
4EB
  8
DETAIL
  6
CONTINUOUS
 62
     5
 10
-329.52095607202227
 20
125.0459001487601
 30
0.0
 11
-329.52095607202227
 21
123.84545950733239
 31
0.0
  0
LINE
  5
4EC
  8
DETAIL
  6
CONTINUOUS
 62
     5
 10
-331.98021799793878
 20
123.84545950733239
 30
0.0
 11
-331.37999767723358
 21
124.4456798280456
 31
0.0
  0
LINE
  5
4ED
  8
DETAIL
  6
CONTINUOUS
 62
     5
 10
-334.03667560943188
 20
125.04003784890639
 30
0.0
 11
-334.14614262160387
 21
125.02489742536549
 31
0.0
  0
LINE
  5
4EE
  8
DETAIL
  6
CONTINUOUS
 62
     5
 10
-334.14614262160387
 20
125.02489742536549
 30
0.0
 11
-334.25113021651072
 21
125.0000851691202
 31
0.0
  0
LINE
  5
4EF
  8
DETAIL
  6
CONTINUOUS
 62
     5
 10
-334.25113021651072
 20
125.0000851691202
 30
0.0
 11
-334.35116612533773
 21
124.9667822092229
 31
0.0
  0
LINE
  5
4F0
  8
DETAIL
  6
CONTINUOUS
 62
     5
 10
-334.35116612533773
 20
124.9667822092229
 30
0.0
 11
-334.44573757033538
 21
124.9259712513913
 31
0.0
  0
LINE
  5
4F1
  8
DETAIL
  6
CONTINUOUS
 62
     5
 10
-334.44573757033538
 20
124.9259712513913
 30
0.0
 11
-334.53512350340208
 21
124.87785385661179
 31
0.0
  0
LINE
  5
4F2
  8
DETAIL
  6
CONTINUOUS
 62
     5
 10
-334.53512350340208
 20
124.87785385661179
 30
0.0
 11
-334.61965670572062
 21
124.8227463705044
 31
0.0
  0
LINE
  5
4F3
  8
DETAIL
  6
CONTINUOUS
 62
     5
 10
-334.61965670572062
 20
124.8227463705044
 30
0.0
 11
-334.69866291373847
 21
124.761287138886
 31
0.0
  0
LINE
  5
4F4
  8
DETAIL
  6
CONTINUOUS
 62
     5
 10
-334.69866291373847
 20
124.761287138886
 30
0.0
 11
-334.77146963564462
 21
124.6943515660859
 31
0.0
  0
LINE
  5
4F5
  8
DETAIL
  6
CONTINUOUS
 62
     5
 10
-334.77146963564462
 20
124.6943515660859
 30
0.0
 11
-334.83840433861849
 21
124.621544822677
 31
0.0
  0
LINE
  5
4F6
  8
DETAIL
  6
CONTINUOUS
 62
     5
 10
-334.83840433861849
 20
124.621544822677
 30
0.0
 11
-334.89986186211479
 21
124.54254010720049
 31
0.0
  0
LINE
  5
4F7
  8
DETAIL
  6
CONTINUOUS
 62
     5
 10
-334.89986186211479
 20
124.54254010720049
 30
0.0
 11
-334.95496759607948
 21
124.45800874307599
 31
0.0
  0
LINE
  5
4F8
  8
DETAIL
  6
CONTINUOUS
 62
     5
 10
-334.95496759607948
 20
124.45800874307599
 30
0.0
 11
-335.00308418205611
 21
124.3686238338796
 31
0.0
  0
LINE
  5
4F9
  8
DETAIL
  6
CONTINUOUS
 62
     5
 10
-335.00308418205611
 20
124.3686238338796
 30
0.0
 11
-335.04389470222048
 21
124.27405323869171
 31
0.0
  0
LINE
  5
4FA
  8
DETAIL
  6
CONTINUOUS
 62
     5
 10
-335.04389470222048
 20
124.27405323869171
 30
0.0
 11
-335.07719732451022
 21
124.1740184952978
 31
0.0
  0
LINE
  5
4FB
  8
DETAIL
  6
CONTINUOUS
 62
     5
 10
-335.07719732451022
 20
124.1740184952978
 30
0.0
 11
-335.1020094291809
 21
124.06903166916101
 31
0.0
  0
LINE
  5
4FC
  8
DETAIL
  6
CONTINUOUS
 62
     5
 10
-333.92257175723819
 20
124.4456798280456
 30
0.0
 11
-333.99627911325268
 21
124.44067362593719
 31
0.0
  0
LINE
  5
4FD
  8
DETAIL
  6
CONTINUOUS
 62
     5
 10
-333.99627911325268
 20
124.44067362593719
 30
0.0
 11
-334.06578463037818
 21
124.42834414970019
 31
0.0
  0
LINE
  5
4FE
  8
DETAIL
  6
CONTINUOUS
 62
     5
 10
-334.06578463037818
 20
124.42834414970019
 30
0.0
 11
-334.13120019122948
 21
124.4082932016716
 31
0.0
  0
LINE
  5
4FF
  8
DETAIL
  6
CONTINUOUS
 62
     5
 10
-334.13120019122948
 20
124.4082932016716
 30
0.0
 11
-334.19219014909947
 21
124.38171537584429
 31
0.0
  0
LINE
  5
500
  8
DETAIL
  6
CONTINUOUS
 62
     5
 10
-334.19219014909947
 20
124.38171537584429
 30
0.0
 11
-334.24841444464118
 21
124.3496058390121
 31
0.0
  0
LINE
  5
501
  8
DETAIL
  6
CONTINUOUS
 62
     5
 10
-334.24841444464118
 20
124.3496058390121
 30
0.0
 11
-334.29999820081281
 21
124.3121646746186
 31
0.0
  0
LINE
  5
502
  8
DETAIL
  6
CONTINUOUS
 62
     5
 10
-334.52279207796562
 20
123.84545950733239
 30
0.0
 11
-329.52095607202227
 21
123.84545950733239
 31
0.0
  0
LINE
  5
503
  8
DETAIL
  6
CONTINUOUS
 62
     5
 10
-334.29999820081281
 20
124.3121646746186
 30
0.0
 11
-334.34703000461087
 21
124.26991474758979
 31
0.0
  0
LINE
  5
504
  8
DETAIL
  6
CONTINUOUS
 62
     5
 10
-334.34703000461087
 20
124.26991474758979
 30
0.0
 11
-334.3892794069514
 21
124.2228828812723
 31
0.0
  0
LINE
  5
505
  8
DETAIL
  6
CONTINUOUS
 62
     5
 10
-334.3892794069514
 20
124.2228828812723
 30
0.0
 11
-334.42671965450421
 21
124.1712998783849
 31
0.0
  0
LINE
  5
506
  8
DETAIL
  6
CONTINUOUS
 62
     5
 10
-334.42671965450421
 20
124.1712998783849
 30
0.0
 11
-334.45882824499409
 21
124.11507666773279
 31
0.0
  0
LINE
  5
507
  8
DETAIL
  6
CONTINUOUS
 62
     5
 10
-334.45882824499409
 20
124.11507666773279
 30
0.0
 11
-334.48540552962191
 21
124.0540879098083
 31
0.0
  0
LINE
  5
508
  8
DETAIL
  6
CONTINUOUS
 62
     5
 10
-334.48540552962191
 20
124.0540879098083
 30
0.0
 11
-334.50545619454488
 21
123.9886732152718
 31
0.0
  0
LINE
  5
509
  8
DETAIL
  6
CONTINUOUS
 62
     5
 10
-334.50545619454488
 20
123.9886732152718
 30
0.0
 11
-334.51778564477257
 21
123.91916764311151
 31
0.0
  0
LINE
  5
50A
  8
DETAIL
  6
CONTINUOUS
 62
     5
 10
-334.51778564477257
 20
123.91916764311151
 30
0.0
 11
-334.52279207796562
 21
123.84545950733239
 31
0.0
  0
LINE
  5
50B
  8
DETAIL
  6
CONTINUOUS
 62
     5
 10
-333.92257175723819
 20
125.0459001487601
 30
0.0
 11
-334.03667560943188
 21
125.04003784890639
 31
0.0
  0
LINE
  5
50C
  8
DETAIL
  6
CONTINUOUS
 62
     5
 10
-334.52279207796562
 20
123.84545950733239
 30
0.0
 11
-335.12301239867048
 21
123.84545950733239
 31
0.0
  0
LINE
  5
50D
  8
DETAIL
  6
CONTINUOUS
 62
     5
 10
-333.92257175723819
 20
124.4456798280456
 30
0.0
 11
-329.52095607202227
 21
124.4456798280456
 31
0.0
  0
LINE
  5
50E
  8
DETAIL
  6
CONTINUOUS
 62
     5
 10
-333.92257175723819
 20
125.0459001487601
 30
0.0
 11
-329.5351441639786
 21
125.0459001487601
 31
0.0
  0
LINE
  5
50F
  8
DETAIL
  6
CONTINUOUS
 62
     5
 10
-330.12117639272782
 20
125.0459001487601
 30
0.0
 11
-330.12117639272782
 21
124.4456798280456
 31
0.0
  0
ARC
  5
510
  8
DETAIL
  6
CONTINUOUS
 62
     5
 10
-333.92257175723819
 20
123.84545950733239
 30
0.0
 40
1.200440641427021
 50
90.0
 51
180.0
  0
ARC
  5
511
  8
DETAIL
  6
CONTINUOUS
 62
     5
 10
-333.92257175723819
 20
123.84545950733239
 30
0.0
 40
0.6002203207134986
 50
90.0
 51
180.0
  0
LINE
  5
512
  8
DETAIL
  6
CONTINUOUS
 62
     5
 10
-334.52279207796562
 20
92.083800869547105
 30
0.0
 11
-334.52279207796562
 21
123.84545950733239
 31
0.0
  0
LINE
  5
513
  8
SIZE
  6
CONTINUOUS
 62
    30
 10
-600.22032071405079
 20
474.6668929408923
 30
0.0
 11
-600.22032071405079
 21
820.20928272536105
 31
0.0
  0
LINE
  5
514
  8
SIZE
  6
CONTINUOUS
 62
    30
 10
600.22032071405101
 20
474.6668929408923
 30
0.0
 11
600.22032071405101
 21
820.20928272536105
 31
0.0
  0
LINE
  5
515
  8
SIZE
  6
CONTINUOUS
 62
    30
 10
-588.22032071405067
 20
800.20928272536116
 30
0.0
 11
588.22032071405101
 21
800.20928272536116
 31
0.0
  0
CIRCLE
  5
516
  8
SIZE
  6
CONTINUOUS
 62
    30
 10
-600.22032071405079
 20
800.20928272536116
 30
0.0
 40
6.0
  0
LINE
  5
517
  8
SIZE
  6
CONTINUOUS
 62
    30
 10
-600.22032071405079
 20
800.20928272536116
 30
0.0
 11
-588.22032071405067
 21
800.20928272536116
 31
0.0
  0
CIRCLE
  5
518
  8
SIZE
  6
CONTINUOUS
 62
    30
 10
600.22032071405101
 20
800.20928272536116
 30
0.0
 40
6.0
  0
LINE
  5
519
  8
SIZE
  6
CONTINUOUS
 62
    30
 10
600.22032071405101
 20
800.20928272536116
 30
0.0
 11
588.22032071405101
 21
800.20928272536116
 31
0.0
  0
TEXT
  5
51A
  8
SIZE
  6
CONTINUOUS
 62
    30
 10
-95.999999999999872
 20
825.20928272536116
 30
0.0
 40
64.0
  1
1202
 41
0.9
 72
     1
 11
0.0000000000001137
 21
825.20928272536116
 31
0.0
  0
POINT
  5
51B
  8
DEFPOINTS
  6
CONTINUOUS
 62
    30
 10
-600.22032071405079
 20
454.6668929408923
 30
0.0
  0
POINT
  5
51C
  8
DEFPOINTS
  6
CONTINUOUS
 62
    30
 10
600.22032071405101
 20
454.6668929408923
 30
0.0
  0
POINT
  5
51D
  8
DEFPOINTS
  6
CONTINUOUS
 62
    30
 10
600.22032071405101
 20
800.20928272536116
 30
0.0
  0
LINE
  5
51E
  8
SIZE
  6
CONTINUOUS
 62
    30
 10
-647.13754244985944
 20
333.7110454551871
 30
0.0
 11
-647.13754244985944
 21
929.99447648186219
 31
0.0
  0
LINE
  5
51F
  8
SIZE
  6
CONTINUOUS
 62
    30
 10
647.13754244985978
 20
336.71168181292342
 30
0.0
 11
647.13754244985978
 21
929.99447648186219
 31
0.0
  0
LINE
  5
520
  8
SIZE
  6
CONTINUOUS
 62
    30
 10
-635.13754244985944
 20
909.99447648186208
 30
0.0
 11
635.13754244985978
 21
909.99447648186208
 31
0.0
  0
CIRCLE
  5
521
  8
SIZE
  6
CONTINUOUS
 62
    30
 10
-647.13754244985944
 20
909.99447648186208
 30
0.0
 40
6.0
  0
LINE
  5
522
  8
SIZE
  6
CONTINUOUS
 62
    30
 10
-647.13754244985944
 20
909.99447648186208
 30
0.0
 11
-635.13754244985944
 21
909.99447648186208
 31
0.0
  0
CIRCLE
  5
523
  8
SIZE
  6
CONTINUOUS
 62
    30
 10
647.13754244985978
 20
909.99447648186208
 30
0.0
 40
6.0
  0
LINE
  5
524
  8
SIZE
  6
CONTINUOUS
 62
    30
 10
647.13754244985978
 20
909.99447648186208
 30
0.0
 11
635.13754244985978
 21
909.99447648186208
 31
0.0
  0
TEXT
  5
525
  8
SIZE
  6
CONTINUOUS
 62
    30
 10
-97.371428571428396
 20
934.99447648186208
 30
0.0
 40
64.0
  1
1294
 41
0.9
 72
     1
 11
0.0000000000001705
 21
934.99447648186208
 31
0.0
  0
POINT
  5
526
  8
DEFPOINTS
  6
CONTINUOUS
 62
    30
 10
-647.13754244985944
 20
313.7110454551871
 30
0.0
  0
POINT
  5
527
  8
DEFPOINTS
  6
CONTINUOUS
 62
    30
 10
647.13754244985978
 20
316.71168181292342
 30
0.0
  0
POINT
  5
528
  8
DEFPOINTS
  6
CONTINUOUS
 62
    30
 10
647.13754244985978
 20
909.99447648186208
 30
0.0
  0
LINE
  5
529
  8
SIZE
  6
CONTINUOUS
 62
    30
 10
-667.14488647365386
 20
307.2054234616723
 30
0.0
 11
-667.14488647365386
 21
929.99447648186219
 31
0.0
  0
LINE
  5
52A
  8
SIZE
  6
CONTINUOUS
 62
    30
 10
-647.13754244985944
 20
333.7110454551871
 30
0.0
 11
-647.13754244985944
 21
929.99447648186219
 31
0.0
  0
LINE
  5
52B
  8
SIZE
  6
CONTINUOUS
 62
    30
 10
-679.14488647365397
 20
909.99447648186208
 30
0.0
 11
-691.14488647365397
 21
909.99447648186208
 31
0.0
  0
LINE
  5
52C
  8
SIZE
  6
CONTINUOUS
 62
    30
 10
-635.13754244985944
 20
909.99447648186208
 30
0.0
 11
-623.13754244985944
 21
909.99447648186208
 31
0.0
  0
LINE
  5
52D
  8
SIZE
  6
CONTINUOUS
 62
    30
 10
-667.14488647365386
 20
909.99447648186208
 30
0.0
 11
-647.13754244985944
 21
909.99447648186208
 31
0.0
  0
CIRCLE
  5
52E
  8
SIZE
  6
CONTINUOUS
 62
    30
 10
-667.14488647365386
 20
909.99447648186208
 30
0.0
 40
6.0
  0
LINE
  5
52F
  8
SIZE
  6
CONTINUOUS
 62
    30
 10
-667.14488647365386
 20
909.99447648186208
 30
0.0
 11
-679.14488647365397
 21
909.99447648186208
 31
0.0
  0
CIRCLE
  5
530
  8
SIZE
  6
CONTINUOUS
 62
    30
 10
-647.13754244985944
 20
909.99447648186208
 30
0.0
 40
6.0
  0
LINE
  5
531
  8
SIZE
  6
CONTINUOUS
 62
    30
 10
-647.13754244985944
 20
909.99447648186208
 30
0.0
 11
-635.13754244985944
 21
909.99447648186208
 31
0.0
  0
TEXT
  5
532
  8
SIZE
  6
CONTINUOUS
 62
    30
 10
-703.76978589032797
 20
934.99447648186208
 30
0.0
 40
64.0
  1
20
 41
0.9
 72
     1
 11
-657.1412144617567
 21
934.99447648186208
 31
0.0
  0
POINT
  5
533
  8
DEFPOINTS
  6
CONTINUOUS
 62
    30
 10
-667.14488647365386
 20
287.20542346167241
 30
0.0
  0
POINT
  5
534
  8
DEFPOINTS
  6
CONTINUOUS
 62
    30
 10
-647.13754244985944
 20
313.7110454551871
 30
0.0
  0
POINT
  5
535
  8
DEFPOINTS
  6
CONTINUOUS
 62
    30
 10
-647.13754244985944
 20
909.99447648186208
 30
0.0
  0
LINE
  5
536
  8
SIZE
  6
CONTINUOUS
 62
    30
 10
647.13754244985978
 20
206.66641903133109
 30
0.0
 11
647.13754244985978
 21
-204.43281709318271
 31
0.0
  0
LINE
  5
537
  8
SIZE
  6
CONTINUOUS
 62
    30
 10
-0.0000000000000012
 20
-109.9933585182612
 30
0.0
 11
-0.000000000000007
 21
-204.43281709318271
 31
0.0
  0
LINE
  5
538
  8
SIZE
  6
CONTINUOUS
 62
    30
 10
635.13754244985978
 20
-184.43281709318271
 30
0.0
 11
11.999999999999989
 21
-184.43281709318271
 31
0.0
  0
CIRCLE
  5
539
  8
SIZE
  6
CONTINUOUS
 62
    30
 10
647.13754244985978
 20
-184.43281709318271
 30
0.0
 40
6.0
  0
LINE
  5
53A
  8
SIZE
  6
CONTINUOUS
 62
    30
 10
647.13754244985978
 20
-184.43281709318271
 30
0.0
 11
635.13754244985978
 21
-184.43281709318271
 31
0.0
  0
CIRCLE
  5
53B
  8
SIZE
  6
CONTINUOUS
 62
    30
 10
-0.0000000000000058
 20
-184.43281709318271
 30
0.0
 40
6.0
  0
LINE
  5
53C
  8
SIZE
  6
CONTINUOUS
 62
    30
 10
-0.0000000000000058
 20
-184.43281709318271
 30
0.0
 11
11.999999999999989
 21
-184.43281709318271
 31
0.0
  0
TEXT
  5
53D
  8
SIZE
  6
CONTINUOUS
 62
    30
 10
201.4667335254253
 20
-159.43281709318271
 30
0.0
 40
64.0
  1
647
 41
0.9
 72
     1
 11
275.52387638256818
 21
-159.43281709318271
 31
0.0
  0
POINT
  5
53E
  8
DEFPOINTS
  6
CONTINUOUS
 62
    30
 10
647.13754244985978
 20
226.66641903133109
 30
0.0
  0
POINT
  5
53F
  8
DEFPOINTS
  6
CONTINUOUS
 62
    30
 10
0.0
 20
-89.993358518261147
 30
0.0
  0
POINT
  5
540
  8
DEFPOINTS
  6
CONTINUOUS
 62
    30
 10
-0.0000000000000058
 20
-184.43281709318271
 30
0.0
  0
LINE
  5
541
  8
SIZE
  6
CONTINUOUS
 62
    30
 10
-385.14137245818972
 20
-64.016156852364389
 30
0.0
 11
-385.14137245818972
 21
-352.85880901473962
 31
0.0
  0
LINE
  5
542
  8
SIZE
  6
CONTINUOUS
 62
    30
 10
385.14137245819001
 20
-64.016156852364389
 30
0.0
 11
385.14137245819001
 21
-352.85880901473962
 31
0.0
  0
LINE
  5
543
  8
SIZE
  6
CONTINUOUS
 62
    30
 10
-373.14137245818972
 20
-332.85880901473962
 30
0.0
 11
373.14137245819001
 21
-332.85880901473962
 31
0.0
  0
CIRCLE
  5
544
  8
SIZE
  6
CONTINUOUS
 62
    30
 10
-385.14137245818972
 20
-332.85880901473962
 30
0.0
 40
6.0
  0
LINE
  5
545
  8
SIZE
  6
CONTINUOUS
 62
    30
 10
-385.14137245818972
 20
-332.85880901473962
 30
0.0
 11
-373.14137245818972
 21
-332.85880901473962
 31
0.0
  0
CIRCLE
  5
546
  8
SIZE
  6
CONTINUOUS
 62
    30
 10
385.14137245819001
 20
-332.85880901473962
 30
0.0
 40
6.0
  0
LINE
  5
547
  8
SIZE
  6
CONTINUOUS
 62
    30
 10
385.14137245819001
 20
-332.85880901473962
 30
0.0
 11
373.14137245819001
 21
-332.85880901473962
 31
0.0
  0
TEXT
  5
548
  8
SIZE
  6
CONTINUOUS
 62
    30
 10
-74.057142857142722
 20
-307.85880901473962
 30
0.0
 40
64.0
  1
770
 41
0.9
 72
     1
 11
0.0000000000001421
 21
-307.85880901473962
 31
0.0
  0
POINT
  5
549
  8
DEFPOINTS
  6
CONTINUOUS
 62
    30
 10
-385.14137245818972
 20
-44.016156852364382
 30
0.0
  0
POINT
  5
54A
  8
DEFPOINTS
  6
CONTINUOUS
 62
    30
 10
385.14137245819001
 20
-44.016156852364382
 30
0.0
  0
POINT
  5
54B
  8
DEFPOINTS
  6
CONTINUOUS
 62
    30
 10
385.14137245819001
 20
-332.85880901473962
 30
0.0
  0
LINE
  5
54C
  8
SIZE
  6
CONTINUOUS
 62
    30
 10
0.0000000000000012
 20
507.55854212616708
 30
0.0
 11
0.0000000000000051
 21
571.20384329425178
 31
0.0
  0
LINE
  5
54D
  8
SIZE
  6
CONTINUOUS
 62
    30
 10
140.05140816660489
 20
401.33234322252167
 30
0.0
 11
140.05140816660489
 21
571.20384329425178
 31
0.0
  0
LINE
  5
54E
  8
SIZE
  6
CONTINUOUS
 62
    30
 10
-12.0
 20
551.20384329425167
 30
0.0
 11
-24.0
 21
551.20384329425167
 31
0.0
  0
LINE
  5
54F
  8
SIZE
  6
CONTINUOUS
 62
    30
 10
152.05140816660489
 20
551.20384329425167
 30
0.0
 11
164.05140816660489
 21
551.20384329425167
 31
0.0
  0
LINE
  5
550
  8
SIZE
  6
CONTINUOUS
 62
    30
 10
0.0000000000000039
 20
551.20384329425167
 30
0.0
 11
140.05140816660489
 21
551.20384329425167
 31
0.0
  0
CIRCLE
  5
551
  8
SIZE
  6
CONTINUOUS
 62
    30
 10
0.0000000000000039
 20
551.20384329425167
 30
0.0
 40
6.0
  0
LINE
  5
552
  8
SIZE
  6
CONTINUOUS
 62
    30
 10
0.0000000000000039
 20
551.20384329425167
 30
0.0
 11
-11.999999999999989
 21
551.20384329425167
 31
0.0
  0
CIRCLE
  5
553
  8
SIZE
  6
CONTINUOUS
 62
    30
 10
140.05140816660489
 20
551.20384329425167
 30
0.0
 40
6.0
  0
LINE
  5
554
  8
SIZE
  6
CONTINUOUS
 62
    30
 10
140.05140816660489
 20
551.20384329425167
 30
0.0
 11
152.05140816660489
 21
551.20384329425167
 31
0.0
  0
TEXT
  5
555
  8
SIZE
  6
CONTINUOUS
 62
    30
 10
1.4542755118738451
 20
576.20384329425167
 30
0.0
 40
64.0
  1
140
 41
0.9
 72
     1
 11
70.025704083302415
 21
576.20384329425167
 31
0.0
  0
POINT
  5
556
  8
DEFPOINTS
  6
CONTINUOUS
 62
    30
 10
0.0
 20
487.55854212616708
 30
0.0
  0
POINT
  5
557
  8
DEFPOINTS
  6
CONTINUOUS
 62
    30
 10
140.05140816660489
 20
381.33234322252167
 30
0.0
  0
POINT
  5
558
  8
DEFPOINTS
  6
CONTINUOUS
 62
    30
 10
140.05140816660489
 20
551.20384329425167
 30
0.0
  0
LINE
  5
559
  8
SIZE
  6
CONTINUOUS
 62
    30
 10
-460.16891254744593
 20
435.84123783433313
 30
0.0
 11
-460.16891254744593
 21
694.86670718613288
 31
0.0
  0
LINE
  5
55A
  8
SIZE
  6
CONTINUOUS
 62
    30
 10
140.05140816660489
 20
401.33234322252167
 30
0.0
 11
140.05140816660489
 21
694.86670718613288
 31
0.0
  0
LINE
  5
55B
  8
SIZE
  6
CONTINUOUS
 62
    30
 10
-448.16891254744593
 20
674.866707186133
 30
0.0
 11
128.05140816660489
 21
674.866707186133
 31
0.0
  0
CIRCLE
  5
55C
  8
SIZE
  6
CONTINUOUS
 62
    30
 10
-460.16891254744593
 20
674.866707186133
 30
0.0
 40
6.0
  0
LINE
  5
55D
  8
SIZE
  6
CONTINUOUS
 62
    30
 10
-460.16891254744593
 20
674.866707186133
 30
0.0
 11
-448.16891254744593
 21
674.866707186133
 31
0.0
  0
CIRCLE
  5
55E
  8
SIZE
  6
CONTINUOUS
 62
    30
 10
140.05140816660489
 20
674.866707186133
 30
0.0
 40
6.0
  0
LINE
  5
55F
  8
SIZE
  6
CONTINUOUS
 62
    30
 10
140.05140816660489
 20
674.866707186133
 30
0.0
 11
128.05140816660489
 21
674.866707186133
 31
0.0
  0
TEXT
  5
560
  8
SIZE
  6
CONTINUOUS
 62
    30
 10
-234.1158950475633
 20
699.866707186133
 30
0.0
 40
64.0
  1
600
 41
0.9
 72
     1
 11
-160.05875219042039
 21
699.866707186133
 31
0.0
  0
POINT
  5
561
  8
DEFPOINTS
  6
CONTINUOUS
 62
    30
 10
-460.16891254744593
 20
415.84123783433313
 30
0.0
  0
POINT
  5
562
  8
DEFPOINTS
  6
CONTINUOUS
 62
    30
 10
140.05140816660489
 20
381.33234322252167
 30
0.0
  0
POINT
  5
563
  8
DEFPOINTS
  6
CONTINUOUS
 62
    30
 10
140.05140816660489
 20
674.866707186133
 30
0.0
  0
LINE
  5
564
  8
BASIS
  6
DASHDOT
 62
     6
 10
412.1012685302635
 20
-0.0000000000000057
 30
0.0
 11
-420.89011005130078
 21
-0.0000000000000057
 31
0.0
  0
LINE
  5
565
  8
SIZE
  6
CONTINUOUS
 62
    30
 10
-440.89011005130078
 20
0.0
 30
0.0
 11
-524.37534418629184
 21
0.0000000000000236
 31
0.0
  0
LINE
  5
566
  8
SIZE
  6
CONTINUOUS
 62
    30
 10
-404.14100525699229
 20
-45.016524053553809
 30
0.0
 11
-524.37534418629184
 21
-45.016524053553773
 31
0.0
  0
LINE
  5
567
  8
SIZE
  6
CONTINUOUS
 62
    30
 10
-504.37534418629173
 20
12.00000000000002
 30
0.0
 11
-504.37534418629173
 21
24.000000000000021
 31
0.0
  0
LINE
  5
568
  8
SIZE
  6
CONTINUOUS
 62
    30
 10
-504.37534418629173
 20
-57.016524053553781
 30
0.0
 11
-504.37534418629173
 21
-69.016524053553781
 31
0.0
  0
LINE
  5
569
  8
SIZE
  6
CONTINUOUS
 62
    30
 10
-504.37534418629173
 20
0.000000000000018
 30
0.0
 11
-504.37534418629173
 21
-45.016524053553773
 31
0.0
  0
CIRCLE
  5
56A
  8
SIZE
  6
CONTINUOUS
 62
    30
 10
-504.37534418629173
 20
0.000000000000018
 30
0.0
 40
6.0
  0
LINE
  5
56B
  8
SIZE
  6
CONTINUOUS
 62
    30
 10
-504.37534418629173
 20
0.000000000000018
 30
0.0
 11
-504.37534418629173
 21
12.000000000000011
 31
0.0
  0
CIRCLE
  5
56C
  8
SIZE
  6
CONTINUOUS
 62
    30
 10
-504.37534418629173
 20
-45.016524053553773
 30
0.0
 40
6.0
  0
LINE
  5
56D
  8
SIZE
  6
CONTINUOUS
 62
    30
 10
-504.37534418629173
 20
-45.016524053553773
 30
0.0
 11
-504.37534418629173
 21
-57.016524053553781
 31
0.0
  0
TEXT
  5
56E
  8
SIZE
  6
CONTINUOUS
 62
    30
 10
-529.37534418629184
 20
-69.136833455348381
 30
0.0
 40
64.0
  1
45
 50
90.0
 41
0.9
 72
     1
 11
-529.37534418629184
 21
-22.508262026776951
 31
0.0
  0
POINT
  5
56F
  8
DEFPOINTS
  6
CONTINUOUS
 62
    30
 10
-420.89011005130078
 20
-0.0000000000000057
 30
0.0
  0
POINT
  5
570
  8
DEFPOINTS
  6
CONTINUOUS
 62
    30
 10
-384.1410052569924
 20
-45.01652405355383
 30
0.0
  0
POINT
  5
571
  8
DEFPOINTS
  6
CONTINUOUS
 62
    30
 10
-504.37534418629173
 20
-45.016524053553773
 30
0.0
  0
LINE
  5
572
  8
SIZE
  6
CONTINUOUS
 62
    30
 10
-618.21958631167763
 20
455.66726014208251
 30
0.0
 11
-832.07563709458805
 21
455.66726014208251
 31
0.0
  0
LINE
  5
573
  8
SIZE
  6
CONTINUOUS
 62
    30
 10
-693.64316444337408
 20
287.20542346167241
 30
0.0
 11
-832.07563709458805
 21
287.20542346167241
 31
0.0
  0
LINE
  5
574
  8
SIZE
  6
CONTINUOUS
 62
    30
 10
-812.07563709458816
 20
443.66726014208251
 30
0.0
 11
-812.07563709458816
 21
299.20542346167241
 31
0.0
  0
CIRCLE
  5
575
  8
SIZE
  6
CONTINUOUS
 62
    30
 10
-812.07563709458816
 20
455.66726014208251
 30
0.0
 40
6.0
  0
LINE
  5
576
  8
SIZE
  6
CONTINUOUS
 62
    30
 10
-812.07563709458816
 20
455.66726014208251
 30
0.0
 11
-812.07563709458816
 21
443.66726014208251
 31
0.0
  0
CIRCLE
  5
577
  8
SIZE
  6
CONTINUOUS
 62
    30
 10
-812.07563709458816
 20
287.20542346167241
 30
0.0
 40
6.0
  0
LINE
  5
578
  8
SIZE
  6
CONTINUOUS
 62
    30
 10
-812.07563709458816
 20
287.20542346167241
 30
0.0
 11
-812.07563709458816
 21
299.20542346167241
 31
0.0
  0
TEXT
  5
579
  8
SIZE
  6
CONTINUOUS
 62
    30
 10
-837.07563709458816
 20
302.86491323044879
 30
0.0
 40
64.0
  1
168
 50
90.0
 41
0.9
 72
     1
 11
-837.07563709458816
 21
371.43634180187729
 31
0.0
  0
POINT
  5
57A
  8
DEFPOINTS
  6
CONTINUOUS
 62
    30
 10
-598.21958631167763
 20
455.66726014208251
 30
0.0
  0
POINT
  5
57B
  8
DEFPOINTS
  6
CONTINUOUS
 62
    30
 10
-673.64316444337396
 20
287.20542346167241
 30
0.0
  0
POINT
  5
57C
  8
DEFPOINTS
  6
CONTINUOUS
 62
    30
 10
-812.07563709458816
 20
287.20542346167241
 30
0.0
  0
LINE
  5
57D
  8
SIZE
  6
CONTINUOUS
 62
    30
 10
-618.21958631167763
 20
455.66726014208251
 30
0.0
 11
-708.6112917644349
 21
455.66726014208251
 31
0.0
  0
LINE
  5
57E
  8
SIZE
  6
CONTINUOUS
 62
    30
 10
-611.18995509723152
 20
295.60850795166931
 30
0.0
 11
-708.6112917644349
 21
295.60850795166942
 31
0.0
  0
LINE
  5
57F
  8
SIZE
  6
CONTINUOUS
 62
    30
 10
-688.61129176443501
 20
467.66726014208251
 30
0.0
 11
-688.61129176443501
 21
479.66726014208263
 31
0.0
  0
LINE
  5
580
  8
SIZE
  6
CONTINUOUS
 62
    30
 10
-688.61129176443501
 20
283.60850795166942
 30
0.0
 11
-688.61129176443501
 21
271.60850795166942
 31
0.0
  0
LINE
  5
581
  8
SIZE
  6
CONTINUOUS
 62
    30
 10
-688.61129176443501
 20
455.66726014208251
 30
0.0
 11
-688.61129176443501
 21
295.60850795166942
 31
0.0
  0
CIRCLE
  5
582
  8
SIZE
  6
CONTINUOUS
 62
    30
 10
-688.61129176443501
 20
455.66726014208251
 30
0.0
 40
6.0
  0
LINE
  5
583
  8
SIZE
  6
CONTINUOUS
 62
    30
 10
-688.61129176443501
 20
455.66726014208251
 30
0.0
 11
-688.61129176443501
 21
467.66726014208251
 31
0.0
  0
CIRCLE
  5
584
  8
SIZE
  6
CONTINUOUS
 62
    30
 10
-688.61129176443501
 20
295.60850795166942
 30
0.0
 40
6.0
  0
LINE
  5
585
  8
SIZE
  6
CONTINUOUS
 62
    30
 10
-688.61129176443501
 20
295.60850795166942
 30
0.0
 11
-688.61129176443501
 21
283.60850795166942
 31
0.0
  0
TEXT
  5
586
  8
SIZE
  6
CONTINUOUS
 62
    30
 10
-713.61129176443512
 20
307.06645547544741
 30
0.0
 40
64.0
  1
160
 50
90.0
 41
0.9
 72
     1
 11
-713.61129176443512
 21
375.63788404687591
 31
0.0
  0
POINT
  5
587
  8
DEFPOINTS
  6
CONTINUOUS
 62
    30
 10
-598.21958631167763
 20
455.66726014208251
 30
0.0
  0
POINT
  5
588
  8
DEFPOINTS
  6
CONTINUOUS
 62
    30
 10
-591.1899550972314
 20
295.60850795166931
 30
0.0
  0
POINT
  5
589
  8
DEFPOINTS
  6
CONTINUOUS
 62
    30
 10
-688.61129176443501
 20
295.60850795166942
 30
0.0
  0
LINE
  5
58A
  8
SIZE
  6
CONTINUOUS
 62
    30
 10
270.78442346722989
 20
270.5993279219166
 30
0.0
 11
939.03094774655017
 21
270.59932792191643
 31
0.0
  0
LINE
  5
58B
  8
SIZE
  6
CONTINUOUS
 62
    30
 10
618.21958631167786
 20
455.66726014208251
 30
0.0
 11
939.03094774655017
 21
455.6672601420824
 31
0.0
  0
LINE
  5
58C
  8
SIZE
  6
CONTINUOUS
 62
    30
 10
919.03094774655017
 20
282.59932792191643
 30
0.0
 11
919.03094774655017
 21
443.6672601420824
 31
0.0
  0
CIRCLE
  5
58D
  8
SIZE
  6
CONTINUOUS
 62
    30
 10
919.03094774655017
 20
270.59932792191643
 30
0.0
 40
6.0
  0
LINE
  5
58E
  8
SIZE
  6
CONTINUOUS
 62
    30
 10
919.03094774655017
 20
270.59932792191643
 30
0.0
 11
919.03094774655017
 21
282.59932792191643
 31
0.0
  0
CIRCLE
  5
58F
  8
SIZE
  6
CONTINUOUS
 62
    30
 10
919.03094774655017
 20
455.6672601420824
 30
0.0
 40
6.0
  0
LINE
  5
590
  8
SIZE
  6
CONTINUOUS
 62
    30
 10
919.03094774655017
 20
455.6672601420824
 30
0.0
 11
919.03094774655017
 21
443.6672601420824
 31
0.0
  0
TEXT
  5
591
  8
SIZE
  6
CONTINUOUS
 62
    30
 10
894.03094774654971
 20
294.56186546057103
 30
0.0
 40
64.0
  1
185
 50
90.0
 41
0.9
 72
     1
 11
894.03094774654971
 21
363.13329403199958
 31
0.0
  0
POINT
  5
592
  8
DEFPOINTS
  6
CONTINUOUS
 62
    30
 10
250.78442346723
 20
270.5993279219166
 30
0.0
  0
POINT
  5
593
  8
DEFPOINTS
  6
CONTINUOUS
 62
    30
 10
598.21958631167786
 20
455.66726014208251
 30
0.0
  0
POINT
  5
594
  8
DEFPOINTS
  6
CONTINUOUS
 62
    30
 10
919.03094774655017
 20
455.6672601420824
 30
0.0
  0
LINE
  5
595
  8
SIZE
  6
CONTINUOUS
 62
    30
 10
-618.21958631167763
 20
455.66726014208251
 30
0.0
 11
-958.54069693668475
 21
455.66726014208251
 31
0.0
  0
LINE
  5
596
  8
SIZE
  6
CONTINUOUS
 62
    30
 10
-620.02024727381513
 20
125.74615718959249
 30
0.0
 11
-958.54069693668475
 21
125.74615718959259
 31
0.0
  0
LINE
  5
597
  8
SIZE
  6
CONTINUOUS
 62
    30
 10
-938.54069693668475
 20
443.66726014208251
 30
0.0
 11
-938.54069693668475
 21
137.74615718959259
 31
0.0
  0
CIRCLE
  5
598
  8
SIZE
  6
CONTINUOUS
 62
    30
 10
-938.54069693668475
 20
455.66726014208251
 30
0.0
 40
6.0
  0
LINE
  5
599
  8
SIZE
  6
CONTINUOUS
 62
    30
 10
-938.54069693668475
 20
455.66726014208251
 30
0.0
 11
-938.54069693668475
 21
443.66726014208251
 31
0.0
  0
CIRCLE
  5
59A
  8
SIZE
  6
CONTINUOUS
 62
    30
 10
-938.54069693668475
 20
125.74615718959259
 30
0.0
 40
6.0
  0
LINE
  5
59B
  8
SIZE
  6
CONTINUOUS
 62
    30
 10
-938.54069693668475
 20
125.74615718959259
 30
0.0
 11
-938.54069693668475
 21
137.74615718959259
 31
0.0
  0
TEXT
  5
59C
  8
SIZE
  6
CONTINUOUS
 62
    30
 10
-963.54069693668475
 20
216.6495658086948
 30
0.0
 40
64.0
  1
330
 50
90.0
 41
0.9
 72
     1
 11
-963.54069693668475
 21
290.7067086658376
 31
0.0
  0
POINT
  5
59D
  8
DEFPOINTS
  6
CONTINUOUS
 62
    30
 10
-598.21958631167763
 20
455.66726014208251
 30
0.0
  0
POINT
  5
59E
  8
DEFPOINTS
  6
CONTINUOUS
 62
    30
 10
-600.02024727381513
 20
125.74615718959249
 30
0.0
  0
POINT
  5
59F
  8
DEFPOINTS
  6
CONTINUOUS
 62
    30
 10
-938.54069693668475
 20
125.74615718959259
 30
0.0
  0
LINE
  5
5A0
  8
SIZE
  6
CONTINUOUS
 62
    30
 10
-868.72150026923805
 20
-114.1233862926463
 30
0.0
 11
-525.14965586478695
 21
230.4401946207347
 31
0.0
  0
LINE
  5
5A1
  8
SIZE
  6
CONTINUOUS
 62
    30
 10
-395.1881692301049
 20
360.77682128260369
 30
0.0
 11
-386.71512559019777
 21
369.27432276693622
 31
0.0
  0
TEXT
  5
5A2
  8
SIZE
  6
CONTINUOUS
 62
    30
 10
-878.84327169522317
 20
-88.867971429001784
 30
0.0
 40
64.0
  1
\U+03C6160
 50
45.08257426506389
 41
0.9
 72
     1
 11
-801.95645283709655
 21
-11.759215102601759
 31
0.0
  0
LINE
  5
5A3
  8
SIZE
  6
CONTINUOUS
 62
    30
 10
-403.6612128700117
 20
352.27931979827122
 30
0.0
 11
-516.67661222488005
 21
238.9376961050672
 31
0.0
  0
CIRCLE
  5
5A4
  8
SIZE
  6
CONTINUOUS
 62
    30
 10
-403.6612128700117
 20
352.27931979827122
 30
0.0
 40
6.0
  0
LINE
  5
5A5
  8
SIZE
  6
CONTINUOUS
 62
    30
 10
-403.6612128700117
 20
352.27931979827122
 30
0.0
 11
-395.1881692301049
 21
360.77682128260369
 31
0.0
  0
CIRCLE
  5
5A6
  8
SIZE
  6
CONTINUOUS
 62
    30
 10
-516.67661222488005
 20
238.9376961050672
 30
0.0
 40
6.0
  0
LINE
  5
5A7
  8
SIZE
  6
CONTINUOUS
 62
    30
 10
-516.67661222488005
 20
238.9376961050672
 30
0.0
 11
-525.14965586478695
 21
230.4401946207347
 31
0.0
  0
POINT
  5
5A8
  8
DEFPOINTS
  6
CONTINUOUS
 62
    30
 10
-516.67661222488005
 20
238.9376961050672
 30
0.0
  0
POINT
  5
5A9
  8
DEFPOINTS
  6
CONTINUOUS
 62
    30
 10
-403.6612128700117
 20
352.27931979827122
 30
0.0
  0
LINE
  5
5AA
  8
SIZE
  6
CONTINUOUS
 62
    30
 10
-774.67526580445622
 20
-232.12769074829771
 30
0.0
 11
-502.67308886141763
 21
224.28723827137659
 31
0.0
  0
LINE
  5
5AB
  8
SIZE
  6
CONTINUOUS
 62
    30
 10
-417.66473623347412
 20
366.92977763196183
 30
0.0
 11
-411.52148378425341
 21
377.23804855123569
 31
0.0
  0
TEXT
  5
5AC
  8
SIZE
  6
CONTINUOUS
 62
    30
 10
-790.65408195671148
 20
-210.1058000232234
 30
0.0
 40
64.0
  1
\U+03C6142
 50
59.207014353533971
 41
0.9
 72
     1
 11
-734.90845401749652
 21
-116.56560448147169
 31
0.0
  0
LINE
  5
5AD
  8
SIZE
  6
CONTINUOUS
 62
    30
 10
-423.807988682695
 20
356.62150671268819
 30
0.0
 11
-496.5298364121968
 21
234.59550919065029
 31
0.0
  0
CIRCLE
  5
5AE
  8
SIZE
  6
CONTINUOUS
 62
    30
 10
-423.807988682695
 20
356.62150671268819
 30
0.0
 40
6.0
  0
LINE
  5
5AF
  8
SIZE
  6
CONTINUOUS
 62
    30
 10
-423.807988682695
 20
356.62150671268819
 30
0.0
 11
-417.66473623347417
 21
366.92977763196183
 31
0.0
  0
CIRCLE
  5
5B0
  8
SIZE
  6
CONTINUOUS
 62
    30
 10
-496.5298364121968
 20
234.59550919065029
 30
0.0
 40
6.0
  0
LINE
  5
5B1
  8
SIZE
  6
CONTINUOUS
 62
    30
 10
-496.5298364121968
 20
234.59550919065029
 30
0.0
 11
-502.67308886141763
 21
224.28723827137659
 31
0.0
  0
POINT
  5
5B2
  8
DEFPOINTS
  6
CONTINUOUS
 62
    30
 10
-496.5298364121968
 20
234.59550919065029
 30
0.0
  0
POINT
  5
5B3
  8
DEFPOINTS
  6
CONTINUOUS
 62
    30
 10
-423.807988682695
 20
356.62150671268819
 30
0.0
  0
LINE
  5
5B4
  8
NOTE
  6
CONTINUOUS
 62
     4
 10
651.3153023832873
 20
275.95614250960062
 30
0.0
 11
806.43551124428541
 21
-141.72961220769639
 31
0.0
  0
LINE
  5
5B5
  8
NOTE
  6
CONTINUOUS
 62
     4
 10
806.43551124428541
 20
-141.72961220769639
 30
0.0
 11
1459.6395481534221
 21
-141.72961220769639
 31
0.0
  0
LINE
  5
5B6
  8
NOTE
  6
CONTINUOUS
 62
     4
 10
647.71930000101975
 20
281.02106759855548
 30
0.0
 11
647.13754244985978
 21
287.20542346167241
 31
0.0
  0
LINE
  5
5B7
  8
NOTE
  6
CONTINUOUS
 62
     4
 10
647.13754244985978
 20
287.20542346167241
 30
0.0
 11
650.73354483212745
 21
282.14049837271739
 31
0.0
  0
LINE
  5
5B8
  8
NOTE
  6
CONTINUOUS
 62
     4
 10
647.13754244985978
 20
287.20542346167241
 30
0.0
 11
651.3153023832873
 21
275.95614250960062
 31
0.0
  0
LINE
  5
5B9
  8
SIZE
  6
CONTINUOUS
 62
    30
 10
618.21958631167786
 20
455.66726014208228
 30
0.0
 11
802.51420377791442
 21
455.66726014208228
 31
0.0
  0
LINE
  5
5BA
  8
SIZE
  6
CONTINUOUS
 62
    30
 10
693.64316444337408
 20
287.20542346167241
 30
0.0
 11
802.51420377791442
 21
287.20542346167241
 31
0.0
  0
LINE
  5
5BB
  8
SIZE
  6
CONTINUOUS
 62
    30
 10
782.51420377791419
 20
467.66726014208228
 30
0.0
 11
782.51420377791419
 21
479.66726014208223
 31
0.0
  0
LINE
  5
5BC
  8
SIZE
  6
CONTINUOUS
 62
    30
 10
782.51420377791419
 20
275.20542346167241
 30
0.0
 11
782.51420377791419
 21
263.20542346167241
 31
0.0
  0
LINE
  5
5BD
  8
SIZE
  6
CONTINUOUS
 62
    30
 10
782.51420377791419
 20
455.66726014208228
 30
0.0
 11
782.51420377791419
 21
287.20542346167241
 31
0.0
  0
CIRCLE
  5
5BE
  8
SIZE
  6
CONTINUOUS
 62
    30
 10
782.51420377791419
 20
455.66726014208228
 30
0.0
 40
6.0
  0
LINE
  5
5BF
  8
SIZE
  6
CONTINUOUS
 62
    30
 10
782.51420377791419
 20
455.66726014208228
 30
0.0
 11
782.51420377791419
 21
467.66726014208228
 31
0.0
  0
CIRCLE
  5
5C0
  8
SIZE
  6
CONTINUOUS
 62
    30
 10
782.51420377791419
 20
287.20542346167241
 30
0.0
 40
6.0
  0
LINE
  5
5C1
  8
SIZE
  6
CONTINUOUS
 62
    30
 10
782.51420377791419
 20
287.20542346167241
 30
0.0
 11
782.51420377791419
 21
275.20542346167241
 31
0.0
  0
TEXT
  5
5C2
  8
SIZE
  6
CONTINUOUS
 62
    30
 10
757.51420377791385
 20
302.86491323044902
 30
0.0
 40
64.0
  1
168
 50
90.0
 41
0.9
 72
     1
 11
757.51420377791385
 21
371.43634180187752
 31
0.0
  0
POINT
  5
5C3
  8
DEFPOINTS
  6
CONTINUOUS
 62
    30
 10
598.21958631167786
 20
455.66726014208228
 30
0.0
  0
POINT
  5
5C4
  8
DEFPOINTS
  6
CONTINUOUS
 62
    30
 10
673.6431644433743
 20
287.20542346167241
 30
0.0
  0
POINT
  5
5C5
  8
DEFPOINTS
  6
CONTINUOUS
 62
    30
 10
782.51420377791419
 20
287.20542346167241
 30
0.0
  0
LINE
  5
5C6
  8
SIZE
  6
CONTINUOUS
 62
    30
 10
578.0110336997385
 20
579.83297404173243
 30
0.0
 11
215.22952152791331
 21
323.68093806994489
 31
0.0
  0
LINE
  5
5C7
  8
SIZE
  6
CONTINUOUS
 62
    30
 10
64.873294805296453
 20
217.51771777388831
 30
0.0
 11
55.070583990410391
 21
210.5962395589608
 31
0.0
  0
TEXT
  5
5C8
  8
SIZE
  6
CONTINUOUS
 62
    30
 10
376.91499780049242
 20
468.44727143314299
 30
0.0
 40
64.0
  1
\U+03C6160
 50
35.22507317105476
 41
0.9
 72
     1
 11
465.86759650928713
 21
531.25474232059923
 31
0.0
  0
LINE
  5
5C9
  8
SIZE
  6
CONTINUOUS
 62
    30
 10
74.676005620182536
 20
224.43919598881581
 30
0.0
 11
205.42681071302721
 21
316.75945985501738
 31
0.0
  0
CIRCLE
  5
5CA
  8
SIZE
  6
CONTINUOUS
 62
    30
 10
74.676005620182536
 20
224.43919598881581
 30
0.0
 40
6.0
  0
LINE
  5
5CB
  8
SIZE
  6
CONTINUOUS
 62
    30
 10
74.676005620182536
 20
224.43919598881581
 30
0.0
 11
64.873294805296467
 21
217.51771777388839
 31
0.0
  0
CIRCLE
  5
5CC
  8
SIZE
  6
CONTINUOUS
 62
    30
 10
205.42681071302721
 20
316.75945985501738
 30
0.0
 40
6.0
  0
LINE
  5
5CD
  8
SIZE
  6
CONTINUOUS
 62
    30
 10
205.42681071302721
 20
316.75945985501738
 30
0.0
 11
215.22952152791331
 21
323.68093806994477
 31
0.0
  0
POINT
  5
5CE
  8
DEFPOINTS
  6
CONTINUOUS
 62
    30
 10
205.42681071302721
 20
316.75945985501738
 30
0.0
  0
POINT
  5
5CF
  8
DEFPOINTS
  6
CONTINUOUS
 62
    30
 10
74.676005620182536
 20
224.43919598881581
 30
0.0
  0
LINE
  5
5D0
  8
SIZE
  6
CONTINUOUS
 62
    30
 10
434.0098433771031
 20
677.78391725446863
 30
0.0
 11
188.6494231702965
 21
337.91620136861769
 31
0.0
  0
LINE
  5
5D1
  8
SIZE
  6
CONTINUOUS
 62
    30
 10
91.45339316291323
 20
203.2824544752155
 30
0.0
 11
84.429380451942066
 21
193.55295061139421
 31
0.0
  0
TEXT
  5
5D2
  8
SIZE
  6
CONTINUOUS
 62
    30
 10
279.97942826821389
 20
507.13509182228682
 30
0.0
 40
64.0
  1
\U+03C6142
 50
54.17338317290789
 41
0.9
 72
     1
 11
343.71732646834113
 21
595.42338974084873
 31
0.0
  0
LINE
  5
5D3
  8
SIZE
  6
CONTINUOUS
 62
    30
 10
98.477405873884436
 20
213.01195833903679
 30
0.0
 11
181.62541045932531
 21
328.18669750479643
 31
0.0
  0
CIRCLE
  5
5D4
  8
SIZE
  6
CONTINUOUS
 62
    30
 10
98.477405873884436
 20
213.01195833903679
 30
0.0
 40
6.0
  0
LINE
  5
5D5
  8
SIZE
  6
CONTINUOUS
 62
    30
 10
98.477405873884436
 20
213.01195833903679
 30
0.0
 11
91.45339316291323
 21
203.28245447521559
 31
0.0
  0
CIRCLE
  5
5D6
  8
SIZE
  6
CONTINUOUS
 62
    30
 10
181.62541045932531
 20
328.18669750479643
 30
0.0
 40
6.0
  0
LINE
  5
5D7
  8
SIZE
  6
CONTINUOUS
 62
    30
 10
181.62541045932531
 20
328.18669750479643
 30
0.0
 11
188.6494231702965
 21
337.91620136861781
 31
0.0
  0
POINT
  5
5D8
  8
DEFPOINTS
  6
CONTINUOUS
 62
    30
 10
181.62541045932531
 20
328.18669750479643
 30
0.0
  0
POINT
  5
5D9
  8
DEFPOINTS
  6
CONTINUOUS
 62
    30
 10
98.477405873884436
 20
213.01195833903679
 30
0.0
  0
ENDSEC
  0
EOF
