  0
SECTION
  2
HEADER
  9
$ACADVER
  1
AC1009
  9
$INSBASE
 10
0.0
 20
0.0
 30
0.0
  9
$EXTMIN
 10
-761.1251797895485
 20
-231.70799284443271
 30
0.0
  9
$EXTMAX
 10
1515.2974533915651
 20
1174.0547891693079
 30
50.0
  9
$LIMMIN
 10
-2970.0
 20
-2100.0
  9
$LIMMAX
 10
2970.0
 20
2100.0
  9
$ORTHOMODE
 70
     0
  9
$REGENMODE
 70
     1
  9
$FILLMODE
 70
     1
  9
$QTEXTMODE
 70
     0
  9
$MIRRTEXT
 70
     0
  9
$DRAGMODE
 70
     2
  9
$LTSCALE
 40
20.0
  9
$OSMODE
 70
    55
  9
$ATTMODE
 70
     1
  9
$TEXTSIZE
 40
64.0
  9
$TRACEWID
 40
0.05
  9
$TEXTSTYLE
  7
STANDARD
  9
$CLAYER
  8
SIZE
  9
$CELTYPE
  6
CONTINUOUS
  9
$CECOLOR
 62
     7
  9
$DIMSCALE
 40
1.0
  9
$DIMASZ
 40
12.0
  9
$DIMEXO
 40
20.0
  9
$DIMDLI
 40
200.0
  9
$DIMRND
 40
0.0
  9
$DIMDLE
 40
0.0
  9
$DIMEXE
 40
20.0
  9
$DIMTP
 40
0.0
  9
$DIMTM
 40
0.0
  9
$DIMTXT
 40
64.0
  9
$DIMCEN
 40
0.09
  9
$DIMTSZ
 40
0.0
  9
$DIMTOL
 70
     0
  9
$DIMLIM
 70
     0
  9
$DIMTIH
 70
     0
  9
$DIMTOH
 70
     0
  9
$DIMSE1
 70
     0
  9
$DIMSE2
 70
     0
  9
$DIMTAD
 70
     1
  9
$DIMZIN
 70
     8
  9
$DIMBLK
  1

  9
$DIMASO
 70
     1
  9
$DIMSHO
 70
     0
  9
$DIMPOST
  1

  9
$DIMAPOST
  1

  9
$DIMALT
 70
     0
  9
$DIMALTD
 70
     2
  9
$DIMALTF
 40
25.399999999999999
  9
$DIMLFAC
 40
1.0
  9
$DIMTOFL
 70
     1
  9
$DIMTVP
 40
0.0
  9
$DIMTIX
 70
     1
  9
$DIMSOXD
 70
     0
  9
$DIMSAH
 70
     0
  9
$DIMBLK1
  1

  9
$DIMBLK2
  1

  9
$DIMSTYLE
  2
STANDARD
  9
$DIMCLRD
 70
     7
  9
$DIMCLRE
 70
     7
  9
$DIMCLRT
 70
     7
  9
$DIMTFAC
 40
1.0
  9
$DIMGAP
 40
25.0
  9
$LUNITS
 70
     2
  9
$LUPREC
 70
     4
  9
$SKETCHINC
 40
0.1
  9
$FILLETRAD
 40
3.0
  9
$AUNITS
 70
     1
  9
$AUPREC
 70
     3
  9
$MENU
  1
ACAD
  9
$ELEVATION
 40
0.0
  9
$PELEVATION
 40
0.0
  9
$THICKNESS
 40
50.0
  9
$LIMCHECK
 70
     0
  9
$BLIPMODE
 70
     0
  9
$CHAMFERA
 40
0.0
  9
$CHAMFERB
 40
0.0
  9
$SKPOLY
 70
     0
  9
$TDCREATE
 40
2453019.6230103709
  9
$TDUPDATE
 40
2456290.597641042
  9
$TDINDWG
 40
1.7176345369999999
  9
$TDUSRTIMER
 40
1.7176343634
  9
$USRTIMER
 70
     1
  9
$ANGBASE
 50
0.0
  9
$ANGDIR
 70
     0
  9
$PDMODE
 70
     3
  9
$PDSIZE
 40
-2.0
  9
$PLINEWID
 40
0.0
  9
$COORDS
 70
     1
  9
$SPLFRAME
 70
     0
  9
$SPLINETYPE
 70
     6
  9
$SPLINESEGS
 70
     8
  9
$ATTDIA
 70
     0
  9
$ATTREQ
 70
     1
  9
$HANDLING
 70
     1
  9
$HANDSEED
  5
386
  9
$SURFTAB1
 70
     6
  9
$SURFTAB2
 70
     6
  9
$SURFTYPE
 70
     6
  9
$SURFU
 70
     6
  9
$SURFV
 70
     6
  9
$UCSNAME
  2

  9
$UCSORG
 10
0.0
 20
0.0
 30
0.0
  9
$UCSXDIR
 10
1.0
 20
0.0
 30
0.0
  9
$UCSYDIR
 10
0.0
 20
1.0
 30
0.0
  9
$PUCSNAME
  2

  9
$PUCSORG
 10
0.0
 20
0.0
 30
0.0
  9
$PUCSXDIR
 10
1.0
 20
0.0
 30
0.0
  9
$PUCSYDIR
 10
0.0
 20
1.0
 30
0.0
  9
$USERI1
 70
     0
  9
$USERI2
 70
     0
  9
$USERI3
 70
     0
  9
$USERI4
 70
     0
  9
$USERI5
 70
     0
  9
$USERR1
 40
20.0
  9
$USERR2
 40
0.0
  9
$USERR3
 40
0.0
  9
$USERR4
 40
0.0
  9
$USERR5
 40
0.0
  9
$WORLDVIEW
 70
     1
  9
$SHADEDGE
 70
     3
  9
$SHADEDIF
 70
    70
  9
$TILEMODE
 70
     1
  9
$MAXACTVP
 70
    48
  9
$PLIMCHECK
 70
     0
  9
$PEXTMIN
 10
-1.0000000000000000E+020
 20
-1.0000000000000000E+020
 30
-1.0000000000000000E+020
  9
$PEXTMAX
 10
1.0000000000000000E+020
 20
1.0000000000000000E+020
 30
1.0000000000000000E+020
  9
$PLIMMIN
 10
0.0
 20
0.0
  9
$PLIMMAX
 10
12.0
 20
9.0
  9
$UNITMODE
 70
     0
  9
$VISRETAIN
 70
     0
  9
$PLINEGEN
 70
     0
  9
$PSLTSCALE
 70
     0
  0
ENDSEC
  0
SECTION
  2
TABLES
  0
TABLE
  2
VPORT
 70
     1
  0
VPORT
  2
*ACTIVE
 70
     0
 10
0.0
 20
0.0
 11
1.0
 21
1.0
 12
604.68306464319494
 22
411.3975109071788
 13
0.0
 23
0.0
 14
1.0
 24
1.0
 15
0.0
 25
0.0
 16
0.0
 26
0.0
 36
1.0
 17
0.0
 27
0.0
 37
0.0
 40
2302.6904262817588
 41
1.693029490616621
 42
50.0
 43
0.0
 44
0.0
 50
0.0
 51
0.0
 71
     0
 72
  1000
 73
     1
 74
     0
 75
     0
 76
     0
 77
     0
 78
     0
  0
ENDTAB
  0
TABLE
  2
LTYPE
 70
     3
  0
LTYPE
  2
CONTINUOUS
 70
     0
  3
実線
 72
    65
 73
     0
 40
0.0
  0
LTYPE
  2
DASHDOT
 70
     0
  3
____ _ ____ _ ____ _ ____ _ ____ _ ____ _ ____
 72
    65
 73
     4
 40
5.5
 49
4.0
 49
-0.6
 49
0.3
 49
-0.6
  0
ENDTAB
  0
TABLE
  2
LAYER
 70
    12
  0
LAYER
  2
0
 70
     0
 62
     7
  6
CONTINUOUS
  0
LAYER
  2
SIZE
 70
     0
 62
    30
  6
CONTINUOUS
  0
LAYER
  2
DEFPOINTS
 70
     0
 62
     7
  6
CONTINUOUS
  0
LAYER
  2
BASIS
 70
     0
 62
     6
  6
DASHDOT
  0
LAYER
  2
OUTLINE
 70
     0
 62
     3
  6
CONTINUOUS
  0
LAYER
  2
DETAIL
 70
     0
 62
     5
  6
CONTINUOUS
  0
LAYER
  2
ARRANGE
 70
     4
 62
     1
  6
CONTINUOUS
  0
LAYER
  2
ETC
 70
     0
 62
    61
  6
CONTINUOUS
  0
LAYER
  2
FIX
 70
     0
 62
    11
  6
CONTINUOUS
  0
LAYER
  2
NOTE
 70
     0
 62
     4
  6
CONTINUOUS
  0
LAYER
  2
SERVICESPACE
 70
     0
 62
     2
  6
DASHDOT
  0
LAYER
  2
SYMBOLLINE
 70
     0
 62
    15
  6
CONTINUOUS
  0
ENDTAB
  0
TABLE
  2
STYLE
 70
     2
  0
STYLE
  2
STANDARD
 70
     0
 40
64.0
 41
0.9
 50
0.0
 71
     0
 42
64.0
  3
SIMPLEX.shx
  4
BIGFONT.shx
  0
STYLE
  2
ANNOTATIVE
 70
     0
 40
0.0
 41
1.0
 50
0.0
 71
     0
 42
0.2
  3
txt
  4

  0
ENDTAB
  0
TABLE
  2
VIEW
 70
     1
  0
VIEW
  2
ALL
 70
     0
 40
4282.6198079999976
 10
0.0
 20
41.309904000000003
 41
5940.0
 11
0.0
 21
0.0
 31
1.0
 12
0.0
 22
0.0
 32
0.0
 42
50.0
 43
0.0
 44
0.0
 50
0.0
 71
     0
  0
ENDTAB
  0
TABLE
  2
UCS
 70
     0
  0
ENDTAB
  0
TABLE
  2
APPID
 70
    18
  0
APPID
  2
ACAD
 70
     0
  0
APPID
  2
ACADANNOTATIVE
 70
     0
  0
APPID
  2
AUTOCAD_POSTSCRIPT_FIGURE
 70
     0
  0
APPID
  2
ACAD_EXEMPT_FROM_CAD_STANDARDS
 70
     0
  0
APPID
  2
ACAD_PSEXT
 70
     0
  0
APPID
  2
ACAUTHENVIRON
 70
     0
  0
APPID
  2
GENIUS_GENOENT_13
 70
     0
  0
APPID
  2
GENIUS_GENCFG_13
 70
     0
  0
APPID
  2
GENIUS_GENCFG0_13
 70
     0
  0
APPID
  2
GENIUS_GENCFG1_13
 70
     0
  0
APPID
  2
GENIUS_GENCFG2_13
 70
     0
  0
APPID
  2
GENIUS_GENCFG3_13
 70
     0
  0
APPID
  2
GENIUS_GENCFG4_13
 70
     0
  0
APPID
  2
GENIUS_GEVCFG0_13
 70
     0
  0
APPID
  2
CONTENTBLOCKICON
 70
     0
  0
APPID
  2
CONTENTBLOCKDESCRIPTION
 70
     0
  0
APPID
  2
ACAD_NAV_VCDISPLAY
 70
     0
  0
APPID
  2
ACAD_MLEADERVER
 70
     0
  0
ENDTAB
  0
TABLE
  2
DIMSTYLE
 70
     2
  0
DIMSTYLE
  2
STANDARD
 70
     0
  3

  4

  5

  6

  7

 40
1.0
 41
0.18
 42
0.0625
 43
0.38
 44
0.18
 45
0.0
 46
0.0
 47
0.0
 48
0.0
140
0.18
141
0.09
142
0.0
143
25.399999999999999
144
1.0
145
0.0
146
1.0
147
0.09
 71
     0
 72
     0
 73
     1
 74
     1
 75
     0
 76
     0
 77
     0
 78
     0
170
     0
171
     2
172
     0
173
     0
174
     0
175
     0
176
     7
177
     7
178
     7
  0
DIMSTYLE
  2
ANNOTATIVE
 70
     0
  3

  4

  5

  6

  7

 40
1.0
 41
0.18
 42
0.0625
 43
0.38
 44
0.18
 45
0.0
 46
0.0
 47
0.0
 48
0.0
140
0.18
141
0.09
142
0.0
143
25.399999999999999
144
1.0
145
0.0
146
1.0
147
0.09
 71
     0
 72
     0
 73
     1
 74
     1
 75
     0
 76
     0
 77
     0
 78
     0
170
     0
171
     2
172
     0
173
     0
174
     0
175
     0
176
     0
177
     0
178
     0
  0
ENDTAB
  0
ENDSEC
  0
SECTION
  2
BLOCKS
  0
BLOCK
  8
0
  2
$MODEL_SPACE
 70
     0
 10
0.0
 20
0.0
 30
0.0
  3
$MODEL_SPACE
  1

  0
ENDBLK
  5
6D
  8
0
  0
BLOCK
 67
     1
  8
0
  2
$PAPER_SPACE
 70
     0
 10
0.0
 20
0.0
 30
0.0
  3
$PAPER_SPACE
  1

  0
ENDBLK
  5
69
 67
     1
  8
0
  0
BLOCK
  8
0
  2
_ORIGIN
 70
     0
 10
0.0
 20
0.0
 30
0.0
  3
_ORIGIN
  1

  0
CIRCLE
  5
90
  8
0
  6
CONTINUOUS
 62
     7
 10
0.0
 20
0.0
 30
0.0
 40
0.5
  0
LINE
  5
91
  8
0
  6
CONTINUOUS
 62
     7
 10
0.0
 20
0.0
 30
0.0
 11
-1.0
 21
0.0
 31
0.0
  0
ENDBLK
  5
92
  8
0
  0
ENDSEC
  0
SECTION
  2
ENTITIES
  0
TEXT
  5
93
  8
ETC
  6
CONTINUOUS
 62
    61
 10
892.66888196299351
 20
1110.054789169307
 30
0.0
 40
64.0
  1
LGH-N50CS_5
 41
0.9
  0
TEXT
  5
94
  8
ETC
  6
CONTINUOUS
 62
    61
 10
888.48288796299323
 20
992.09947915447583
 30
0.0
 40
64.0
  1
ロスナイ
 41
0.9
  0
TEXT
  5
95
  8
ETC
  6
CONTINUOUS
 62
    61
 10
939.18428621154897
 20
883.95070626825031
 30
0.0
 40
40.0
  1
LGH-N50CS
 41
0.9
  0
TEXT
  5
96
  8
ETC
  6
CONTINUOUS
 62
    61
 10
939.18428621154897
 20
817.95070626825031
 30
0.0
 40
40.0
  1
LGH-N50CSD
 41
0.9
  0
TEXT
  5
97
  8
ETC
  6
CONTINUOUS
 62
    61
 10
939.18428621154897
 20
751.95070626825043
 30
0.0
 40
40.0
  1
LGH-N50CX
 41
0.9
  0
TEXT
  5
98
  8
ETC
  6
CONTINUOUS
 62
    61
 10
939.18428621154897
 20
685.95070626825054
 30
0.0
 40
40.0
  1
LGH-N50CXD
 41
0.9
  0
POINT
  5
99
  8
ARRANGE
  6
CONTINUOUS
 62
     1
 10
0.0
 20
0.0
 30
0.0
 39
50.0
  0
LINE
  5
9A
  8
NOTE
  6
CONTINUOUS
 62
     4
 10
270.90005210238098
 20
313.6444108690676
 30
0.0
 11
270.90005210238098
 21
260.6444268690675
 31
0.0
  0
LINE
  5
9B
  8
NOTE
  6
CONTINUOUS
 62
     4
 10
244.40006010238099
 20
287.14441886906758
 30
0.0
 11
297.400044102381
 21
287.14441886906758
 31
0.0
  0
LINE
  5
9C
  8
NOTE
  6
CONTINUOUS
 62
     4
 10
-268.73331326282278
 20
316.64440986906749
 30
0.0
 11
-268.73331326282278
 21
257.6444278690675
 31
0.0
  0
LINE
  5
9D
  8
NOTE
  6
CONTINUOUS
 62
     4
 10
-295.23330526282268
 20
287.14441886906752
 30
0.0
 11
-242.2333212628229
 21
287.14441886906752
 31
0.0
  0
LINE
  5
9E
  8
BASIS
  6
DASHDOT
 62
     6
 10
-361.87516602563278
 20
-0.0000000000000088
 30
0.0
 11
373.28588424744379
 21
0.0000000000000769
 31
0.0
  0
CIRCLE
  5
9F
  8
FIX
  6
CONTINUOUS
 62
    11
 39
50.0
 10
-268.73331326282278
 20
287.14441886906752
 30
0.0
 40
6.5
  0
CIRCLE
  5
A0
  8
FIX
  6
CONTINUOUS
 62
    11
 39
50.0
 10
270.90005210238093
 20
287.14441886906758
 30
0.0
 40
6.5
  0
LINE
  5
A1
  8
BASIS
  6
DASHDOT
 62
     6
 10
0.0000000000000033
 20
482.11732438170191
 30
0.0
 11
0.0000000000000066
 21
-75.382918050122484
 31
0.0
  0
TEXT
  5
A2
  8
NOTE
  6
CONTINUOUS
 62
     4
 10
639.62407555303798
 20
-41.765684523819793
 30
0.0
 40
64.0
  1
AH 4-\U+03C611\U+00D720
 41
0.9
 72
     2
 11
1240.3097898387521
 21
-41.765684523819793
 31
0.0
  0
CIRCLE
  5
A3
  8
ARRANGE
  6
CONTINUOUS
 62
     1
 10
0.0
 20
0.0000000000000568
 30
0.0
 40
40.0
  0
LINE
  5
A4
  8
SIZE
  6
CONTINUOUS
 62
    30
 10
270.90005210238098
 20
333.6444108690676
 30
0.0
 11
270.90005210238098
 21
679.02605567068258
 31
0.0
  0
LINE
  5
A5
  8
SIZE
  6
CONTINUOUS
 62
    30
 10
-268.73331326282278
 20
336.64440986906749
 30
0.0
 11
-268.73331326282278
 21
679.02605567068258
 31
0.0
  0
LINE
  5
A6
  8
SIZE
  6
CONTINUOUS
 62
    30
 10
258.90005210238098
 20
659.02605567068258
 30
0.0
 11
-256.73331326282278
 21
659.02605567068258
 31
0.0
  0
CIRCLE
  5
A7
  8
SIZE
  6
CONTINUOUS
 62
    30
 10
270.90005210238098
 20
659.02605567068258
 30
0.0
 40
6.0
  0
LINE
  5
A8
  8
SIZE
  6
CONTINUOUS
 62
    30
 10
270.90005210238098
 20
659.02605567068258
 30
0.0
 11
258.90005210238098
 21
659.02605567068258
 31
0.0
  0
CIRCLE
  5
A9
  8
SIZE
  6
CONTINUOUS
 62
    30
 10
-268.73331326282278
 20
659.02605567068258
 30
0.0
 40
6.0
  0
LINE
  5
AA
  8
SIZE
  6
CONTINUOUS
 62
    30
 10
-268.73331326282278
 20
659.02605567068258
 30
0.0
 11
-256.73331326282278
 21
659.02605567068258
 31
0.0
  0
TEXT
  5
AB
  8
SIZE
  6
CONTINUOUS
 62
    30
 10
-72.973773437363747
 20
684.02605567068258
 30
0.0
 40
64.0
  1
540
 41
0.9
 72
     1
 11
1.0833694197791031
 21
684.02605567068258
 31
0.0
  0
POINT
  5
AC
  8
DEFPOINTS
  6
CONTINUOUS
 62
    30
 10
270.90005210238098
 20
313.6444108690676
 30
0.0
  0
POINT
  5
AD
  8
DEFPOINTS
  6
CONTINUOUS
 62
    30
 10
-268.73331326282278
 20
316.64440986906749
 30
0.0
  0
POINT
  5
AE
  8
DEFPOINTS
  6
CONTINUOUS
 62
    30
 10
-268.73331326282278
 20
659.02605567068258
 30
0.0
  0
LINE
  5
AF
  8
SIZE
  6
CONTINUOUS
 62
    30
 10
376.01353762120362
 20
-64.006807489511573
 30
0.0
 11
376.01353762120362
 21
-195.8423979367308
 31
0.0
  0
LINE
  5
B0
  8
SIZE
  6
CONTINUOUS
 62
    30
 10
-394.1055934452761
 20
-64.006807489511573
 30
0.0
 11
-394.1055934452761
 21
-195.8423979367308
 31
0.0
  0
LINE
  5
B1
  8
SIZE
  6
CONTINUOUS
 62
    30
 10
364.01353762120362
 20
-175.8423979367308
 30
0.0
 11
-382.1055934452761
 21
-175.8423979367308
 31
0.0
  0
CIRCLE
  5
B2
  8
SIZE
  6
CONTINUOUS
 62
    30
 10
376.01353762120362
 20
-175.8423979367308
 30
0.0
 40
6.0
  0
LINE
  5
B3
  8
SIZE
  6
CONTINUOUS
 62
    30
 10
376.01353762120362
 20
-175.8423979367308
 30
0.0
 11
364.01353762120362
 21
-175.8423979367308
 31
0.0
  0
CIRCLE
  5
B4
  8
SIZE
  6
CONTINUOUS
 62
    30
 10
-394.1055934452761
 20
-175.8423979367308
 30
0.0
 40
6.0
  0
LINE
  5
B5
  8
SIZE
  6
CONTINUOUS
 62
    30
 10
-394.1055934452761
 20
-175.8423979367308
 30
0.0
 11
-382.1055934452761
 21
-175.8423979367308
 31
0.0
  0
TEXT
  5
B6
  8
SIZE
  6
CONTINUOUS
 62
    30
 10
-89.065747427384835
 20
-150.8423979367308
 30
0.0
 40
64.0
  1
770
 41
0.9
 72
     1
 11
-15.00860457024195
 21
-150.8423979367308
 31
0.0
  0
POINT
  5
B7
  8
DEFPOINTS
  6
CONTINUOUS
 62
    30
 10
376.01353762120362
 20
-44.006807489511559
 30
0.0
  0
POINT
  5
B8
  8
DEFPOINTS
  6
CONTINUOUS
 62
    30
 10
-394.1055934452761
 20
-44.006807489511559
 30
0.0
  0
POINT
  5
B9
  8
DEFPOINTS
  6
CONTINUOUS
 62
    30
 10
-394.1055934452761
 20
-175.8423979367308
 30
0.0
  0
LINE
  5
BA
  8
SIZE
  6
CONTINUOUS
 62
    30
 10
316.50123772538069
 20
399.56185873905088
 30
0.0
 11
706.11701596919295
 21
399.56185873905082
 31
0.0
  0
LINE
  5
BB
  8
SIZE
  6
CONTINUOUS
 62
    30
 10
316.50123568469968
 20
191.52967270898529
 30
0.0
 11
706.11701596919283
 21
191.52967270898509
 31
0.0
  0
LINE
  5
BC
  8
SIZE
  6
CONTINUOUS
 62
    30
 10
686.11701596919272
 20
203.5296727089852
 30
0.0
 11
686.11701596919295
 21
387.56185873905082
 31
0.0
  0
LINE
  5
BD
  8
SIZE
  6
CONTINUOUS
 62
    30
 10
686.11701596919295
 20
399.56185873905082
 30
0.0
 11
686.11701596919295
 21
739.08816744067042
 31
0.0
  0
CIRCLE
  5
BE
  8
SIZE
  6
CONTINUOUS
 62
    30
 10
686.11701596919272
 20
191.52967270898509
 30
0.0
 40
6.0
  0
LINE
  5
BF
  8
SIZE
  6
CONTINUOUS
 62
    30
 10
686.11701596919272
 20
191.52967270898509
 30
0.0
 11
686.11701596919272
 21
203.5296727089852
 31
0.0
  0
CIRCLE
  5
C0
  8
SIZE
  6
CONTINUOUS
 62
    30
 10
686.11701596919295
 20
399.56185873905082
 30
0.0
 40
6.0
  0
LINE
  5
C1
  8
SIZE
  6
CONTINUOUS
 62
    30
 10
686.11701596919295
 20
399.56185873905082
 30
0.0
 11
686.11701596919295
 21
387.56185873905082
 31
0.0
  0
TEXT
  5
C2
  8
SIZE
  6
CONTINUOUS
 62
    30
 10
650.45034930252621
 20
495.48245315495632
 30
0.0
 40
64.0
  1
\U+03C6208
 50
90.0
 41
0.9
 72
     1
 11
650.45034930252621
 21
609.85959601209925
 31
0.0
  0
POINT
  5
C3
  8
DEFPOINTS
  6
CONTINUOUS
 62
    30
 10
296.50123772538069
 20
399.56185873905088
 30
0.0
  0
POINT
  5
C4
  8
DEFPOINTS
  6
CONTINUOUS
 62
    30
 10
296.50123568469968
 20
191.52967270898529
 30
0.0
  0
POINT
  5
C5
  8
DEFPOINTS
  6
CONTINUOUS
 62
    30
 10
686.11701596919272
 20
191.52967270898509
 30
0.0
  0
LINE
  5
C6
  8
SIZE
  6
CONTINUOUS
 62
    30
 10
393.0130734221998
 20
391.56062104232433
 30
0.0
 11
543.66902472268896
 21
391.56062104232433
 31
0.0
  0
LINE
  5
C7
  8
SIZE
  6
CONTINUOUS
 62
    30
 10
393.0130734221998
 20
199.5309106423189
 30
0.0
 11
543.66902472268896
 21
199.5309106423189
 31
0.0
  0
LINE
  5
C8
  8
SIZE
  6
CONTINUOUS
 62
    30
 10
523.66902472268885
 20
211.53091064231899
 30
0.0
 11
523.66902472268885
 21
379.56062104232433
 31
0.0
  0
LINE
  5
C9
  8
SIZE
  6
CONTINUOUS
 62
    30
 10
523.66902472268885
 20
391.56062104232433
 30
0.0
 11
523.66902472268885
 21
736.15640244991732
 31
0.0
  0
CIRCLE
  5
CA
  8
SIZE
  6
CONTINUOUS
 62
    30
 10
523.66902472268885
 20
199.5309106423189
 30
0.0
 40
6.0
  0
LINE
  5
CB
  8
SIZE
  6
CONTINUOUS
 62
    30
 10
523.66902472268885
 20
199.5309106423189
 30
0.0
 11
523.66902472268885
 21
211.53091064231899
 31
0.0
  0
CIRCLE
  5
CC
  8
SIZE
  6
CONTINUOUS
 62
    30
 10
523.66902472268885
 20
391.56062104232433
 30
0.0
 40
6.0
  0
LINE
  5
CD
  8
SIZE
  6
CONTINUOUS
 62
    30
 10
523.66902472268885
 20
391.56062104232433
 30
0.0
 11
523.66902472268885
 21
379.56062104232433
 31
0.0
  0
TEXT
  5
CE
  8
SIZE
  6
CONTINUOUS
 62
    30
 10
488.00235805602227
 20
503.52211673563158
 30
0.0
 40
64.0
  1
\U+03C6192
 50
90.0
 41
0.9
 72
     1
 11
488.00235805602227
 21
612.41354530706019
 31
0.0
  0
POINT
  5
CF
  8
DEFPOINTS
  6
CONTINUOUS
 62
    30
 10
373.0130734221998
 20
391.56062104232433
 30
0.0
  0
POINT
  5
D0
  8
DEFPOINTS
  6
CONTINUOUS
 62
    30
 10
373.0130734221998
 20
199.5309106423189
 30
0.0
  0
POINT
  5
D1
  8
DEFPOINTS
  6
CONTINUOUS
 62
    30
 10
523.66902472268885
 20
199.5309106423189
 30
0.0
  0
LINE
  5
D2
  8
SIZE
  6
CONTINUOUS
 62
    30
 10
288.5
 20
474.57031827234931
 30
0.0
 11
288.5
 21
837.65059594665297
 31
0.0
  0
LINE
  5
D3
  8
SIZE
  6
CONTINUOUS
 62
    30
 10
-287.08903886849248
 20
474.57031827234931
 30
0.0
 11
-287.08903886849248
 21
837.65059594665297
 31
0.0
  0
LINE
  5
D4
  8
SIZE
  6
CONTINUOUS
 62
    30
 10
276.5
 20
817.65059594665308
 30
0.0
 11
-275.08903886849248
 21
817.65059594665308
 31
0.0
  0
CIRCLE
  5
D5
  8
SIZE
  6
CONTINUOUS
 62
    30
 10
288.5
 20
817.65059594665308
 30
0.0
 40
6.0
  0
LINE
  5
D6
  8
SIZE
  6
CONTINUOUS
 62
    30
 10
288.5
 20
817.65059594665308
 30
0.0
 11
276.5
 21
817.65059594665308
 31
0.0
  0
CIRCLE
  5
D7
  8
SIZE
  6
CONTINUOUS
 62
    30
 10
-287.08903886849248
 20
817.65059594665308
 30
0.0
 40
6.0
  0
LINE
  5
D8
  8
SIZE
  6
CONTINUOUS
 62
    30
 10
-287.08903886849248
 20
817.65059594665308
 30
0.0
 11
-275.08903886849248
 21
817.65059594665308
 31
0.0
  0
TEXT
  5
D9
  8
SIZE
  6
CONTINUOUS
 62
    30
 10
-73.35166229138909
 20
842.65059594665308
 30
0.0
 40
64.0
  1
577
 41
0.9
 72
     1
 11
0.7054805657537601
 21
842.65059594665308
 31
0.0
  0
POINT
  5
DA
  8
DEFPOINTS
  6
CONTINUOUS
 62
    30
 10
288.5
 20
454.5703182723492
 30
0.0
  0
POINT
  5
DB
  8
DEFPOINTS
  6
CONTINUOUS
 62
    30
 10
-287.08903886849248
 20
454.5703182723492
 30
0.0
  0
POINT
  5
DC
  8
DEFPOINTS
  6
CONTINUOUS
 62
    30
 10
-287.08903886849248
 20
817.65059594665308
 30
0.0
  0
LINE
  5
DD
  8
SIZE
  6
CONTINUOUS
 62
    30
 10
-287.08903886849248
 20
474.57031827234931
 30
0.0
 11
-287.08903886849248
 21
837.65059594665297
 31
0.0
  0
LINE
  5
DE
  8
SIZE
  6
CONTINUOUS
 62
    30
 10
-394.1055934452761
 20
-20.00618862682899
 30
0.0
 11
-394.10559344527599
 21
837.65059594665297
 31
0.0
  0
LINE
  5
DF
  8
SIZE
  6
CONTINUOUS
 62
    30
 10
-275.08903886849248
 20
817.65059594665308
 30
0.0
 11
-263.08903886849248
 21
817.65059594665308
 31
0.0
  0
LINE
  5
E0
  8
SIZE
  6
CONTINUOUS
 62
    30
 10
-406.10559344527599
 20
817.65059594665308
 30
0.0
 11
-418.10559344527599
 21
817.65059594665308
 31
0.0
  0
LINE
  5
E1
  8
SIZE
  6
CONTINUOUS
 62
    30
 10
-287.08903886849248
 20
817.65059594665308
 30
0.0
 11
-394.10559344527599
 21
817.65059594665308
 31
0.0
  0
CIRCLE
  5
E2
  8
SIZE
  6
CONTINUOUS
 62
    30
 10
-287.08903886849248
 20
817.65059594665308
 30
0.0
 40
6.0
  0
LINE
  5
E3
  8
SIZE
  6
CONTINUOUS
 62
    30
 10
-287.08903886849248
 20
817.65059594665308
 30
0.0
 11
-275.08903886849248
 21
817.65059594665308
 31
0.0
  0
CIRCLE
  5
E4
  8
SIZE
  6
CONTINUOUS
 62
    30
 10
-394.10559344527599
 20
817.65059594665308
 30
0.0
 40
6.0
  0
LINE
  5
E5
  8
SIZE
  6
CONTINUOUS
 62
    30
 10
-394.10559344527599
 20
817.65059594665308
 30
0.0
 11
-406.10559344527599
 21
817.65059594665308
 31
0.0
  0
TEXT
  5
E6
  8
SIZE
  6
CONTINUOUS
 62
    30
 10
-409.16874472831279
 20
842.65059594665308
 30
0.0
 40
64.0
  1
107
 41
0.9
 72
     1
 11
-340.59731615688418
 21
842.65059594665308
 31
0.0
  0
POINT
  5
E7
  8
DEFPOINTS
  6
CONTINUOUS
 62
    30
 10
-287.08903886849248
 20
454.5703182723492
 30
0.0
  0
POINT
  5
E8
  8
DEFPOINTS
  6
CONTINUOUS
 62
    30
 10
-394.1055934452761
 20
-40.00618862682898
 30
0.0
  0
POINT
  5
E9
  8
DEFPOINTS
  6
CONTINUOUS
 62
    30
 10
-394.10559344527599
 20
817.65059594665308
 30
0.0
  0
LINE
  5
EA
  8
SIZE
  6
CONTINUOUS
 62
    30
 10
270.90005210238098
 20
333.6444108690676
 30
0.0
 11
270.90005210238098
 21
508.11732438170191
 31
0.0
  0
LINE
  5
EB
  8
SIZE
  6
CONTINUOUS
 62
    30
 10
0.0000000000000078
 20
448.11732438170191
 30
0.0
 11
0.0000000000000115
 21
508.11732438170191
 31
0.0
  0
LINE
  5
EC
  8
SIZE
  6
CONTINUOUS
 62
    30
 10
258.90005210238098
 20
488.11732438170191
 30
0.0
 11
12.000000000000011
 21
488.11732438170191
 31
0.0
  0
CIRCLE
  5
ED
  8
SIZE
  6
CONTINUOUS
 62
    30
 10
270.90005210238098
 20
488.11732438170191
 30
0.0
 40
6.0
  0
LINE
  5
EE
  8
SIZE
  6
CONTINUOUS
 62
    30
 10
270.90005210238098
 20
488.11732438170191
 30
0.0
 11
258.90005210238098
 21
488.11732438170191
 31
0.0
  0
CIRCLE
  5
EF
  8
SIZE
  6
CONTINUOUS
 62
    30
 10
0.0000000000000103
 20
488.11732438170191
 30
0.0
 40
6.0
  0
LINE
  5
F0
  8
SIZE
  6
CONTINUOUS
 62
    30
 10
0.0000000000000103
 20
488.11732438170191
 30
0.0
 11
12.000000000000011
 21
488.11732438170191
 31
0.0
  0
TEXT
  5
F1
  8
SIZE
  6
CONTINUOUS
 62
    30
 10
3.5011770332172309
 20
529.87922914360684
 30
0.0
 40
64.0
  1
(270)
 41
0.9
 72
     1
 11
114.58689131893151
 21
529.87922914360684
 31
0.0
  0
POINT
  5
F2
  8
DEFPOINTS
  6
CONTINUOUS
 62
    30
 10
270.90005210238098
 20
313.6444108690676
 30
0.0
  0
POINT
  5
F3
  8
DEFPOINTS
  6
CONTINUOUS
 62
    30
 10
0.0000000000000066
 20
428.11732438170191
 30
0.0
  0
POINT
  5
F4
  8
DEFPOINTS
  6
CONTINUOUS
 62
    30
 10
0.0000000000000103
 20
488.11732438170191
 30
0.0
  0
TEXT
  5
F5
  8
NOTE
  6
CONTINUOUS
 62
     4
 10
403.14304447422029
 20
212.74572995822919
 30
0.0
 40
64.0
  1
OA
 41
0.9
  0
TEXT
  5
F6
  8
NOTE
  6
CONTINUOUS
 62
     4
 10
407.00159254422567
 20
308.79423554382078
 30
0.0
 40
64.0
  1
EA
 41
0.9
  0
LINE
  5
F7
  8
DETAIL
  6
CONTINUOUS
 62
     5
 10
-285.79230207204267
 20
287.1392899956731
 30
0.0
 11
-285.58880679498628
 21
287.14441886906758
 31
0.0
  0
LINE
  5
F8
  8
DETAIL
  6
CONTINUOUS
 62
     5
 10
-289.58429473695918
 20
283.34734835363213
 30
0.0
 11
-289.568687233113
 21
283.55062058716732
 31
0.0
  0
LINE
  5
F9
  8
DETAIL
  6
CONTINUOUS
 62
     5
 10
-289.39857428554069
 20
284.36471071368322
 30
0.0
 11
-289.32649303517837
 21
284.57044152153958
 31
0.0
  0
LINE
  5
FA
  8
DETAIL
  6
CONTINUOUS
 62
     5
 10
-287.42243217618858
 20
283.94320965295219
 30
0.0
 11
-287.33810309167438
 21
284.11431804400678
 31
0.0
  0
LINE
  5
FB
  8
DETAIL
  6
CONTINUOUS
 62
     5
 10
-285.80403533907082
 20
285.1314690153572
 30
0.0
 11
-285.58880679498628
 21
285.14410943772651
 31
0.0
  0
LINE
  5
FC
  8
DETAIL
  6
CONTINUOUS
 62
     5
 10
121.87422436925731
 20
125.719447759811
 30
0.0
 11
125.074719459401
 21
125.719447759811
 31
0.0
  0
LINE
  5
FD
  8
DETAIL
  6
CONTINUOUS
 62
     5
 10
271.89743171986743
 20
125.719447759811
 30
0.0
 11
275.0979268100109
 21
125.719447759811
 31
0.0
  0
LINE
  5
FE
  8
DETAIL
  6
CONTINUOUS
 62
     5
 10
277.9984047829945
 20
125.719447759811
 30
0.0
 11
282.999119766288
 21
125.719447759811
 31
0.0
  0
LINE
  5
FF
  8
DETAIL
  6
CONTINUOUS
 62
     5
 10
-286.58896151066477
 20
450.06962205183032
 30
0.0
 11
-286.58896151066477
 21
449.16946977270999
 31
0.0
  0
LINE
  5
100
  8
DETAIL
  6
CONTINUOUS
 62
     5
 10
-286.58896151066477
 20
445.96900075259691
 30
0.0
 11
-286.58896151066477
 21
445.06884847347692
 31
0.0
  0
LINE
  5
101
  8
DETAIL
  6
CONTINUOUS
 62
     5
 10
-287.08903886849248
 20
450.06962205183032
 30
0.0
 11
-287.08903886849248
 21
445.06884847347692
 31
0.0
  0
LINE
  5
102
  8
DETAIL
  6
CONTINUOUS
 62
     5
 10
-289.58942565767711
 20
238.03682232963479
 30
0.0
 11
-286.58896151066477
 21
238.03682232963479
 31
0.0
  0
LINE
  5
103
  8
DETAIL
  6
CONTINUOUS
 62
     5
 10
-287.58911622634292
 20
253.4392049509641
 30
0.0
 11
-286.58896151066477
 21
253.4392049509641
 31
0.0
  0
LINE
  5
104
  8
DETAIL
  6
CONTINUOUS
 62
     5
 10
-291.5897350890109
 20
254.5393751382019
 30
0.0
 11
-289.58942565767711
 21
254.5393751382019
 31
0.0
  0
LINE
  5
105
  8
DETAIL
  6
CONTINUOUS
 62
     5
 10
-289.58942565767711
 20
264.54092229490948
 30
0.0
 11
-291.5897350890109
 21
264.54092229490948
 31
0.0
  0
LINE
  5
106
  8
DETAIL
  6
CONTINUOUS
 62
     5
 10
-291.5897350890109
 20
254.5393751382019
 30
0.0
 11
-291.5897350890109
 21
264.54092229490948
 31
0.0
  0
LINE
  5
107
  8
DETAIL
  6
CONTINUOUS
 62
     5
 10
-289.58942565767711
 20
238.03682232963479
 30
0.0
 11
-289.58942565767711
 21
283.14380000638488
 31
0.0
  0
LINE
  5
108
  8
DETAIL
  6
CONTINUOUS
 62
     5
 10
-287.58911622634292
 20
238.03682232963479
 30
0.0
 11
-287.58911622634292
 21
283.14380000638488
 31
0.0
  0
LINE
  5
109
  8
DETAIL
  6
CONTINUOUS
 62
     5
 10
-287.33810309167438
 20
284.11431804400678
 30
0.0
 11
-287.23949720165592
 21
284.27360485836039
 31
0.0
  0
LINE
  5
10A
  8
DETAIL
  6
CONTINUOUS
 62
     5
 10
-287.23949720165592
 20
284.27360485836039
 30
0.0
 11
-287.12772065574791
 21
284.4218056432972
 31
0.0
  0
LINE
  5
10B
  8
DETAIL
  6
CONTINUOUS
 62
     5
 10
-287.12772065574791
 20
284.4218056432972
 30
0.0
 11
-287.00323244146279
 21
284.55823908692412
 31
0.0
  0
LINE
  5
10C
  8
DETAIL
  6
CONTINUOUS
 62
     5
 10
-287.00323244146279
 20
284.55823908692412
 30
0.0
 11
-286.86680109064667
 21
284.68272379668002
 31
0.0
  0
LINE
  5
10D
  8
DETAIL
  6
CONTINUOUS
 62
     5
 10
-286.86680109064667
 20
284.68272379668002
 30
0.0
 11
-286.71860411430492
 21
284.79449556884981
 31
0.0
  0
ARC
  5
10E
  8
DETAIL
  6
CONTINUOUS
 62
     5
 10
-285.58880679498628
 20
283.14380000638488
 30
0.0
 40
4.000618862690219
 50
90.0
 51
180.0
  0
ARC
  5
10F
  8
DETAIL
  6
CONTINUOUS
 62
     5
 10
-285.58880679498628
 20
283.14380000638488
 30
0.0
 40
2.000309431356031
 50
90.0
 51
180.0
  0
LINE
  5
110
  8
DETAIL
  6
CONTINUOUS
 62
     5
 10
-287.58911622634292
 20
279.6711268575412
 30
0.0
 11
-282.11613364614129
 21
285.14410943772651
 31
0.0
  0
LINE
  5
111
  8
DETAIL
  6
CONTINUOUS
 62
     5
 10
-284.08857472148082
 20
271.74203624773861
 30
0.0
 11
-284.08857472148082
 21
283.17166836238948
 31
0.0
  0
ARC
  5
112
  8
DETAIL
  6
CONTINUOUS
 62
     5
 10
-282.08826529014692
 20
271.74203624773861
 30
0.0
 40
2.0003094313416998
 50
180.0
 51
270.0
  0
LINE
  5
113
  8
DETAIL
  6
CONTINUOUS
 62
     5
 10
-254.58401060920869
 20
269.74172681639681
 30
0.0
 11
-282.08826529014692
 21
269.74172681639681
 31
0.0
  0
LINE
  5
114
  8
DETAIL
  6
CONTINUOUS
 62
     5
 10
-248.5830823151841
 20
283.14380000638488
 30
0.0
 11
-248.5830823151841
 21
280.14333585937288
 31
0.0
  0
LINE
  5
115
  8
DETAIL
  6
CONTINUOUS
 62
     5
 10
-250.5833917465184
 20
280.14333585937288
 30
0.0
 11
-250.5833917465184
 21
283.14380000638488
 31
0.0
  0
LINE
  5
116
  8
DETAIL
  6
CONTINUOUS
 62
     5
 10
-252.58370117785219
 20
271.74203624773861
 30
0.0
 11
-252.58370117785219
 21
285.14410943772651
 31
0.0
  0
LINE
  5
117
  8
DETAIL
  6
CONTINUOUS
 62
     5
 10
-278.78775472843739
 20
274.24242303691568
 30
0.0
 11
-276.78744529708138
 21
274.24242303691568
 31
0.0
  0
LINE
  5
118
  8
DETAIL
  6
CONTINUOUS
 62
     5
 10
-260.78496984636428
 20
274.24242303691568
 30
0.0
 11
-258.78466041500809
 21
274.24242303691568
 31
0.0
  0
LINE
  5
119
  8
DETAIL
  6
CONTINUOUS
 62
     5
 10
-258.78466041500809
 20
279.24319661526857
 30
0.0
 11
-260.78496984636428
 21
279.24319661526857
 31
0.0
  0
LINE
  5
11A
  8
DETAIL
  6
CONTINUOUS
 62
     5
 10
-276.78744529708138
 20
279.24319661526857
 30
0.0
 11
-278.78775472843739
 21
279.24319661526857
 31
0.0
  0
LINE
  5
11B
  8
DETAIL
  6
CONTINUOUS
 62
     5
 10
-250.5833917465184
 20
280.14333585937288
 30
0.0
 11
-248.5830823151841
 21
280.14333585937288
 31
0.0
  0
LINE
  5
11C
  8
DETAIL
  6
CONTINUOUS
 62
     5
 10
-285.58880679498628
 20
285.14410943772651
 30
0.0
 11
-252.58370117785219
 21
285.14410943772651
 31
0.0
  0
LINE
  5
11D
  8
DETAIL
  6
CONTINUOUS
 62
     5
 10
-285.58880679498628
 20
287.14441886906758
 30
0.0
 11
-252.58370117785219
 21
287.14441886906758
 31
0.0
  0
ARC
  5
11E
  8
DETAIL
  6
CONTINUOUS
 62
     5
 10
-252.58370117785219
 20
283.14380000638488
 30
0.0
 40
4.0006188626830408
 50
0.000000000000007
 51
90.0
  0
ARC
  5
11F
  8
DETAIL
  6
CONTINUOUS
 62
     5
 10
-260.78496984636428
 20
276.74280982609241
 30
0.0
 40
2.50038678917694
 50
90.0
 51
270.0
  0
ARC
  5
120
  8
DETAIL
  6
CONTINUOUS
 62
     5
 10
-258.78466041500809
 20
276.74280982609241
 30
0.0
 40
2.5003867891762681
 50
270.0
 51
90.0
  0
ARC
  5
121
  8
DETAIL
  6
CONTINUOUS
 62
     5
 10
-278.78775472843739
 20
276.74280982609241
 30
0.0
 40
2.50038678917694
 50
90.0
 51
270.0
  0
ARC
  5
122
  8
DETAIL
  6
CONTINUOUS
 62
     5
 10
-276.78744529708138
 20
276.74280982609241
 30
0.0
 40
2.5003867891762681
 50
270.0
 51
90.0
  0
ARC
  5
123
  8
DETAIL
  6
CONTINUOUS
 62
     5
 10
-254.58401060920869
 20
271.74203624773861
 30
0.0
 40
2.000309431356031
 50
270.0
 51
0.000000000000007
  0
ARC
  5
124
  8
DETAIL
  6
CONTINUOUS
 62
     5
 10
-252.58370117785219
 20
283.14380000638488
 30
0.0
 40
2.0003094313416998
 50
0.000000000000007
 51
90.0
  0
LINE
  5
125
  8
DETAIL
  6
CONTINUOUS
 62
     5
 10
-285.58880679498628
 20
137.72130434786061
 30
0.0
 11
-282.58834264797451
 21
140.7217684948719
 31
0.0
  0
LINE
  5
126
  8
DETAIL
  6
CONTINUOUS
 62
     5
 10
-286.98902339692722
 20
140.7217684948719
 30
0.0
 11
-287.58911622634292
 21
140.7217684948719
 31
0.0
  0
LINE
  5
127
  8
DETAIL
  6
CONTINUOUS
 62
     5
 10
-286.98902339692722
 20
137.72130434786061
 30
0.0
 11
-287.58911622634292
 21
137.72130434786061
 31
0.0
  0
LINE
  5
128
  8
DETAIL
  6
CONTINUOUS
 62
     5
 10
-285.58880679498628
 20
137.72130434786061
 30
0.0
 11
-285.58880679498628
 21
125.719447759811
 31
0.0
  0
LINE
  5
129
  8
DETAIL
  6
CONTINUOUS
 62
     5
 10
-287.58911622634292
 20
126.9196334186166
 30
0.0
 11
-287.58911622634292
 21
140.7217684948719
 31
0.0
  0
LINE
  5
12A
  8
DETAIL
  6
CONTINUOUS
 62
     5
 10
-286.98902339692722
 20
126.9196334186166
 30
0.0
 11
-286.98902339692722
 21
140.7217684948719
 31
0.0
  0
ARC
  5
12B
  8
DETAIL
  6
CONTINUOUS
 62
     5
 10
-286.38893056753329
 20
126.9196334186166
 30
0.0
 40
0.6000928294025849
 50
180.0
 51
270.0
  0
LINE
  5
12C
  8
DETAIL
  6
CONTINUOUS
 62
     5
 10
-286.38893056753329
 20
126.3195405892137
 30
0.0
 11
-285.58880679498628
 21
126.3195405892137
 31
0.0
  0
ARC
  5
12D
  8
DETAIL
  6
CONTINUOUS
 62
     5
 10
-286.38893056753329
 20
126.9196334186166
 30
0.0
 40
1.2001856588051441
 50
180.0
 51
270.0
  0
LINE
  5
12E
  8
DETAIL
  6
CONTINUOUS
 62
     5
 10
288.2999690568688
 20
126.3195405892137
 30
0.0
 11
287.49984528434379
 21
126.3195405892137
 31
0.0
  0
LINE
  5
12F
  8
DETAIL
  6
CONTINUOUS
 62
     5
 10
288.2999690568688
 20
125.719447759811
 30
0.0
 11
-286.38893056753329
 21
125.719447759811
 31
0.0
  0
ARC
  5
130
  8
DETAIL
  6
CONTINUOUS
 62
     5
 10
288.2999690568688
 20
126.9196334186166
 30
0.0
 40
1.2001856588092501
 50
270.0
 51
0.000000000000007
  0
ARC
  5
131
  8
DETAIL
  6
CONTINUOUS
 62
     5
 10
288.2999690568688
 20
126.9196334186166
 30
0.0
 40
0.6000928294155468
 50
270.0
 51
0.000000000000007
  0
LINE
  5
132
  8
DETAIL
  6
CONTINUOUS
 62
     5
 10
288.90006188628428
 20
137.72130434786061
 30
0.0
 11
289.50015471567832
 21
137.72130434786061
 31
0.0
  0
LINE
  5
133
  8
DETAIL
  6
CONTINUOUS
 62
     5
 10
288.90006188628428
 20
140.7217684948719
 30
0.0
 11
288.90006188628428
 21
126.9196334186166
 31
0.0
  0
LINE
  5
134
  8
DETAIL
  6
CONTINUOUS
 62
     5
 10
288.90006188628428
 20
140.7217684948719
 30
0.0
 11
289.50015471567832
 21
140.7217684948719
 31
0.0
  0
LINE
  5
135
  8
DETAIL
  6
CONTINUOUS
 62
     5
 10
289.50015471567832
 20
126.9196334186166
 30
0.0
 11
289.50015471567832
 21
140.7217684948719
 31
0.0
  0
LINE
  5
136
  8
DETAIL
  6
CONTINUOUS
 62
     5
 10
287.49984528434379
 20
125.719447759811
 30
0.0
 11
287.49984528434379
 21
137.72130434786061
 31
0.0
  0
LINE
  5
137
  8
DETAIL
  6
CONTINUOUS
 62
     5
 10
284.49938113733168
 20
140.7217684948719
 30
0.0
 11
287.49984528434379
 21
137.72130434786061
 31
0.0
  0
LINE
  5
138
  8
DETAIL
  6
CONTINUOUS
 62
     5
 10
284.49938113733168
 20
140.7217684948719
 30
0.0
 11
-282.58834264797451
 21
140.7217684948719
 31
0.0
  0
LINE
  5
139
  8
DETAIL
  6
CONTINUOUS
 62
     5
 10
287.49984528434379
 20
281.67143628888329
 30
0.0
 11
287.49984528434379
 21
137.72130434786061
 31
0.0
  0
LINE
  5
13A
  8
DETAIL
  6
CONTINUOUS
 62
     5
 10
-285.58880679498628
 20
137.72130434786061
 30
0.0
 11
-285.58880679498628
 21
281.67143628888329
 31
0.0
  0
LINE
  5
13B
  8
DETAIL
  6
CONTINUOUS
 62
     5
 10
-285.58880679498628
 20
287.14441886906758
 30
0.0
 11
-285.58880679498628
 21
452.57000884100711
 31
0.0
  0
LINE
  5
13C
  8
DETAIL
  6
CONTINUOUS
 62
     5
 10
-285.58880679498628
 20
452.57000884100711
 30
0.0
 11
-283.58849736365261
 21
454.5703182723492
 31
0.0
  0
LINE
  5
13D
  8
DETAIL
  6
CONTINUOUS
 62
     5
 10
-283.58849736365261
 20
454.5703182723492
 30
0.0
 11
285.49953585298789
 21
454.5703182723492
 31
0.0
  0
LINE
  5
13E
  8
DETAIL
  6
CONTINUOUS
 62
     5
 10
287.49984528434379
 20
452.57000884100711
 30
0.0
 11
287.49984528434379
 21
287.14441886906758
 31
0.0
  0
LINE
  5
13F
  8
DETAIL
  6
CONTINUOUS
 62
     5
 10
285.49953585298789
 20
454.5703182723492
 30
0.0
 11
287.49984528434379
 21
452.57000884100711
 31
0.0
  0
LINE
  5
140
  8
DETAIL
  6
CONTINUOUS
 62
     5
 10
-286.58896151066477
 20
443.56861639997072
 30
0.0
 11
-287.08903886849248
 21
443.56861639997072
 31
0.0
  0
LINE
  5
141
  8
DETAIL
  6
CONTINUOUS
 62
     5
 10
-286.58896151066477
 20
440.56815225295833
 30
0.0
 11
-287.08903886849248
 21
440.56815225295833
 31
0.0
  0
LINE
  5
142
  8
DETAIL
  6
CONTINUOUS
 62
     5
 10
-286.58896151066477
 20
454.5703182723492
 30
0.0
 11
-286.58896151066477
 21
453.67017902824477
 31
0.0
  0
LINE
  5
143
  8
DETAIL
  6
CONTINUOUS
 62
     5
 10
-287.08903886849248
 20
454.5703182723492
 30
0.0
 11
-287.08903886849248
 21
440.56815225295833
 31
0.0
  0
ARC
  5
144
  8
DETAIL
  6
CONTINUOUS
 62
     5
 10
-286.08888415283678
 20
454.5703182723492
 30
0.0
 40
0.5000773578280862
 50
90.0
 51
180.0
  0
ARC
  5
145
  8
DETAIL
  6
CONTINUOUS
 62
     5
 10
-286.08888415283678
 20
454.5703182723492
 30
0.0
 40
1.0001547156561721
 50
90.0
 51
180.0
  0
LINE
  5
146
  8
DETAIL
  6
CONTINUOUS
 62
     5
 10
-286.08888415283678
 20
455.07039563018373
 30
0.0
 11
-285.58880679498628
 21
455.07039563018373
 31
0.0
  0
LINE
  5
147
  8
DETAIL
  6
CONTINUOUS
 62
     5
 10
-284.58865207933059
 20
453.57016355667741
 30
0.0
 11
-285.58880679498628
 21
454.5703182723492
 31
0.0
  0
LINE
  5
148
  8
DETAIL
  6
CONTINUOUS
 62
     5
 10
-285.58880679498628
 20
455.57047298801962
 30
0.0
 11
-285.58880679498628
 21
454.5703182723492
 31
0.0
  0
LINE
  5
149
  8
DETAIL
  6
CONTINUOUS
 62
     5
 10
298.00146979888632
 20
126.8196179470493
 30
0.0
 11
298.00146979888632
 21
126.3195405892137
 31
0.0
  0
LINE
  5
14A
  8
DETAIL
  6
CONTINUOUS
 62
     5
 10
295.00100565187432
 20
126.8196179470493
 30
0.0
 11
295.00100565187432
 21
126.3195405892137
 31
0.0
  0
LINE
  5
14B
  8
DETAIL
  6
CONTINUOUS
 62
     5
 10
298.00146979888632
 20
126.3195405892137
 30
0.0
 11
289.33936032661808
 21
126.3195405892137
 31
0.0
  0
LINE
  5
14C
  8
DETAIL
  6
CONTINUOUS
 62
     5
 10
298.00146979888632
 20
126.8196179470493
 30
0.0
 11
289.49574662227587
 21
126.8196179470493
 31
0.0
  0
ARC
  5
14D
  8
DETAIL
  6
CONTINUOUS
 62
     5
 10
289.00007735784988
 20
127.3196953048846
 30
0.0
 40
1.0001547156693731
 50
221.3899944611602
 51
246.618484069884
  0
ARC
  5
14E
  8
DETAIL
  6
CONTINUOUS
 62
     5
 10
289.00007735784988
 20
127.3196953048846
 30
0.0
 40
0.5000773578369194
 50
180.0
 51
257.64211062976079
  0
ARC
  5
14F
  8
DETAIL
  6
CONTINUOUS
 62
     5
 10
287.49984528434379
 20
127.3196953048846
 30
0.0
 40
1.0001547156561721
 50
270.0
 51
0.000000000000007
  0
ARC
  5
150
  8
DETAIL
  6
CONTINUOUS
 62
     5
 10
287.49984528434379
 20
127.3196953048846
 30
0.0
 40
0.5000773578280862
 50
270.0
 51
0.000000000000007
  0
LINE
  5
151
  8
DETAIL
  6
CONTINUOUS
 62
     5
 10
287.49984528434379
 20
127.3196953048846
 30
0.0
 11
288.5
 21
127.3196953048846
 31
0.0
  0
LINE
  5
152
  8
DETAIL
  6
CONTINUOUS
 62
     5
 10
288.5
 20
127.3196953048846
 30
0.0
 11
288.5
 21
238.03682232963479
 31
0.0
  0
LINE
  5
153
  8
DETAIL
  6
CONTINUOUS
 62
     5
 10
286.84974471915621
 20
453.22010940619361
 30
0.0
 11
287.49984528434379
 21
453.87020997137893
 31
0.0
  0
LINE
  5
154
  8
DETAIL
  6
CONTINUOUS
 62
     5
 10
286.79973698336272
 20
454.5703182723492
 30
0.0
 11
286.14963641817531
 21
453.92021770716281
 31
0.0
  0
LINE
  5
155
  8
DETAIL
  6
CONTINUOUS
 62
     5
 10
288.5
 20
287.01244043459479
 30
0.0
 11
288.5
 21
454.5703182723492
 31
0.0
  0
LINE
  5
156
  8
DETAIL
  6
CONTINUOUS
 62
     5
 10
287.99992264217173
 20
454.5703182723492
 30
0.0
 11
287.99992264217173
 21
453.87020997137893
 31
0.0
  0
LINE
  5
157
  8
DETAIL
  6
CONTINUOUS
 62
     5
 10
286.79973698336272
 20
455.57047298801962
 30
0.0
 11
286.79973698336272
 21
454.5703182723492
 31
0.0
  0
ARC
  5
158
  8
DETAIL
  6
CONTINUOUS
 62
     5
 10
287.49984528434379
 20
454.5703182723492
 30
0.0
 40
1.0001547156705011
 50
0.000000000000007
 51
90.0
  0
ARC
  5
159
  8
DETAIL
  6
CONTINUOUS
 62
     5
 10
287.49984528434379
 20
454.5703182723492
 30
0.0
 40
0.5000773578349032
 50
0.000000000000007
 51
90.0
  0
LINE
  5
15A
  8
DETAIL
  6
CONTINUOUS
 62
     5
 10
288.5
 20
453.87020997137893
 30
0.0
 11
287.49984528434379
 21
453.87020997137893
 31
0.0
  0
LINE
  5
15B
  8
DETAIL
  6
CONTINUOUS
 62
     5
 10
287.49984528434379
 20
455.07039563018373
 30
0.0
 11
286.79973698336272
 21
455.07039563018373
 31
0.0
  0
LINE
  5
15C
  8
DETAIL
  6
CONTINUOUS
 62
     5
 10
287.49984528434379
 20
455.57047298801962
 30
0.0
 11
-286.08888415283678
 21
455.57047298801962
 31
0.0
  0
LINE
  5
15D
  8
DETAIL
  6
CONTINUOUS
 62
     5
 10
-285.58880679498628
 20
127.3196953048846
 30
0.0
 11
-286.58896151066477
 21
127.3196953048846
 31
0.0
  0
ARC
  5
15E
  8
DETAIL
  6
CONTINUOUS
 62
     5
 10
-285.58880679498628
 20
127.3196953048846
 30
0.0
 40
1.000154715671199
 50
180.0
 51
270.0
  0
ARC
  5
15F
  8
DETAIL
  6
CONTINUOUS
 62
     5
 10
-285.58880679498628
 20
127.3196953048846
 30
0.0
 40
0.5000773578355994
 50
180.0
 51
270.0
  0
LINE
  5
160
  8
DETAIL
  6
CONTINUOUS
 62
     5
 10
-286.58896151066477
 20
238.03682232963479
 30
0.0
 11
-286.58896151066477
 21
127.3196953048846
 31
0.0
  0
LINE
  5
161
  8
DETAIL
  6
CONTINUOUS
 62
     5
 10
-286.58896151066477
 20
280.67128157321241
 30
0.0
 11
-286.58896151066477
 21
248.6015491105764
 31
0.0
  0
LINE
  5
162
  8
DETAIL
  6
CONTINUOUS
 62
     5
 10
-286.58896151066477
 20
238.03682232963479
 30
0.0
 11
-286.58896151066477
 21
248.6015491105764
 31
0.0
  0
LINE
  5
163
  8
DETAIL
  6
CONTINUOUS
 62
     5
 10
-285.58880679498628
 20
454.17025638608038
 30
0.0
 11
-285.18874490872429
 21
454.17025638608038
 31
0.0
  0
LINE
  5
164
  8
DETAIL
  6
CONTINUOUS
 62
     5
 10
-285.03872170136492
 20
453.12009393462642
 30
0.0
 11
-285.58880679498628
 21
453.67017902824477
 31
0.0
  0
LINE
  5
165
  8
DETAIL
  6
CONTINUOUS
 62
     5
 10
-285.58880679498628
 20
453.67017902824477
 30
0.0
 11
-286.58896151066477
 21
453.67017902824477
 31
0.0
  0
ARC
  5
166
  8
DETAIL
  6
CONTINUOUS
 62
     5
 10
-285.58880679498628
 20
453.67017902824477
 30
0.0
 40
0.5000773578499295
 50
90.0
 51
180.0
  0
ARC
  5
167
  8
DETAIL
  6
CONTINUOUS
 62
     5
 10
-285.58880679498628
 20
453.67017902824477
 30
0.0
 40
1.0001547156780151
 50
90.0
 51
180.0
  0
LINE
  5
168
  8
DETAIL
  6
CONTINUOUS
 62
     5
 10
-286.58896151066477
 20
453.67017902824477
 30
0.0
 11
-286.58896151066477
 21
287.01244043459479
 31
0.0
  0
LINE
  5
169
  8
DETAIL
  6
CONTINUOUS
 62
     5
 10
-286.7889924537958
 20
137.52127340472589
 30
0.0
 11
-286.98902339692722
 21
137.52127340472589
 31
0.0
  0
LINE
  5
16A
  8
DETAIL
  6
CONTINUOUS
 62
     5
 10
-286.7889924537958
 20
140.5217375517382
 30
0.0
 11
-286.98902339692722
 21
140.5217375517382
 31
0.0
  0
LINE
  5
16B
  8
DETAIL
  6
CONTINUOUS
 62
     5
 10
-286.7889924537958
 20
127.11966436175069
 30
0.0
 11
-286.7889924537958
 21
140.5217375517382
 31
0.0
  0
ARC
  5
16C
  8
DETAIL
  6
CONTINUOUS
 62
     5
 10
-285.98886868127153
 20
127.11966436175069
 30
0.0
 40
0.8001237725372277
 50
180.0
 51
270.0
  0
ARC
  5
16D
  8
DETAIL
  6
CONTINUOUS
 62
     5
 10
-285.98886868127153
 20
127.11966436175069
 30
0.0
 40
1.6002475450737581
 50
229.1033961113078
 51
270.0
  0
LINE
  5
16E
  8
DETAIL
  6
CONTINUOUS
 62
     5
 10
-285.98886868127153
 20
125.719447759811
 30
0.0
 11
-285.98886868127153
 21
125.0193394588421
 31
0.0
  0
LINE
  5
16F
  8
DETAIL
  6
CONTINUOUS
 62
     5
 10
293.00069622051819
 20
125.0193394588421
 30
0.0
 11
293.00069622051819
 21
123.8191538000379
 31
0.0
  0
LINE
  5
170
  8
DETAIL
  6
CONTINUOUS
 62
     5
 10
301.00193394589883
 20
123.8191538000379
 30
0.0
 11
293.00069622051819
 21
123.8191538000379
 31
0.0
  0
ARC
  5
171
  8
DETAIL
  6
CONTINUOUS
 62
     5
 10
301.00193394589883
 20
121.81884436869611
 30
0.0
 40
2.0003094313416998
 50
0.000000000000007
 51
90.0
  0
LINE
  5
172
  8
DETAIL
  6
CONTINUOUS
 62
     5
 10
303.00224337723279
 20
60.609416775490253
 30
0.0
 11
303.00224337723279
 21
121.81884436869611
 31
0.0
  0
LINE
  5
173
  8
DETAIL
  6
CONTINUOUS
 62
     5
 10
-286.08888415283678
 20
125.0193394588421
 30
0.0
 11
-286.08888415283678
 21
123.8191538000379
 31
0.0
  0
LINE
  5
174
  8
DETAIL
  6
CONTINUOUS
 62
     5
 10
293.00069622051819
 20
125.0193394588421
 30
0.0
 11
-286.08888415283678
 21
125.0193394588421
 31
0.0
  0
LINE
  5
175
  8
DETAIL
  6
CONTINUOUS
 62
     5
 10
-294.09012187819548
 20
123.8191538000379
 30
0.0
 11
-286.08888415283678
 21
123.8191538000379
 31
0.0
  0
ARC
  5
176
  8
DETAIL
  6
CONTINUOUS
 62
     5
 10
-294.09012187819548
 20
121.81884436869611
 30
0.0
 40
2.000309431334188
 50
90.0
 51
180.0
  0
LINE
  5
177
  8
DETAIL
  6
CONTINUOUS
 62
     5
 10
303.00224337723279
 20
60.00929758751095
 30
0.0
 11
303.00224337723279
 21
60.609401399612182
 31
0.0
  0
LINE
  5
178
  8
DETAIL
  6
CONTINUOUS
 62
     5
 10
300.09590634041501
 20
57.214738097746967
 30
0.0
 11
300.09590634041501
 21
56.614645268345889
 31
0.0
  0
LINE
  5
179
  8
DETAIL
  6
CONTINUOUS
 62
     5
 10
281.69894793345111
 20
61.209468599049217
 30
0.0
 11
281.69894793345111
 21
61.709545956884597
 31
0.0
  0
LINE
  5
17A
  8
DETAIL
  6
CONTINUOUS
 62
     5
 10
277.29826718449789
 20
61.209468599049217
 30
0.0
 11
277.29826718449789
 21
61.709545956884597
 31
0.0
  0
LINE
  5
17B
  8
DETAIL
  6
CONTINUOUS
 62
     5
 10
295.46798264484897
 20
57.390501217849128
 30
0.0
 11
292.84920092245602
 21
60.00928294024429
 31
0.0
  0
LINE
  5
17C
  8
DETAIL
  6
CONTINUOUS
 62
     5
 10
292.35206774555382
 20
59.657756699539569
 30
0.0
 11
295.04365293605218
 21
56.96617150904973
 31
0.0
  0
LINE
  5
17D
  8
DETAIL
  6
CONTINUOUS
 62
     5
 10
295.89231235414849
 20
56.614645268345889
 30
0.0
 11
300.09590634041501
 21
56.614645268345889
 31
0.0
  0
LINE
  5
17E
  8
DETAIL
  6
CONTINUOUS
 62
     5
 10
300.09590634041501
 20
57.214738097746967
 30
0.0
 11
295.89231235414849
 21
57.214738097746967
 31
0.0
  0
LINE
  5
17F
  8
DETAIL
  6
CONTINUOUS
 62
     5
 10
303.00221057265799
 20
60.00928294024429
 30
0.0
 11
298.50154715671482
 21
60.00928294024429
 31
0.0
  0
LINE
  5
180
  8
DETAIL
  6
CONTINUOUS
 62
     5
 10
303.00221057265799
 20
60.609375769647428
 30
0.0
 11
298.50154715671482
 21
60.609375769647428
 31
0.0
  0
LINE
  5
181
  8
DETAIL
  6
CONTINUOUS
 62
     5
 10
281.69895876912977
 20
61.709545956884597
 30
0.0
 11
277.29825634831718
 21
61.709545956884597
 31
0.0
  0
ARC
  5
182
  8
DETAIL
  6
CONTINUOUS
 62
     5
 10
293.20072716364962
 20
60.506416117639048
 30
0.0
 40
1.20018565879408
 50
204.4969946766673
 51
225.00000000050659
  0
ARC
  5
183
  8
DETAIL
  6
CONTINUOUS
 62
     5
 10
295.89231235414849
 20
57.81483092714943
 30
0.0
 40
1.2001856588038
 50
224.99999999975131
 51
270.0
  0
ARC
  5
184
  8
DETAIL
  6
CONTINUOUS
 62
     5
 10
295.89231235414849
 20
57.81483092714943
 30
0.0
 40
0.6000928294025849
 50
224.99999999976981
 51
270.0
  0
ARC
  5
185
  8
DETAIL
  6
CONTINUOUS
 62
     5
 10
282.29904076284453
 20
61.209468599049217
 30
0.0
 40
0.6000928294018887
 50
180.0
 51
270.0
  0
ARC
  5
186
  8
DETAIL
  6
CONTINUOUS
 62
     5
 10
276.6981743550823
 20
61.209468599049217
 30
0.0
 40
0.6000928294155468
 50
270.0
 51
0.000000000000007
  0
LINE
  5
187
  8
DETAIL
  6
CONTINUOUS
 62
     5
 10
292.29550477273301
 20
59.718369140282498
 30
0.0
 11
292.30931728492322
 21
59.702778111979839
 31
0.0
  0
LINE
  5
188
  8
DETAIL
  6
CONTINUOUS
 62
     5
 10
292.30931728492322
 20
59.702778111979839
 30
0.0
 11
292.32335310514941
 21
59.687477550110152
 31
0.0
  0
LINE
  5
189
  8
DETAIL
  6
CONTINUOUS
 62
     5
 10
292.32335310514941
 20
59.687477550110152
 30
0.0
 11
292.33760549936483
 21
59.672469711521039
 31
0.0
  0
LINE
  5
18A
  8
DETAIL
  6
CONTINUOUS
 62
     5
 10
292.33760549936483
 20
59.672469711521039
 30
0.0
 11
292.35206774555382
 21
59.657756699539569
 31
0.0
  0
LINE
  5
18B
  8
DETAIL
  6
CONTINUOUS
 62
     5
 10
-77.056548577638296
 20
60.00928294024429
 30
0.0
 11
-74.073540866999792
 21
60.00928294024429
 31
0.0
  0
LINE
  5
18C
  8
DETAIL
  6
CONTINUOUS
 62
     5
 10
298.50154715671482
 20
60.00928294024429
 30
0.0
 11
292.0005415048621
 21
60.00928294024429
 31
0.0
  0
LINE
  5
18D
  8
DETAIL
  6
CONTINUOUS
 62
     5
 10
282.29904076284453
 20
60.00928294024429
 30
0.0
 11
276.6981743550823
 21
60.00928294024429
 31
0.0
  0
LINE
  5
18E
  8
DETAIL
  6
CONTINUOUS
 62
     5
 10
276.6981743550823
 20
60.609375769647428
 30
0.0
 11
282.29904076284453
 21
60.609375769647428
 31
0.0
  0
LINE
  5
18F
  8
DETAIL
  6
CONTINUOUS
 62
     5
 10
298.50154715671482
 20
60.609375769647428
 30
0.0
 11
293.20072716364962
 21
60.609375769647428
 31
0.0
  0
LINE
  5
190
  8
DETAIL
  6
CONTINUOUS
 62
     5
 10
-288.98050028644502
 20
56.614645268345889
 30
0.0
 11
-293.18409427321382
 21
56.614645268345889
 31
0.0
  0
LINE
  5
191
  8
DETAIL
  6
CONTINUOUS
 62
     5
 10
-288.98050028644502
 20
57.214738097746967
 30
0.0
 11
-293.18409427321382
 21
57.214738097746967
 31
0.0
  0
LINE
  5
192
  8
DETAIL
  6
CONTINUOUS
 62
     5
 10
-285.08872943715869
 20
60.00928294024429
 30
0.0
 11
-295.09027659387363
 21
60.00928294024429
 31
0.0
  0
LINE
  5
193
  8
DETAIL
  6
CONTINUOUS
 62
     5
 10
-286.28891509596821
 20
60.609375769647428
 30
0.0
 11
-295.09027659387363
 21
60.609375769647428
 31
0.0
  0
LINE
  5
194
  8
DETAIL
  6
CONTINUOUS
 62
     5
 10
-285.44025567837423
 20
59.657756699539569
 30
0.0
 11
-288.13184086885121
 21
56.96617150904973
 31
0.0
  0
LINE
  5
195
  8
DETAIL
  6
CONTINUOUS
 62
     5
 10
-288.55617057764772
 20
57.390501217849128
 30
0.0
 11
-285.93738885525499
 21
60.00928294024429
 31
0.0
  0
LINE
  5
196
  8
DETAIL
  6
CONTINUOUS
 62
     5
 10
-285.38369270502972
 20
59.718369140282498
 30
0.0
 11
-285.39750521772248
 21
59.702778111979839
 31
0.0
  0
LINE
  5
197
  8
DETAIL
  6
CONTINUOUS
 62
     5
 10
-285.39750521772248
 20
59.702778111979839
 30
0.0
 11
-285.41154103794821
 21
59.687477550110152
 31
0.0
  0
LINE
  5
198
  8
DETAIL
  6
CONTINUOUS
 62
     5
 10
-285.41154103794821
 20
59.687477550110152
 30
0.0
 11
-285.42579343216369
 21
59.672469711521039
 31
0.0
  0
LINE
  5
199
  8
DETAIL
  6
CONTINUOUS
 62
     5
 10
-285.42579343216369
 20
59.672469711521039
 30
0.0
 11
-285.44025567837423
 21
59.657756699539569
 31
0.0
  0
LINE
  5
19A
  8
DETAIL
  6
CONTINUOUS
 62
     5
 10
-293.18409427321382
 20
57.214738097746967
 30
0.0
 11
-293.18409427321382
 21
56.614645268345889
 31
0.0
  0
ARC
  5
19B
  8
DETAIL
  6
CONTINUOUS
 62
     5
 10
-286.28891509596821
 20
60.506416117639048
 30
0.0
 40
1.2001856588087461
 50
315.00000000023027
 51
335.503005323764
  0
ARC
  5
19C
  8
DETAIL
  6
CONTINUOUS
 62
     5
 10
-288.98050028644502
 20
57.81483092714943
 30
0.0
 40
1.2001856587935991
 50
270.0
 51
314.99999999951177
  0
ARC
  5
19D
  8
DETAIL
  6
CONTINUOUS
 62
     5
 10
-288.98050028644502
 20
57.81483092714943
 30
0.0
 40
0.6000928293893346
 50
270.0
 51
314.99999999875638
  0
LINE
  5
19E
  8
DETAIL
  6
CONTINUOUS
 62
     5
 10
298.50154715671482
 20
60.609375769647428
 30
0.0
 11
-296.09039850545707
 21
60.609375769647428
 31
0.0
  0
LINE
  5
19F
  8
DETAIL
  6
CONTINUOUS
 62
     5
 10
-270.38644428111593
 20
61.709545956884597
 30
0.0
 11
-274.78714670192858
 21
61.709545956884597
 31
0.0
  0
LINE
  5
1A0
  8
DETAIL
  6
CONTINUOUS
 62
     5
 10
-270.38645511679488
 20
61.709545956884597
 30
0.0
 11
-270.38645511679488
 21
61.209468599049217
 31
0.0
  0
LINE
  5
1A1
  8
DETAIL
  6
CONTINUOUS
 62
     5
 10
-274.78713586574708
 20
61.709545956884597
 30
0.0
 11
-274.78713586574708
 21
61.209468599049217
 31
0.0
  0
LINE
  5
1A2
  8
DETAIL
  6
CONTINUOUS
 62
     5
 10
-293.59004452036743
 20
60.609375769647428
 30
0.0
 11
-293.59004452036743
 21
60.00928294024429
 31
0.0
  0
LINE
  5
1A3
  8
DETAIL
  6
CONTINUOUS
 62
     5
 10
-296.09043130952932
 20
60.609401399612182
 30
0.0
 11
-296.09043130952932
 21
60.00929758751095
 31
0.0
  0
LINE
  5
1A4
  8
DETAIL
  6
CONTINUOUS
 62
     5
 10
-296.09043130952932
 20
60.609416775490253
 30
0.0
 11
-296.09043130952932
 21
121.81884436869611
 31
0.0
  0
ARC
  5
1A5
  8
DETAIL
  6
CONTINUOUS
 62
     5
 10
-275.38722869516289
 20
61.209468599049217
 30
0.0
 40
0.6000928294155468
 50
270.0
 51
0.000000000000007
  0
ARC
  5
1A6
  8
DETAIL
  6
CONTINUOUS
 62
     5
 10
-269.78636228740061
 20
61.209468599049217
 30
0.0
 40
0.6000928294018887
 50
180.0
 51
270.0
  0
LINE
  5
1A7
  8
DETAIL
  6
CONTINUOUS
 62
     5
 10
376.0135376212038
 20
-44.006807489511559
 30
0.0
 11
376.0135376212038
 21
-40.00618862682898
 31
0.0
  0
LINE
  5
1A8
  8
DETAIL
  6
CONTINUOUS
 62
     5
 10
356.01044330777449
 20
-3.000464147011995
 30
0.0
 11
356.01044330777449
 21
-0.5000773578346413
 31
0.0
  0
LINE
  5
1A9
  8
DETAIL
  6
CONTINUOUS
 62
     5
 10
346.00889615108167
 20
-6.0009282940240487
 30
0.0
 11
346.00889615108167
 21
-25.003867891768049
 31
0.0
  0
LINE
  5
1AA
  8
DETAIL
  6
CONTINUOUS
 62
     5
 10
291.05314096431431
 20
60.00928294024429
 30
0.0
 11
292.10060689465081
 21
0.0000000000000568
 31
0.0
  0
LINE
  5
1AB
  8
DETAIL
  6
CONTINUOUS
 62
     5
 10
287.52612514862039
 20
60.00928294024429
 30
0.0
 11
288.04981822710118
 21
0.0000000000000568
 31
0.0
  0
LINE
  5
1AC
  8
DETAIL
  6
CONTINUOUS
 62
     5
 10
239.54980983054159
 20
60.00928294024429
 30
0.0
 11
239.98368442484269
 21
0.0000000000000568
 31
0.0
  0
LINE
  5
1AD
  8
DETAIL
  6
CONTINUOUS
 62
     5
 10
242.53424101888569
 20
0.0000000000000568
 30
0.0
 11
241.57659357272959
 21
60.00928294024429
 31
0.0
  0
LINE
  5
1AE
  8
DETAIL
  6
CONTINUOUS
 62
     5
 10
356.01044330777449
 20
-0.5000773578346413
 30
0.0
 11
355.51036594994662
 21
0.0000000000000568
 31
0.0
  0
LINE
  5
1AF
  8
DETAIL
  6
CONTINUOUS
 62
     5
 10
356.01044330777449
 20
-3.000464147011995
 30
0.0
 11
346.00889615108167
 21
-6.0009282940240487
 31
0.0
  0
LINE
  5
1B0
  8
DETAIL
  6
CONTINUOUS
 62
     5
 10
-393.10543872959852
 20
-45.006962205182781
 30
0.0
 11
-10.046182627714179
 21
-45.006962205182781
 31
0.0
  0
LINE
  5
1B1
  8
DETAIL
  6
CONTINUOUS
 62
     5
 10
-8.5459505542080407
 20
-45.006962205182781
 30
0.0
 11
375.01338290552548
 21
-45.006962205182781
 31
0.0
  0
LINE
  5
1B2
  8
DETAIL
  6
CONTINUOUS
 62
     5
 10
-9.5461052698637943
 20
-42.0064980581705
 30
0.0
 11
-9.0460279120361449
 21
-42.0064980581705
 31
0.0
  0
LINE
  5
1B3
  8
DETAIL
  6
CONTINUOUS
 62
     5
 10
376.0135376212038
 20
-40.00618862682898
 30
0.0
 11
-394.1055934452761
 21
-40.00618862682898
 31
0.0
  0
LINE
  5
1B4
  8
DETAIL
  6
CONTINUOUS
 62
     5
 10
-5.545486407195761
 20
-39.506111268994061
 30
0.0
 11
-11.54641470122032
 21
-39.506111268994061
 31
0.0
  0
LINE
  5
1B5
  8
DETAIL
  6
CONTINUOUS
 62
     5
 10
-329.0955369266635
 20
-35.005415048474958
 30
0.0
 11
336.00734899436719
 21
-35.005415048474958
 31
0.0
  0
LINE
  5
1B6
  8
DETAIL
  6
CONTINUOUS
 62
     5
 10
355.51036594994662
 20
-3.000464147011995
 30
0.0
 11
355.55682336701437
 21
-3.000791368130364
 31
0.0
  0
LINE
  5
1B7
  8
DETAIL
  6
CONTINUOUS
 62
     5
 10
355.55682336701437
 20
-3.000791368130364
 30
0.0
 11
355.60245887496222
 21
-3.0017470874715282
 31
0.0
  0
LINE
  5
1B8
  8
DETAIL
  6
CONTINUOUS
 62
     5
 10
355.60245887496222
 20
-3.0017470874715282
 30
0.0
 11
355.64744359472428
 21
-3.003338566161061
 31
0.0
  0
LINE
  5
1B9
  8
DETAIL
  6
CONTINUOUS
 62
     5
 10
355.64744359472428
 20
-3.003338566161061
 30
0.0
 11
355.69126416391168
 21
-3.0055440198258911
 31
0.0
  0
LINE
  5
1BA
  8
DETAIL
  6
CONTINUOUS
 62
     5
 10
355.69126416391168
 20
-3.0055440198258911
 30
0.0
 11
355.73358510511252
 21
-3.0083539004921822
 31
0.0
  0
LINE
  5
1BB
  8
DETAIL
  6
CONTINUOUS
 62
     5
 10
355.73358510511252
 20
-3.0083539004921822
 30
0.0
 11
355.77404388773812
 21
-3.0117387561005562
 31
0.0
  0
LINE
  5
1BC
  8
DETAIL
  6
CONTINUOUS
 62
     5
 10
355.77404388773812
 20
-3.0117387561005562
 30
0.0
 11
355.81226688603601
 21
-3.0156784635411782
 31
0.0
  0
LINE
  5
1BD
  8
DETAIL
  6
CONTINUOUS
 62
     5
 10
355.81226688603601
 20
-3.0156784635411782
 30
0.0
 11
355.84795190970362
 21
-3.0201354905067879
 31
0.0
  0
LINE
  5
1BE
  8
DETAIL
  6
CONTINUOUS
 62
     5
 10
355.84795190970362
 20
-3.0201354905067879
 30
0.0
 11
355.88061888501443
 21
-3.025060069298148
 31
0.0
  0
LINE
  5
1BF
  8
DETAIL
  6
CONTINUOUS
 62
     5
 10
355.88061888501443
 20
-3.025060069298148
 30
0.0
 11
355.91042783620901
 21
-3.030468788481528
 31
0.0
  0
LINE
  5
1C0
  8
DETAIL
  6
CONTINUOUS
 62
     5
 10
-349.09863124009291
 20
-10.00154715670709
 30
0.0
 11
-339.09708408337838
 21
-10.00154715670709
 31
0.0
  0
LINE
  5
1C1
  8
DETAIL
  6
CONTINUOUS
 62
     5
 10
355.51036594994662
 20
-0.5000773578346413
 30
0.0
 11
356.01044330777449
 21
-0.5000773578346413
 31
0.0
  0
LINE
  5
1C2
  8
DETAIL
  6
CONTINUOUS
 62
     5
 10
-10.046182627714179
 20
-45.006962205182781
 30
0.0
 11
-9.5461052698637943
 21
-44.50688484734718
 31
0.0
  0
LINE
  5
1C3
  8
DETAIL
  6
CONTINUOUS
 62
     5
 10
-5.545486407195761
 20
-40.00618862682898
 30
0.0
 11
-5.545486407195761
 21
-39.506111268994061
 31
0.0
  0
LINE
  5
1C4
  8
DETAIL
  6
CONTINUOUS
 62
     5
 10
-8.0458731963576522
 20
-40.00618862682898
 30
0.0
 11
-8.0458731963576522
 21
-39.506111268994061
 31
0.0
  0
LINE
  5
1C5
  8
DETAIL
  6
CONTINUOUS
 62
     5
 10
-8.5459505542080407
 20
-45.006962205182781
 30
0.0
 11
-8.5459505542080407
 21
-40.00618862682898
 31
0.0
  0
LINE
  5
1C6
  8
DETAIL
  6
CONTINUOUS
 62
     5
 10
-9.0460279120361449
 20
-44.50688484734718
 30
0.0
 11
-9.0460279120361449
 21
-40.00618862682898
 31
0.0
  0
LINE
  5
1C7
  8
DETAIL
  6
CONTINUOUS
 62
     5
 10
-9.0460279120361449
 20
-39.506111268994061
 30
0.0
 11
-9.0460279120361449
 21
-35.005415048474958
 31
0.0
  0
LINE
  5
1C8
  8
DETAIL
  6
CONTINUOUS
 62
     5
 10
-9.5461052698637943
 20
-35.005415048474958
 30
0.0
 11
-9.5461052698637943
 21
-39.506111268994061
 31
0.0
  0
LINE
  5
1C9
  8
DETAIL
  6
CONTINUOUS
 62
     5
 10
-9.5461052698637943
 20
-40.00618862682898
 30
0.0
 11
-9.5461052698637943
 21
-44.50688484734718
 31
0.0
  0
LINE
  5
1CA
  8
DETAIL
  6
CONTINUOUS
 62
     5
 10
-10.046182627714179
 20
-40.00618862682898
 30
0.0
 11
-10.046182627714179
 21
-45.006962205182781
 31
0.0
  0
LINE
  5
1CB
  8
DETAIL
  6
CONTINUOUS
 62
     5
 10
-11.54641470122032
 20
-39.506111268994061
 30
0.0
 11
-11.54641470122032
 21
-40.00618862682898
 31
0.0
  0
LINE
  5
1CC
  8
DETAIL
  6
CONTINUOUS
 62
     5
 10
-8.5459505542080407
 20
-45.006962205182781
 30
0.0
 11
-9.0460279120361449
 21
-44.50688484734718
 31
0.0
  0
LINE
  5
1CD
  8
DETAIL
  6
CONTINUOUS
 62
     5
 10
-339.09708408337838
 20
-6.0009282940240487
 30
0.0
 11
-339.09708408337838
 21
-25.003867891768049
 31
0.0
  0
LINE
  5
1CE
  8
DETAIL
  6
CONTINUOUS
 62
     5
 10
-394.1055934452761
 20
-44.006807489511559
 30
0.0
 11
-394.1055934452761
 21
-40.00618862682898
 31
0.0
  0
ARC
  5
1CF
  8
DETAIL
  6
CONTINUOUS
 62
     5
 10
318.80793873520719
 20
-65.75337113222615
 30
0.0
 40
60.009282940244077
 50
25.40749689879377
 51
63.0438483110063
  0
ARC
  5
1D0
  8
DETAIL
  6
CONTINUOUS
 62
     5
 10
336.00734899436719
 20
-25.003867891768049
 30
0.0
 40
10.00154715671462
 50
270.0
 51
0.000000000000007
  0
ARC
  5
1D1
  8
DETAIL
  6
CONTINUOUS
 62
     5
 10
375.01338290552548
 20
-44.006807489511559
 30
0.0
 40
1.0001547156780151
 50
270.0
 51
0.000000000000007
  0
ARC
  5
1D2
  8
DETAIL
  6
CONTINUOUS
 62
     5
 10
-9.0460279120361449
 20
-42.506575416005212
 30
0.0
 40
0.5000773578280862
 50
90.0
 51
180.0
  0
ARC
  5
1D3
  8
DETAIL
  6
CONTINUOUS
 62
     5
 10
-338.61342280798488
 20
-69.087708337641928
 30
0.0
 40
60.009282940237611
 50
100.06273906009071
 51
151.01261652389911
  0
ARC
  5
1D4
  8
DETAIL
  6
CONTINUOUS
 62
     5
 10
-329.0955369266635
 20
-25.003867891768049
 30
0.0
 40
10.00154715670711
 50
180.0
 51
270.0
  0
ARC
  5
1D5
  8
DETAIL
  6
CONTINUOUS
 62
     5
 10
-393.10543872959852
 20
-44.006807489511559
 30
0.0
 40
1.000154715671199
 50
180.0
 51
270.0
  0
LINE
  5
1D6
  8
DETAIL
  6
CONTINUOUS
 62
     5
 10
-241.08192194765391
 20
-6.0009282940240487
 30
0.0
 11
-73.497478480402151
 21
-6.0009282940240487
 31
0.0
  0
LINE
  5
1D7
  8
DETAIL
  6
CONTINUOUS
 62
     5
 10
-61.379586125576211
 20
-6.0009282940240487
 30
0.0
 11
286.99976792649409
 21
-6.0009282940240487
 31
0.0
  0
LINE
  5
1D8
  8
DETAIL
  6
CONTINUOUS
 62
     5
 10
346.00889615108167
 20
-6.0009282940240487
 30
0.0
 11
290.00023207350603
 21
-6.0009282940240487
 31
0.0
  0
LINE
  5
1D9
  8
DETAIL
  6
CONTINUOUS
 62
     5
 10
-291.08970776192427
 20
-6.0009282940240487
 30
0.0
 11
-302.09130957281292
 21
-6.0009282940240487
 31
0.0
  0
LINE
  5
1DA
  8
DETAIL
  6
CONTINUOUS
 62
     5
 10
-314.09321619160261
 20
-6.0009282940240487
 30
0.0
 11
-335.09646522068772
 21
-6.0009282940240487
 31
0.0
  0
LINE
  5
1DB
  8
DETAIL
  6
CONTINUOUS
 62
     5
 10
-46.551829749688743
 20
-3.000464147011995
 30
0.0
 11
-36.550282592973851
 21
-3.000464147011995
 31
0.0
  0
LINE
  5
1DC
  8
DETAIL
  6
CONTINUOUS
 62
     5
 10
277.54830586340091
 20
-0.5000776818853298
 30
0.0
 11
281.44890925452569
 21
-0.5000776818853298
 31
0.0
  0
LINE
  5
1DD
  8
DETAIL
  6
CONTINUOUS
 62
     5
 10
29.45992864129494
 20
0.0000000000000568
 30
0.0
 11
85.468592718848186
 21
0.0000000000000568
 31
0.0
  0
LINE
  5
1DE
  8
DETAIL
  6
CONTINUOUS
 62
     5
 10
86.468747434526904
 20
0.0000000000000568
 30
0.0
 11
142.4774115120799
 21
0.0000000000000568
 31
0.0
  0
LINE
  5
1DF
  8
DETAIL
  6
CONTINUOUS
 62
     5
 10
143.47756622775839
 20
0.0000000000000568
 30
0.0
 11
199.48623030531189
 21
0.0000000000000568
 31
0.0
  0
LINE
  5
1E0
  8
DETAIL
  6
CONTINUOUS
 62
     5
 10
200.4863850209899
 20
0.0000000000000568
 30
0.0
 11
243.99311515266689
 21
0.0000000000000568
 31
0.0
  0
LINE
  5
1E1
  8
DETAIL
  6
CONTINUOUS
 62
     5
 10
353.51005651861209
 20
0.0000000000000568
 30
0.0
 11
292.10060689465081
 21
0.0000000000000568
 31
0.0
  0
LINE
  5
1E2
  8
DETAIL
  6
CONTINUOUS
 62
     5
 10
280.94883165565852
 20
0.0000000000000568
 30
0.0
 11
278.04838346228951
 21
0.0000000000000568
 31
0.0
  0
LINE
  5
1E3
  8
DETAIL
  6
CONTINUOUS
 62
     5
 10
346.00889615108167
 20
-6.0009282940240487
 30
0.0
 11
-339.09708408337838
 21
-6.0009282940240487
 31
0.0
  0
LINE
  5
1E4
  8
DETAIL
  6
CONTINUOUS
 62
     5
 10
355.51036594994662
 20
-3.000464147011995
 30
0.0
 11
-348.59855388224292
 21
-3.000464147011995
 31
0.0
  0
LINE
  5
1E5
  8
DETAIL
  6
CONTINUOUS
 62
     5
 10
355.51036594994662
 20
-0.5000773578346413
 30
0.0
 11
-349.09863124009291
 21
-0.5000773578346413
 31
0.0
  0
LINE
  5
1E6
  8
DETAIL
  6
CONTINUOUS
 62
     5
 10
355.51036594994662
 20
0.0000000000000568
 30
0.0
 11
-348.59855388224292
 21
0.0000000000000568
 31
0.0
  0
LINE
  5
1E7
  8
DETAIL
  6
CONTINUOUS
 62
     5
 10
-348.59855388224292
 20
-3.000464147011995
 30
0.0
 11
-348.64501129933251
 21
-3.000791368130364
 31
0.0
  0
LINE
  5
1E8
  8
DETAIL
  6
CONTINUOUS
 62
     5
 10
-348.64501129933251
 20
-3.000791368130364
 30
0.0
 11
-348.69064680776148
 21
-3.0017470874715282
 31
0.0
  0
LINE
  5
1E9
  8
DETAIL
  6
CONTINUOUS
 62
     5
 10
-348.69064680776148
 20
-3.0017470874715282
 30
0.0
 11
-348.73563152702081
 21
-3.003338566161061
 31
0.0
  0
LINE
  5
1EA
  8
DETAIL
  6
CONTINUOUS
 62
     5
 10
-348.73563152702081
 20
-3.003338566161061
 30
0.0
 11
-348.77945209671037
 21
-3.0055440198258911
 31
0.0
  0
LINE
  5
1EB
  8
DETAIL
  6
CONTINUOUS
 62
     5
 10
-348.77945209671037
 20
-3.0055440198258911
 30
0.0
 11
-348.8217730379115
 21
-3.0083539004921822
 31
0.0
  0
LINE
  5
1EC
  8
DETAIL
  6
CONTINUOUS
 62
     5
 10
-348.8217730379115
 20
-3.0083539004921822
 30
0.0
 11
-348.86223182005642
 21
-3.0117387561005562
 31
0.0
  0
LINE
  5
1ED
  8
DETAIL
  6
CONTINUOUS
 62
     5
 10
-348.86223182005642
 20
-3.0117387561005562
 30
0.0
 11
-348.90045481883408
 21
-3.0156784635411782
 31
0.0
  0
LINE
  5
1EE
  8
DETAIL
  6
CONTINUOUS
 62
     5
 10
-348.90045481883408
 20
-3.0156784635411782
 30
0.0
 11
-348.93613984250209
 21
-3.0201354905067879
 31
0.0
  0
LINE
  5
1EF
  8
DETAIL
  6
CONTINUOUS
 62
     5
 10
-348.93613984250209
 20
-3.0201354905067879
 30
0.0
 11
-348.96880681731091
 21
-3.025060069298148
 31
0.0
  0
LINE
  5
1F0
  8
DETAIL
  6
CONTINUOUS
 62
     5
 10
-348.96880681731091
 20
-3.025060069298148
 30
0.0
 11
-348.99861576852709
 21
-3.030468788481528
 31
0.0
  0
LINE
  5
1F1
  8
DETAIL
  6
CONTINUOUS
 62
     5
 10
-339.09708408337838
 20
-6.0009282940240487
 30
0.0
 11
-349.09863124009291
 21
-3.000464147011995
 31
0.0
  0
LINE
  5
1F2
  8
DETAIL
  6
CONTINUOUS
 62
     5
 10
-235.622428951182
 20
0.0000000000000568
 30
0.0
 11
-234.66478150555031
 21
60.00928294024429
 31
0.0
  0
LINE
  5
1F3
  8
DETAIL
  6
CONTINUOUS
 62
     5
 10
-232.63799776334091
 20
60.00928294024429
 30
0.0
 11
-233.0718723576629
 21
0.0000000000000568
 31
0.0
  0
LINE
  5
1F4
  8
DETAIL
  6
CONTINUOUS
 62
     5
 10
-349.09863124009291
 20
-0.5000773578346413
 30
0.0
 11
-348.59855388224292
 21
0.0000000000000568
 31
0.0
  0
LINE
  5
1F5
  8
DETAIL
  6
CONTINUOUS
 62
     5
 10
-284.14132889713483
 20
60.00928294024429
 30
0.0
 11
-285.18879482744887
 21
0.0000000000000568
 31
0.0
  0
LINE
  5
1F6
  8
DETAIL
  6
CONTINUOUS
 62
     5
 10
-280.6143130814188
 20
60.00928294024429
 30
0.0
 11
-281.13800615992199
 21
0.0000000000000568
 31
0.0
  0
LINE
  5
1F7
  8
DETAIL
  6
CONTINUOUS
 62
     5
 10
-349.09863124009291
 20
-0.5000773578346413
 30
0.0
 11
-349.09863124009291
 21
-3.000464147011995
 31
0.0
  0
LINE
  5
1F8
  8
DETAIL
  6
CONTINUOUS
 62
     5
 10
-327.09524786248858
 20
-6.0009282940240487
 30
0.0
 11
-332.09598070653868
 21
-6.0009282940240487
 31
0.0
  0
LINE
  5
1F9
  8
DETAIL
  6
CONTINUOUS
 62
     5
 10
298.50154715671482
 20
60.00928294024429
 30
0.0
 11
-296.09039850545707
 21
60.00928294024429
 31
0.0
  0
LINE
  5
1FA
  8
OUTLINE
  6
CONTINUOUS
 62
     3
 10
-286.98902339692722
 20
140.7217684948719
 30
0.0
 11
-287.58911622634292
 21
140.7217684948719
 31
0.0
  0
LINE
  5
1FB
  8
OUTLINE
  6
CONTINUOUS
 62
     3
 10
-287.58911622634292
 20
126.9196334186166
 30
0.0
 11
-287.58911622634292
 21
140.7217684948719
 31
0.0
  0
LINE
  5
1FC
  8
OUTLINE
  6
CONTINUOUS
 62
     3
 10
-286.98902339692722
 20
126.9196334186166
 30
0.0
 11
-286.98902339692722
 21
140.7217684948719
 31
0.0
  0
ARC
  5
1FD
  8
OUTLINE
  6
CONTINUOUS
 62
     3
 10
-286.38893056753329
 20
126.9196334186166
 30
0.0
 40
0.6000928294025849
 50
180.0
 51
270.0
  0
LINE
  5
1FE
  8
OUTLINE
  6
CONTINUOUS
 62
     3
 10
-286.38893056753329
 20
126.3195405892137
 30
0.0
 11
-285.58880679498628
 21
126.3195405892137
 31
0.0
  0
ARC
  5
1FF
  8
OUTLINE
  6
CONTINUOUS
 62
     3
 10
-286.38893056753329
 20
126.9196334186166
 30
0.0
 40
1.2001856588051441
 50
180.0
 51
270.0
  0
ARC
  5
200
  8
OUTLINE
  6
CONTINUOUS
 62
     3
 10
288.2999690568688
 20
126.9196334186166
 30
0.0
 40
1.2001856588092501
 50
270.0
 51
0.000000000000007
  0
ARC
  5
201
  8
OUTLINE
  6
CONTINUOUS
 62
     3
 10
288.2999690568688
 20
126.9196334186166
 30
0.0
 40
0.6000928294155468
 50
270.0
 51
0.000000000000007
  0
LINE
  5
202
  8
OUTLINE
  6
CONTINUOUS
 62
     3
 10
288.90006188628428
 20
137.72130434786061
 30
0.0
 11
289.50015471567832
 21
137.72130434786061
 31
0.0
  0
LINE
  5
203
  8
OUTLINE
  6
CONTINUOUS
 62
     3
 10
288.90006188628428
 20
140.7217684948719
 30
0.0
 11
288.90006188628428
 21
126.9196334186166
 31
0.0
  0
LINE
  5
204
  8
OUTLINE
  6
CONTINUOUS
 62
     3
 10
288.90006188628428
 20
140.7217684948719
 30
0.0
 11
289.50015471567832
 21
140.7217684948719
 31
0.0
  0
LINE
  5
205
  8
OUTLINE
  6
CONTINUOUS
 62
     3
 10
289.50015471567832
 20
126.9196334186166
 30
0.0
 11
289.50015471567832
 21
140.7217684948719
 31
0.0
  0
LINE
  5
206
  8
OUTLINE
  6
CONTINUOUS
 62
     3
 10
-286.58896151066477
 20
440.56815225295833
 30
0.0
 11
-287.08903886849248
 21
440.56815225295833
 31
0.0
  0
LINE
  5
207
  8
OUTLINE
  6
CONTINUOUS
 62
     3
 10
-287.08903886849248
 20
454.5703182723492
 30
0.0
 11
-287.08903886849248
 21
440.56815225295833
 31
0.0
  0
ARC
  5
208
  8
OUTLINE
  6
CONTINUOUS
 62
     3
 10
-286.08888415283678
 20
454.5703182723492
 30
0.0
 40
1.0001547156561721
 50
90.0
 51
180.0
  0
LINE
  5
209
  8
OUTLINE
  6
CONTINUOUS
 62
     3
 10
298.00146979888632
 20
126.8196179470493
 30
0.0
 11
298.00146979888632
 21
126.3195405892137
 31
0.0
  0
LINE
  5
20A
  8
OUTLINE
  6
CONTINUOUS
 62
     3
 10
295.00100565187432
 20
126.8196179470493
 30
0.0
 11
295.00100565187432
 21
126.3195405892137
 31
0.0
  0
LINE
  5
20B
  8
OUTLINE
  6
CONTINUOUS
 62
     3
 10
298.00146979888632
 20
126.3195405892137
 30
0.0
 11
289.33936032661808
 21
126.3195405892137
 31
0.0
  0
LINE
  5
20C
  8
OUTLINE
  6
CONTINUOUS
 62
     3
 10
298.00146979888632
 20
126.8196179470493
 30
0.0
 11
289.49574662227587
 21
126.8196179470493
 31
0.0
  0
ARC
  5
20D
  8
OUTLINE
  6
CONTINUOUS
 62
     3
 10
289.00007735784988
 20
127.3196953048846
 30
0.0
 40
1.0001547156693731
 50
221.3899944611602
 51
246.61848406988531
  0
ARC
  5
20E
  8
OUTLINE
  6
CONTINUOUS
 62
     3
 10
289.00007735784988
 20
127.3196953048846
 30
0.0
 40
0.5000773578369194
 50
180.0
 51
257.64211062976079
  0
LINE
  5
20F
  8
OUTLINE
  6
CONTINUOUS
 62
     3
 10
288.5
 20
125.0514255582478
 30
0.0
 11
288.5
 21
153.0247054134858
 31
0.0
  0
LINE
  5
210
  8
OUTLINE
  6
CONTINUOUS
 62
     3
 10
288.5
 20
413.06380243708941
 30
0.0
 11
288.5
 21
454.5703182723492
 31
0.0
  0
ARC
  5
211
  8
OUTLINE
  6
CONTINUOUS
 62
     3
 10
287.49984528434379
 20
454.5703182723492
 30
0.0
 40
1.0001547156705011
 50
0.000000000000007
 51
90.0
  0
LINE
  5
212
  8
OUTLINE
  6
CONTINUOUS
 62
     3
 10
287.49984528434379
 20
455.57047298801962
 30
0.0
 11
-286.08888415283678
 21
455.57047298801962
 31
0.0
  0
ARC
  5
213
  8
OUTLINE
  6
CONTINUOUS
 62
     3
 10
-285.58880679498628
 20
127.3196953048846
 30
0.0
 40
1.000154715671199
 50
180.0
 51
270.0
  0
LINE
  5
214
  8
OUTLINE
  6
CONTINUOUS
 62
     3
 10
-286.58896151066477
 20
287.01244043459479
 30
0.0
 11
-286.58896151066477
 21
127.3196953048846
 31
0.0
  0
LINE
  5
215
  8
OUTLINE
  6
CONTINUOUS
 62
     3
 10
-286.58896151066477
 20
440.56815225295833
 30
0.0
 11
-286.58896151066477
 21
287.01244043459479
 31
0.0
  0
LINE
  5
216
  8
OUTLINE
  6
CONTINUOUS
 62
     3
 10
-286.7889924537958
 20
140.5217375517382
 30
0.0
 11
-286.98902339692722
 21
140.5217375517382
 31
0.0
  0
LINE
  5
217
  8
OUTLINE
  6
CONTINUOUS
 62
     3
 10
-286.7889924537958
 20
127.11966436175069
 30
0.0
 11
-286.7889924537958
 21
140.5217375517382
 31
0.0
  0
ARC
  5
218
  8
OUTLINE
  6
CONTINUOUS
 62
     3
 10
-285.98886868127153
 20
127.11966436175069
 30
0.0
 40
0.8001237725372277
 50
180.0
 51
270.0
  0
ARC
  5
219
  8
OUTLINE
  6
CONTINUOUS
 62
     3
 10
-285.98886868127153
 20
127.11966436175069
 30
0.0
 40
1.6002475450737581
 50
229.1033961113078
 51
270.0
  0
LINE
  5
21A
  8
OUTLINE
  6
CONTINUOUS
 62
     3
 10
-285.98886868127153
 20
125.719447759811
 30
0.0
 11
-285.98886868127153
 21
125.0193394588421
 31
0.0
  0
LINE
  5
21B
  8
OUTLINE
  6
CONTINUOUS
 62
     3
 10
293.00069622051819
 20
125.0193394588421
 30
0.0
 11
293.00069622051819
 21
123.8191538000379
 31
0.0
  0
LINE
  5
21C
  8
OUTLINE
  6
CONTINUOUS
 62
     3
 10
301.00193394589883
 20
123.8191538000379
 30
0.0
 11
293.00069622051819
 21
123.8191538000379
 31
0.0
  0
ARC
  5
21D
  8
OUTLINE
  6
CONTINUOUS
 62
     3
 10
301.00193394589883
 20
121.81884436869611
 30
0.0
 40
2.0003094313416998
 50
0.000000000000007
 51
90.0
  0
LINE
  5
21E
  8
OUTLINE
  6
CONTINUOUS
 62
     3
 10
303.00224337723279
 20
60.609416775490253
 30
0.0
 11
303.00224337723279
 21
121.81884436869611
 31
0.0
  0
LINE
  5
21F
  8
OUTLINE
  6
CONTINUOUS
 62
     3
 10
-286.08888415283678
 20
125.0193394588421
 30
0.0
 11
-286.08888415283678
 21
123.8191538000379
 31
0.0
  0
LINE
  5
220
  8
OUTLINE
  6
CONTINUOUS
 62
     3
 10
-294.09012187819548
 20
123.8191538000379
 30
0.0
 11
-286.08888415283678
 21
123.8191538000379
 31
0.0
  0
ARC
  5
221
  8
OUTLINE
  6
CONTINUOUS
 62
     3
 10
-294.09012187819548
 20
121.81884436869611
 30
0.0
 40
2.000309431334188
 50
90.0
 51
180.0
  0
LINE
  5
222
  8
OUTLINE
  6
CONTINUOUS
 62
     3
 10
303.00224337723279
 20
60.00929758751095
 30
0.0
 11
303.00224337723279
 21
60.609401399612182
 31
0.0
  0
LINE
  5
223
  8
OUTLINE
  6
CONTINUOUS
 62
     3
 10
300.09590634041501
 20
57.214738097746967
 30
0.0
 11
300.09590634041501
 21
56.614645268345889
 31
0.0
  0
LINE
  5
224
  8
OUTLINE
  6
CONTINUOUS
 62
     3
 10
295.46798264484897
 20
57.390501217849128
 30
0.0
 11
292.84920092245602
 21
60.00928294024429
 31
0.0
  0
LINE
  5
225
  8
OUTLINE
  6
CONTINUOUS
 62
     3
 10
292.35206774555382
 20
59.657756699539569
 30
0.0
 11
295.04365293605218
 21
56.96617150904973
 31
0.0
  0
LINE
  5
226
  8
OUTLINE
  6
CONTINUOUS
 62
     3
 10
295.89231235414849
 20
56.614645268345889
 30
0.0
 11
300.09590634041501
 21
56.614645268345889
 31
0.0
  0
LINE
  5
227
  8
OUTLINE
  6
CONTINUOUS
 62
     3
 10
300.09590634041501
 20
57.214738097746967
 30
0.0
 11
295.89231235414849
 21
57.214738097746967
 31
0.0
  0
LINE
  5
228
  8
OUTLINE
  6
CONTINUOUS
 62
     3
 10
303.00221057265799
 20
60.00928294024429
 30
0.0
 11
298.50154715671482
 21
60.00928294024429
 31
0.0
  0
ARC
  5
229
  8
OUTLINE
  6
CONTINUOUS
 62
     3
 10
293.20072716364962
 20
60.506416117639048
 30
0.0
 40
1.20018565879408
 50
204.4969946766673
 51
225.00000000050659
  0
ARC
  5
22A
  8
OUTLINE
  6
CONTINUOUS
 62
     3
 10
295.89231235414849
 20
57.81483092714943
 30
0.0
 40
1.2001856588038
 50
224.99999999975131
 51
270.0
  0
ARC
  5
22B
  8
OUTLINE
  6
CONTINUOUS
 62
     3
 10
295.89231235414849
 20
57.81483092714943
 30
0.0
 40
0.6000928294025849
 50
224.99999999976981
 51
270.0
  0
LINE
  5
22C
  8
OUTLINE
  6
CONTINUOUS
 62
     3
 10
292.29550477273301
 20
59.718369140282498
 30
0.0
 11
292.30931728492322
 21
59.702778111979839
 31
0.0
  0
LINE
  5
22D
  8
OUTLINE
  6
CONTINUOUS
 62
     3
 10
292.30931728492322
 20
59.702778111979839
 30
0.0
 11
292.32335310514941
 21
59.687477550110152
 31
0.0
  0
LINE
  5
22E
  8
OUTLINE
  6
CONTINUOUS
 62
     3
 10
292.32335310514941
 20
59.687477550110152
 30
0.0
 11
292.33760549936483
 21
59.672469711521039
 31
0.0
  0
LINE
  5
22F
  8
OUTLINE
  6
CONTINUOUS
 62
     3
 10
292.33760549936483
 20
59.672469711521039
 30
0.0
 11
292.35206774555382
 21
59.657756699539569
 31
0.0
  0
LINE
  5
230
  8
OUTLINE
  6
CONTINUOUS
 62
     3
 10
298.50154715671482
 20
60.00928294024429
 30
0.0
 11
291.05314096431431
 21
60.00928294024429
 31
0.0
  0
LINE
  5
231
  8
OUTLINE
  6
CONTINUOUS
 62
     3
 10
-288.98050028644502
 20
56.614645268345889
 30
0.0
 11
-293.18409427321382
 21
56.614645268345889
 31
0.0
  0
LINE
  5
232
  8
OUTLINE
  6
CONTINUOUS
 62
     3
 10
-288.98050028644502
 20
57.214738097746967
 30
0.0
 11
-293.18409427321382
 21
57.214738097746967
 31
0.0
  0
LINE
  5
233
  8
OUTLINE
  6
CONTINUOUS
 62
     3
 10
-284.14132889713483
 20
60.00928294024429
 30
0.0
 11
-296.09043130952932
 21
60.00929758751095
 31
0.0
  0
LINE
  5
234
  8
OUTLINE
  6
CONTINUOUS
 62
     3
 10
-285.44025567837423
 20
59.657756699539569
 30
0.0
 11
-288.13184086885121
 21
56.96617150904973
 31
0.0
  0
LINE
  5
235
  8
OUTLINE
  6
CONTINUOUS
 62
     3
 10
-288.55617057764772
 20
57.390501217849128
 30
0.0
 11
-285.93738885525499
 21
60.00928294024429
 31
0.0
  0
LINE
  5
236
  8
OUTLINE
  6
CONTINUOUS
 62
     3
 10
-285.38369270502972
 20
59.718369140282498
 30
0.0
 11
-285.39750521772248
 21
59.702778111979839
 31
0.0
  0
LINE
  5
237
  8
OUTLINE
  6
CONTINUOUS
 62
     3
 10
-285.39750521772248
 20
59.702778111979839
 30
0.0
 11
-285.41154103794821
 21
59.687477550110152
 31
0.0
  0
LINE
  5
238
  8
OUTLINE
  6
CONTINUOUS
 62
     3
 10
-285.41154103794821
 20
59.687477550110152
 30
0.0
 11
-285.42579343216369
 21
59.672469711521039
 31
0.0
  0
LINE
  5
239
  8
OUTLINE
  6
CONTINUOUS
 62
     3
 10
-285.42579343216369
 20
59.672469711521039
 30
0.0
 11
-285.44025567837423
 21
59.657756699539569
 31
0.0
  0
LINE
  5
23A
  8
OUTLINE
  6
CONTINUOUS
 62
     3
 10
-293.18409427321382
 20
57.214738097746967
 30
0.0
 11
-293.18409427321382
 21
56.614645268345889
 31
0.0
  0
ARC
  5
23B
  8
OUTLINE
  6
CONTINUOUS
 62
     3
 10
-286.28891509596821
 20
60.506416117639048
 30
0.0
 40
1.2001856588087461
 50
315.00000000023027
 51
335.503005323764
  0
ARC
  5
23C
  8
OUTLINE
  6
CONTINUOUS
 62
     3
 10
-288.98050028644502
 20
57.81483092714943
 30
0.0
 40
1.2001856587935991
 50
270.0
 51
314.99999999951177
  0
ARC
  5
23D
  8
OUTLINE
  6
CONTINUOUS
 62
     3
 10
-288.98050028644502
 20
57.81483092714943
 30
0.0
 40
0.6000928293893346
 50
270.0
 51
314.99999999875638
  0
LINE
  5
23E
  8
OUTLINE
  6
CONTINUOUS
 62
     3
 10
-296.09043130952932
 20
60.609401399612182
 30
0.0
 11
-296.09043130952932
 21
60.00929758751095
 31
0.0
  0
LINE
  5
23F
  8
OUTLINE
  6
CONTINUOUS
 62
     3
 10
-296.09043130952932
 20
60.609416775490253
 30
0.0
 11
-296.09043130952932
 21
121.81884436869611
 31
0.0
  0
LINE
  5
240
  8
OUTLINE
  6
CONTINUOUS
 62
     3
 10
376.0135376212038
 20
-44.006807489511559
 30
0.0
 11
376.0135376212038
 21
-40.00618862682898
 31
0.0
  0
LINE
  5
241
  8
OUTLINE
  6
CONTINUOUS
 62
     3
 10
356.01044330777449
 20
-3.000464147011995
 30
0.0
 11
356.01044330777449
 21
-0.5000773578346413
 31
0.0
  0
LINE
  5
242
  8
OUTLINE
  6
CONTINUOUS
 62
     3
 10
346.00889615108167
 20
-6.0009282940240487
 30
0.0
 11
346.01065568382569
 21
-12.26387469025525
 31
0.0
  0
LINE
  5
243
  8
OUTLINE
  6
CONTINUOUS
 62
     3
 10
291.05314096431431
 20
60.00928294024429
 30
0.0
 11
292.10060689465081
 21
0.0000000000000568
 31
0.0
  0
LINE
  5
244
  8
OUTLINE
  6
CONTINUOUS
 62
     3
 10
356.01044330777449
 20
-0.5000773578346413
 30
0.0
 11
355.51036594994662
 21
0.0000000000000568
 31
0.0
  0
LINE
  5
245
  8
OUTLINE
  6
CONTINUOUS
 62
     3
 10
356.01044330777449
 20
-3.000464147011995
 30
0.0
 11
346.00889615108167
 21
-6.0009282940240487
 31
0.0
  0
LINE
  5
246
  8
OUTLINE
  6
CONTINUOUS
 62
     3
 10
-393.10543872959852
 20
-45.006962205182781
 30
0.0
 11
-10.046182627714179
 21
-45.006962205182781
 31
0.0
  0
LINE
  5
247
  8
OUTLINE
  6
CONTINUOUS
 62
     3
 10
-8.5459505542080407
 20
-45.006962205182781
 30
0.0
 11
375.01338290552548
 21
-45.006962205182781
 31
0.0
  0
LINE
  5
248
  8
OUTLINE
  6
CONTINUOUS
 62
     3
 10
-9.5461052698637943
 20
-42.0064980581705
 30
0.0
 11
-9.0460279120361449
 21
-42.0064980581705
 31
0.0
  0
LINE
  5
249
  8
OUTLINE
  6
CONTINUOUS
 62
     3
 10
376.0135376212038
 20
-40.00618862682898
 30
0.0
 11
373.01307347386262
 21
-40.00618862682898
 31
0.0
  0
LINE
  5
24A
  8
OUTLINE
  6
CONTINUOUS
 62
     3
 10
355.51036594994662
 20
-3.000464147011995
 30
0.0
 11
355.55682336701437
 21
-3.000791368130364
 31
0.0
  0
LINE
  5
24B
  8
OUTLINE
  6
CONTINUOUS
 62
     3
 10
355.55682336701437
 20
-3.000791368130364
 30
0.0
 11
355.60245887496222
 21
-3.0017470874715282
 31
0.0
  0
LINE
  5
24C
  8
OUTLINE
  6
CONTINUOUS
 62
     3
 10
355.60245887496222
 20
-3.0017470874715282
 30
0.0
 11
355.64744359472428
 21
-3.003338566161061
 31
0.0
  0
LINE
  5
24D
  8
OUTLINE
  6
CONTINUOUS
 62
     3
 10
355.64744359472428
 20
-3.003338566161061
 30
0.0
 11
355.69126416391168
 21
-3.0055440198258911
 31
0.0
  0
LINE
  5
24E
  8
OUTLINE
  6
CONTINUOUS
 62
     3
 10
355.69126416391168
 20
-3.0055440198258911
 30
0.0
 11
355.73358510511252
 21
-3.0083539004921822
 31
0.0
  0
LINE
  5
24F
  8
OUTLINE
  6
CONTINUOUS
 62
     3
 10
355.73358510511252
 20
-3.0083539004921822
 30
0.0
 11
355.77404388773812
 21
-3.0117387561005562
 31
0.0
  0
LINE
  5
250
  8
OUTLINE
  6
CONTINUOUS
 62
     3
 10
355.77404388773812
 20
-3.0117387561005562
 30
0.0
 11
355.81226688603601
 21
-3.0156784635411782
 31
0.0
  0
LINE
  5
251
  8
OUTLINE
  6
CONTINUOUS
 62
     3
 10
355.81226688603601
 20
-3.0156784635411782
 30
0.0
 11
355.84795190970362
 21
-3.0201354905067879
 31
0.0
  0
LINE
  5
252
  8
OUTLINE
  6
CONTINUOUS
 62
     3
 10
355.84795190970362
 20
-3.0201354905067879
 30
0.0
 11
355.88061888501443
 21
-3.025060069298148
 31
0.0
  0
LINE
  5
253
  8
OUTLINE
  6
CONTINUOUS
 62
     3
 10
355.88061888501443
 20
-3.025060069298148
 30
0.0
 11
355.91042783620901
 21
-3.030468788481528
 31
0.0
  0
LINE
  5
254
  8
OUTLINE
  6
CONTINUOUS
 62
     3
 10
-349.09863124009291
 20
-10.00154715670709
 30
0.0
 11
-339.09708408337838
 21
-10.00154715670709
 31
0.0
  0
LINE
  5
255
  8
OUTLINE
  6
CONTINUOUS
 62
     3
 10
355.51036594994662
 20
-0.5000773578346413
 30
0.0
 11
356.01044330777449
 21
-0.5000773578346413
 31
0.0
  0
LINE
  5
256
  8
OUTLINE
  6
CONTINUOUS
 62
     3
 10
-10.046182627714179
 20
-45.006962205182781
 30
0.0
 11
-9.5461052698637943
 21
-44.50688484734718
 31
0.0
  0
LINE
  5
257
  8
OUTLINE
  6
CONTINUOUS
 62
     3
 10
-8.5459505542080407
 20
-45.006962205182781
 30
0.0
 11
-8.5459505542080407
 21
-40.00618862682898
 31
0.0
  0
LINE
  5
258
  8
OUTLINE
  6
CONTINUOUS
 62
     3
 10
-9.0460279120361449
 20
-44.50688484734718
 30
0.0
 11
-9.0460279120361449
 21
-40.00618862682898
 31
0.0
  0
LINE
  5
259
  8
OUTLINE
  6
CONTINUOUS
 62
     3
 10
-9.5461052698637943
 20
-40.00618862682898
 30
0.0
 11
-9.5461052698637943
 21
-44.50688484734718
 31
0.0
  0
LINE
  5
25A
  8
OUTLINE
  6
CONTINUOUS
 62
     3
 10
-10.046182627714179
 20
-40.00618862682898
 30
0.0
 11
-10.046182627714179
 21
-45.006962205182781
 31
0.0
  0
LINE
  5
25B
  8
OUTLINE
  6
CONTINUOUS
 62
     3
 10
-8.5459505542080407
 20
-45.006962205182781
 30
0.0
 11
-9.0460279120361449
 21
-44.50688484734718
 31
0.0
  0
LINE
  5
25C
  8
OUTLINE
  6
CONTINUOUS
 62
     3
 10
-339.09708408337838
 20
-6.0009282940240487
 30
0.0
 11
-339.09708408337838
 21
-10.00154715670709
 31
0.0
  0
LINE
  5
25D
  8
OUTLINE
  6
CONTINUOUS
 62
     3
 10
-394.1055934452761
 20
-44.006807489511559
 30
0.0
 11
-394.1055934452761
 21
-40.00618862682898
 31
0.0
  0
ARC
  5
25E
  8
OUTLINE
  6
CONTINUOUS
 62
     3
 10
318.80793873520719
 20
-65.75337113222615
 30
0.0
 40
60.009282940244077
 50
25.40749689878788
 51
63.0438483110063
  0
ARC
  5
25F
  8
OUTLINE
  6
CONTINUOUS
 62
     3
 10
375.01338290552548
 20
-44.006807489511559
 30
0.0
 40
1.0001547156780151
 50
270.0
 51
0.000000000000007
  0
ARC
  5
260
  8
OUTLINE
  6
CONTINUOUS
 62
     3
 10
-9.0460279120361449
 20
-42.506575416005212
 30
0.0
 40
0.5000773578280862
 50
90.0
 51
180.0
  0
ARC
  5
261
  8
OUTLINE
  6
CONTINUOUS
 62
     3
 10
-338.61342280798488
 20
-69.087708337641928
 30
0.0
 40
60.009282940237611
 50
100.06273906009071
 51
151.01261652389621
  0
ARC
  5
262
  8
OUTLINE
  6
CONTINUOUS
 62
     3
 10
-393.10543872959852
 20
-44.006807489511559
 30
0.0
 40
1.000154715671199
 50
180.0
 51
270.0
  0
LINE
  5
263
  8
OUTLINE
  6
CONTINUOUS
 62
     3
 10
353.51005651861209
 20
0.0000000000000568
 30
0.0
 11
292.10060689465081
 21
0.0000000000000568
 31
0.0
  0
LINE
  5
264
  8
OUTLINE
  6
CONTINUOUS
 62
     3
 10
355.51036594994662
 20
0.0000000000000568
 30
0.0
 11
292.10060689465081
 21
0.0000000000000568
 31
0.0
  0
LINE
  5
265
  8
OUTLINE
  6
CONTINUOUS
 62
     3
 10
-348.59855388224292
 20
-3.000464147011995
 30
0.0
 11
-348.64501129933251
 21
-3.000791368130364
 31
0.0
  0
LINE
  5
266
  8
OUTLINE
  6
CONTINUOUS
 62
     3
 10
-348.64501129933251
 20
-3.000791368130364
 30
0.0
 11
-348.69064680776148
 21
-3.0017470874715282
 31
0.0
  0
LINE
  5
267
  8
OUTLINE
  6
CONTINUOUS
 62
     3
 10
-348.69064680776148
 20
-3.0017470874715282
 30
0.0
 11
-348.73563152702081
 21
-3.003338566161061
 31
0.0
  0
LINE
  5
268
  8
OUTLINE
  6
CONTINUOUS
 62
     3
 10
-348.73563152702081
 20
-3.003338566161061
 30
0.0
 11
-348.77945209671037
 21
-3.0055440198258911
 31
0.0
  0
LINE
  5
269
  8
OUTLINE
  6
CONTINUOUS
 62
     3
 10
-348.77945209671037
 20
-3.0055440198258911
 30
0.0
 11
-348.8217730379115
 21
-3.0083539004921822
 31
0.0
  0
LINE
  5
26A
  8
OUTLINE
  6
CONTINUOUS
 62
     3
 10
-348.8217730379115
 20
-3.0083539004921822
 30
0.0
 11
-348.86223182005642
 21
-3.0117387561005562
 31
0.0
  0
LINE
  5
26B
  8
OUTLINE
  6
CONTINUOUS
 62
     3
 10
-348.86223182005642
 20
-3.0117387561005562
 30
0.0
 11
-348.90045481883408
 21
-3.0156784635411782
 31
0.0
  0
LINE
  5
26C
  8
OUTLINE
  6
CONTINUOUS
 62
     3
 10
-348.90045481883408
 20
-3.0156784635411782
 30
0.0
 11
-348.93613984250209
 21
-3.0201354905067879
 31
0.0
  0
LINE
  5
26D
  8
OUTLINE
  6
CONTINUOUS
 62
     3
 10
-348.93613984250209
 20
-3.0201354905067879
 30
0.0
 11
-348.96880681731091
 21
-3.025060069298148
 31
0.0
  0
LINE
  5
26E
  8
OUTLINE
  6
CONTINUOUS
 62
     3
 10
-348.96880681731091
 20
-3.025060069298148
 30
0.0
 11
-348.99861576852709
 21
-3.030468788481528
 31
0.0
  0
LINE
  5
26F
  8
OUTLINE
  6
CONTINUOUS
 62
     3
 10
-339.09708408337838
 20
-6.0009282940240487
 30
0.0
 11
-349.09863124009291
 21
-3.000464147011995
 31
0.0
  0
LINE
  5
270
  8
OUTLINE
  6
CONTINUOUS
 62
     3
 10
-349.09863124009291
 20
-0.5000773578346413
 30
0.0
 11
-348.59855388224292
 21
0.0000000000000568
 31
0.0
  0
LINE
  5
271
  8
OUTLINE
  6
CONTINUOUS
 62
     3
 10
-284.14132889713483
 20
60.00928294024429
 30
0.0
 11
-285.18879482744887
 21
0.0000000000000568
 31
0.0
  0
LINE
  5
272
  8
OUTLINE
  6
CONTINUOUS
 62
     3
 10
-349.09863124009291
 20
-0.5000773578346413
 30
0.0
 11
-349.09863124009291
 21
-3.000464147011995
 31
0.0
  0
LINE
  5
273
  8
OUTLINE
  6
CONTINUOUS
 62
     3
 10
-391.10512929859078
 20
-40.00618862682898
 30
0.0
 11
-394.1055934452761
 21
-40.00618862682898
 31
0.0
  0
LINE
  5
274
  8
OUTLINE
  6
CONTINUOUS
 62
     3
 10
-285.18879482744887
 20
0.0000000000000568
 30
0.0
 11
-348.59855388224292
 21
0.0000000000000568
 31
0.0
  0
LINE
  5
275
  8
OUTLINE
  6
CONTINUOUS
 62
     3
 39
50.0
 10
293.00069622051819
 20
125.0193394588421
 30
0.0
 11
288.5
 21
125.0514255582478
 31
0.0
  0
LINE
  5
276
  8
SIZE
  6
CONTINUOUS
 62
    30
 10
-381.87516602563278
 20
-0.0000000000000031
 30
0.0
 11
-558.05667805388475
 21
0.0000000000000468
 31
0.0
  0
LINE
  5
277
  8
SIZE
  6
CONTINUOUS
 62
    30
 10
-413.1054387295984
 20
-45.006962205182766
 30
0.0
 11
-558.05667805388475
 21
-45.006962205182752
 31
0.0
  0
LINE
  5
278
  8
SIZE
  6
CONTINUOUS
 62
    30
 10
-538.05667805388475
 20
12.00000000000003
 30
0.0
 11
-538.05667805388475
 21
24.000000000000039
 31
0.0
  0
LINE
  5
279
  8
SIZE
  6
CONTINUOUS
 62
    30
 10
-538.05667805388475
 20
-57.006962205182752
 30
0.0
 11
-538.05667805388475
 21
-231.70799284443271
 31
0.0
  0
LINE
  5
27A
  8
SIZE
  6
CONTINUOUS
 62
    30
 10
-538.05667805388475
 20
0.0000000000000411
 30
0.0
 11
-538.05667805388475
 21
-45.006962205182752
 31
0.0
  0
CIRCLE
  5
27B
  8
SIZE
  6
CONTINUOUS
 62
    30
 10
-538.05667805388475
 20
0.0000000000000411
 30
0.0
 40
6.0
  0
LINE
  5
27C
  8
SIZE
  6
CONTINUOUS
 62
    30
 10
-538.05667805388475
 20
0.0000000000000411
 30
0.0
 11
-538.05667805388475
 21
12.00000000000003
 31
0.0
  0
CIRCLE
  5
27D
  8
SIZE
  6
CONTINUOUS
 62
    30
 10
-538.05667805388475
 20
-45.006962205182752
 30
0.0
 40
6.0
  0
LINE
  5
27E
  8
SIZE
  6
CONTINUOUS
 62
    30
 10
-538.05667805388475
 20
-45.006962205182752
 30
0.0
 11
-538.05667805388475
 21
-57.006962205182752
 31
0.0
  0
TEXT
  5
27F
  8
SIZE
  6
CONTINUOUS
 62
    30
 10
-563.05667805388475
 20
-206.70799284443279
 30
0.0
 40
64.0
  1
45
 50
90.0
 41
0.9
 72
     1
 11
-563.05667805388475
 21
-160.07942141586139
 31
0.0
  0
POINT
  5
280
  8
DEFPOINTS
  6
CONTINUOUS
 62
    30
 10
-361.87516602563278
 20
-0.0000000000000088
 30
0.0
  0
POINT
  5
281
  8
DEFPOINTS
  6
CONTINUOUS
 62
    30
 10
-393.10543872959852
 20
-45.006962205182781
 30
0.0
  0
POINT
  5
282
  8
DEFPOINTS
  6
CONTINUOUS
 62
    30
 10
-538.05667805388475
 20
-45.006962205182752
 30
0.0
  0
LINE
  5
283
  8
SIZE
  6
CONTINUOUS
 62
    30
 10
-306.08888415283678
 20
455.57047298801962
 30
0.0
 11
-558.05667805388464
 21
455.57047298801967
 31
0.0
  0
LINE
  5
284
  8
SIZE
  6
CONTINUOUS
 62
    30
 10
-305.58880679498628
 20
125.719447759811
 30
0.0
 11
-558.05667805388475
 21
125.7194477598111
 31
0.0
  0
LINE
  5
285
  8
SIZE
  6
CONTINUOUS
 62
    30
 10
-538.05667805388464
 20
443.57047298801967
 30
0.0
 11
-538.05667805388475
 21
137.719447759811
 31
0.0
  0
CIRCLE
  5
286
  8
SIZE
  6
CONTINUOUS
 62
    30
 10
-538.05667805388464
 20
455.57047298801967
 30
0.0
 40
6.0
  0
LINE
  5
287
  8
SIZE
  6
CONTINUOUS
 62
    30
 10
-538.05667805388464
 20
455.57047298801967
 30
0.0
 11
-538.05667805388464
 21
443.57047298801967
 31
0.0
  0
CIRCLE
  5
288
  8
SIZE
  6
CONTINUOUS
 62
    30
 10
-538.05667805388475
 20
125.719447759811
 30
0.0
 40
6.0
  0
LINE
  5
289
  8
SIZE
  6
CONTINUOUS
 62
    30
 10
-538.05667805388475
 20
125.719447759811
 30
0.0
 11
-538.05667805388475
 21
137.719447759811
 31
0.0
  0
TEXT
  5
28A
  8
SIZE
  6
CONTINUOUS
 62
    30
 10
-563.05667805388475
 20
216.5878175167725
 30
0.0
 40
64.0
  1
330
 50
90.0
 41
0.9
 72
     1
 11
-563.05667805388475
 21
290.64496037391541
 31
0.0
  0
POINT
  5
28B
  8
DEFPOINTS
  6
CONTINUOUS
 62
    30
 10
-286.08888415283678
 20
455.57047298801962
 30
0.0
  0
POINT
  5
28C
  8
DEFPOINTS
  6
CONTINUOUS
 62
    30
 10
-285.58880679498628
 20
125.719447759811
 30
0.0
  0
POINT
  5
28D
  8
DEFPOINTS
  6
CONTINUOUS
 62
    30
 10
-538.05667805388475
 20
125.719447759811
 30
0.0
  0
LINE
  5
28E
  8
SIZE
  6
CONTINUOUS
 62
    30
 10
-305.58880679498628
 20
455.57047298801962
 30
0.0
 11
-433.1054387295984
 21
455.57047298801967
 31
0.0
  0
LINE
  5
28F
  8
SIZE
  6
CONTINUOUS
 62
    30
 10
-315.23330526282268
 20
287.14441886906752
 30
0.0
 11
-433.1054387295984
 21
287.14441886906758
 31
0.0
  0
LINE
  5
290
  8
SIZE
  6
CONTINUOUS
 62
    30
 10
-413.1054387295984
 20
467.57047298801967
 30
0.0
 11
-413.1054387295984
 21
479.57047298801967
 31
0.0
  0
LINE
  5
291
  8
SIZE
  6
CONTINUOUS
 62
    30
 10
-413.1054387295984
 20
275.14441886906758
 30
0.0
 11
-413.1054387295984
 21
263.14441886906758
 31
0.0
  0
LINE
  5
292
  8
SIZE
  6
CONTINUOUS
 62
    30
 10
-413.1054387295984
 20
455.57047298801967
 30
0.0
 11
-413.1054387295984
 21
287.14441886906758
 31
0.0
  0
CIRCLE
  5
293
  8
SIZE
  6
CONTINUOUS
 62
    30
 10
-413.1054387295984
 20
455.57047298801967
 30
0.0
 40
6.0
  0
LINE
  5
294
  8
SIZE
  6
CONTINUOUS
 62
    30
 10
-413.1054387295984
 20
455.57047298801967
 30
0.0
 11
-413.1054387295984
 21
467.57047298801967
 31
0.0
  0
CIRCLE
  5
295
  8
SIZE
  6
CONTINUOUS
 62
    30
 10
-413.1054387295984
 20
287.14441886906758
 30
0.0
 40
6.0
  0
LINE
  5
296
  8
SIZE
  6
CONTINUOUS
 62
    30
 10
-413.1054387295984
 20
287.14441886906758
 30
0.0
 11
-413.1054387295984
 21
275.14441886906758
 31
0.0
  0
TEXT
  5
297
  8
SIZE
  6
CONTINUOUS
 62
    30
 10
-438.1054387295984
 20
302.78601735711487
 30
0.0
 40
64.0
  1
168
 50
90.0
 41
0.9
 72
     1
 11
-438.1054387295984
 21
371.35744592854348
 31
0.0
  0
POINT
  5
298
  8
DEFPOINTS
  6
CONTINUOUS
 62
    30
 10
-285.58880679498628
 20
455.57047298801962
 30
0.0
  0
POINT
  5
299
  8
DEFPOINTS
  6
CONTINUOUS
 62
    30
 10
-295.23330526282268
 20
287.14441886906752
 30
0.0
  0
POINT
  5
29A
  8
DEFPOINTS
  6
CONTINUOUS
 62
    30
 10
-413.1054387295984
 20
287.14441886906758
 30
0.0
  0
LINE
  5
29B
  8
SIZE
  6
CONTINUOUS
 62
    30
 10
-381.87516602563278
 20
0.0000000000000057
 30
0.0
 11
-692.12517978954736
 21
0.0000000000000936
 31
0.0
  0
LINE
  5
29C
  8
SIZE
  6
CONTINUOUS
 62
    30
 10
-305.58880679498628
 20
125.719447759811
 30
0.0
 11
-692.12517978954736
 21
125.7194477598111
 31
0.0
  0
LINE
  5
29D
  8
SIZE
  6
CONTINUOUS
 62
    30
 10
-672.12517978954736
 20
12.000000000000091
 30
0.0
 11
-672.12517978954736
 21
113.7194477598111
 31
0.0
  0
LINE
  5
29E
  8
SIZE
  6
CONTINUOUS
 62
    30
 10
-672.12517978954736
 20
125.7194477598111
 30
0.0
 11
-672.12517978954725
 21
1056.656590616954
 31
0.0
  0
CIRCLE
  5
29F
  8
SIZE
  6
CONTINUOUS
 62
    30
 10
-672.12517978954736
 20
0.0000000000000879
 30
0.0
 40
6.0
  0
LINE
  5
2A0
  8
SIZE
  6
CONTINUOUS
 62
    30
 10
-672.12517978954736
 20
0.0000000000000879
 30
0.0
 11
-672.12517978954736
 21
12.000000000000091
 31
0.0
  0
CIRCLE
  5
2A1
  8
SIZE
  6
CONTINUOUS
 62
    30
 10
-672.12517978954736
 20
125.7194477598111
 30
0.0
 40
6.0
  0
LINE
  5
2A2
  8
SIZE
  6
CONTINUOUS
 62
    30
 10
-672.12517978954736
 20
125.7194477598111
 30
0.0
 11
-672.12517978954736
 21
113.7194477598111
 31
0.0
  0
TEXT
  5
2A3
  8
SIZE
  6
CONTINUOUS
 62
    30
 10
-697.12517978954736
 20
162.719447759811
 30
0.0
 40
64.0
  1
高さ調整可能範囲65～125
 50
90.0
 41
0.9
 72
     1
 11
-697.12517978954736
 21
597.18801918838233
 31
0.0
  0
POINT
  5
2A4
  8
DEFPOINTS
  6
CONTINUOUS
 62
    30
 10
-361.87516602563278
 20
0.0
 30
0.0
  0
POINT
  5
2A5
  8
DEFPOINTS
  6
CONTINUOUS
 62
    30
 10
-285.58880679498628
 20
125.719447759811
 30
0.0
  0
POINT
  5
2A6
  8
DEFPOINTS
  6
CONTINUOUS
 62
    30
 10
-672.12517978954736
 20
125.7194477598111
 30
0.0
  0
LINE
  5
2A7
  8
BASIS
  6
DASHDOT
 62
     6
 39
50.0
 10
387.85574539207852
 20
295.55260641013223
 30
0.0
 11
283.58763044806977
 21
295.55260641013223
 31
0.0
  0
LINE
  5
2A8
  8
SIZE
  6
CONTINUOUS
 62
    30
 10
407.8557453920784
 20
295.55260641013223
 30
0.0
 11
842.23892152720418
 21
295.55260641013223
 31
0.0
  0
LINE
  5
2A9
  8
SIZE
  6
CONTINUOUS
 62
    30
 10
307.49984528434368
 20
455.57047298801962
 30
0.0
 11
842.23892152720418
 21
455.57047298801939
 31
0.0
  0
LINE
  5
2AA
  8
SIZE
  6
CONTINUOUS
 62
    30
 10
822.2389215272043
 20
307.55260641013223
 30
0.0
 11
822.2389215272043
 21
443.57047298801928
 31
0.0
  0
CIRCLE
  5
2AB
  8
SIZE
  6
CONTINUOUS
 62
    30
 10
822.2389215272043
 20
295.55260641013223
 30
0.0
 40
6.0
  0
LINE
  5
2AC
  8
SIZE
  6
CONTINUOUS
 62
    30
 10
822.2389215272043
 20
295.55260641013223
 30
0.0
 11
822.2389215272043
 21
307.55260641013223
 31
0.0
  0
CIRCLE
  5
2AD
  8
SIZE
  6
CONTINUOUS
 62
    30
 10
822.2389215272043
 20
455.57047298801939
 30
0.0
 40
6.0
  0
LINE
  5
2AE
  8
SIZE
  6
CONTINUOUS
 62
    30
 10
822.2389215272043
 20
455.57047298801939
 30
0.0
 11
822.2389215272043
 21
443.57047298801928
 31
0.0
  0
TEXT
  5
2AF
  8
SIZE
  6
CONTINUOUS
 62
    30
 10
797.23892152720407
 20
306.99011112764742
 30
0.0
 40
64.0
  1
160
 50
90.0
 41
0.9
 72
     1
 11
797.23892152720407
 21
375.56153969907592
 31
0.0
  0
POINT
  5
2B0
  8
DEFPOINTS
  6
CONTINUOUS
 62
    30
 10
387.85574539207852
 20
295.55260641013223
 30
0.0
  0
POINT
  5
2B1
  8
DEFPOINTS
  6
CONTINUOUS
 62
    30
 10
287.49984528434379
 20
455.57047298801962
 30
0.0
  0
POINT
  5
2B2
  8
DEFPOINTS
  6
CONTINUOUS
 62
    30
 10
822.2389215272043
 20
455.57047298801939
 30
0.0
  0
ARC
  5
2B3
  8
DETAIL
  6
CONTINUOUS
 62
     5
 10
262.696005416356
 20
276.74281818898379
 30
0.0
 40
2.5003868541660981
 50
270.0
 51
90.0
  0
LINE
  5
2B4
  8
DETAIL
  6
CONTINUOUS
 62
     5
 10
262.696005416356
 20
274.24243133481741
 30
0.0
 11
260.69569593303021
 21
274.24243133481741
 31
0.0
  0
LINE
  5
2B5
  8
DETAIL
  6
CONTINUOUS
 62
     5
 10
250.49411756802559
 20
283.14380853565058
 30
0.0
 11
250.49411756802559
 21
280.14334431065049
 31
0.0
  0
LINE
  5
2B6
  8
DETAIL
  6
CONTINUOUS
 62
     5
 10
252.49442705135149
 20
280.14334431065049
 30
0.0
 11
252.49442705135149
 21
283.14380853565058
 31
0.0
  0
LINE
  5
2B7
  8
DETAIL
  6
CONTINUOUS
 62
     5
 10
254.49473653469951
 20
271.74204448065029
 30
0.0
 11
254.49473653469951
 21
285.14411801898399
 31
0.0
  0
LINE
  5
2B8
  8
DETAIL
  6
CONTINUOUS
 62
     5
 10
287.49984300969948
 20
287.14442750231689
 30
0.0
 11
254.49473653469951
 21
287.14442750231689
 31
0.0
  0
LINE
  5
2B9
  8
DETAIL
  6
CONTINUOUS
 62
     5
 10
287.49984300969948
 20
285.14411801898399
 30
0.0
 11
254.49473653469951
 21
285.14411801898399
 31
0.0
  0
ARC
  5
2BA
  8
DETAIL
  6
CONTINUOUS
 62
     5
 10
254.49473653469951
 20
283.14380853565058
 30
0.0
 40
2.000309483347896
 50
90.0
 51
180.0
  0
ARC
  5
2BB
  8
DETAIL
  6
CONTINUOUS
 62
     5
 10
256.4950460180255
 20
271.74204448065029
 30
0.0
 40
2.0003094833335662
 50
180.0
 51
270.0
  0
LINE
  5
2BC
  8
DETAIL
  6
CONTINUOUS
 62
     5
 10
252.49442705135149
 20
280.14334431065049
 30
0.0
 11
250.49411756802559
 21
280.14334431065049
 31
0.0
  0
ARC
  5
2BD
  8
DETAIL
  6
CONTINUOUS
 62
     5
 10
260.69569593303021
 20
276.74281818898379
 30
0.0
 40
2.5003868541667691
 50
90.0
 51
270.0
  0
LINE
  5
2BE
  8
DETAIL
  6
CONTINUOUS
 62
     5
 10
260.69569593303021
 20
279.24320504315011
 30
0.0
 11
262.696005416356
 21
279.24320504315011
 31
0.0
  0
ARC
  5
2BF
  8
DETAIL
  6
CONTINUOUS
 62
     5
 10
254.49473653469951
 20
283.14380853565058
 30
0.0
 40
4.0006189666739482
 50
90.0
 51
180.0
  0
LINE
  5
2C0
  8
DETAIL
  6
CONTINUOUS
 62
     5
 10
256.4950460180255
 20
269.7417349973166
 30
0.0
 11
283.99930141385153
 21
269.7417349973166
 31
0.0
  0
LINE
  5
2C1
  8
DETAIL
  6
CONTINUOUS
 62
     5
 10
285.99961089719937
 20
271.74204448065029
 30
0.0
 11
285.99961089719937
 21
283.17167689237908
 31
0.0
  0
ARC
  5
2C2
  8
DETAIL
  6
CONTINUOUS
 62
     5
 10
283.99930141385153
 20
271.74204448065029
 30
0.0
 40
2.000309483347896
 50
270.0
 51
0.000000000000007
  0
ARC
  5
2C3
  8
DETAIL
  6
CONTINUOUS
 62
     5
 10
278.69848128303011
 20
276.74281818898379
 30
0.0
 40
2.5003868541667691
 50
90.0
 51
270.0
  0
ARC
  5
2C4
  8
DETAIL
  6
CONTINUOUS
 62
     5
 10
280.69879076635613
 20
276.74281818898379
 30
0.0
 40
2.5003868541660981
 50
270.0
 51
90.0
  0
LINE
  5
2C5
  8
DETAIL
  6
CONTINUOUS
 62
     5
 10
278.69848128303011
 20
279.24320504315011
 30
0.0
 11
280.69879076635613
 21
279.24320504315011
 31
0.0
  0
LINE
  5
2C6
  8
DETAIL
  6
CONTINUOUS
 62
     5
 10
280.69879076635613
 20
274.24243133481741
 30
0.0
 11
278.69848128303011
 21
274.24243133481741
 31
0.0
  0
LINE
  5
2C7
  8
DETAIL
  6
CONTINUOUS
 62
     5
 10
289.50015249302561
 20
279.67113529654529
 30
0.0
 11
284.02716977059248
 21
285.14411801898399
 31
0.0
  0
ARC
  5
2C8
  8
DETAIL
  6
CONTINUOUS
 62
     5
 10
287.49984300969948
 20
283.14380853565058
 30
0.0
 40
4.0006189666667691
 50
0.000000000000007
 51
90.0
  0
ARC
  5
2C9
  8
DETAIL
  6
CONTINUOUS
 62
     5
 10
287.49984300969948
 20
283.14380853565058
 30
0.0
 40
2.0003094833335662
 50
0.000000000000007
 51
90.0
  0
LINE
  5
2CA
  8
DETAIL
  6
CONTINUOUS
 62
     5
 10
289.50015249302561
 20
238.0368296864838
 30
0.0
 11
289.50015249302561
 21
283.14380853565058
 31
0.0
  0
LINE
  5
2CB
  8
DETAIL
  6
CONTINUOUS
 62
     5
 10
291.50046197635152
 20
238.0368296864838
 30
0.0
 11
291.50046197635152
 21
283.14380853565058
 31
0.0
  0
LINE
  5
2CC
  8
DETAIL
  6
CONTINUOUS
 62
     5
 10
293.50077145969948
 20
254.53938292398379
 30
0.0
 11
293.50077145969948
 21
264.54093034065039
 31
0.0
  0
LINE
  5
2CD
  8
DETAIL
  6
CONTINUOUS
 62
     5
 10
291.50046197635152
 20
264.54093034065039
 30
0.0
 11
293.50077145969948
 21
264.54093034065039
 31
0.0
  0
LINE
  5
2CE
  8
DETAIL
  6
CONTINUOUS
 62
     5
 10
291.50046197635152
 20
254.53938292398379
 30
0.0
 11
293.50077145969948
 21
254.53938292398379
 31
0.0
  0
LINE
  5
2CF
  8
DETAIL
  6
CONTINUOUS
 62
     5
 10
289.10009059636468
 20
280.07119719321241
 30
0.0
 11
289.10009059636468
 21
253.43921270815031
 31
0.0
  0
LINE
  5
2D0
  8
DETAIL
  6
CONTINUOUS
 62
     5
 10
289.50015249302561
 20
253.43921270815031
 30
0.0
 11
288.49999775135171
 21
253.43921270815031
 31
0.0
  0
LINE
  5
2D1
  8
DETAIL
  6
CONTINUOUS
 62
     5
 10
289.50015249302561
 20
238.0368296864838
 30
0.0
 11
291.50046197635152
 21
238.0368296864838
 31
0.0
  0
LINE
  5
2D2
  8
DETAIL
  6
CONTINUOUS
 62
     5
 10
289.50015249302561
 20
238.0368296864838
 30
0.0
 11
288.49999775135171
 21
238.0368296864838
 31
0.0
  0
LINE
  5
2D3
  8
DETAIL
  6
CONTINUOUS
 62
     5
 10
289.10009059636491
 20
238.0368296864838
 30
0.0
 11
289.10009059636491
 21
153.0247054134858
 31
0.0
  0
LINE
  5
2D4
  8
DETAIL
  6
CONTINUOUS
 62
     5
 10
289.10009059636491
 20
413.06380243708941
 30
0.0
 11
289.10009059636491
 21
286.81043638393538
 31
0.0
  0
LINE
  5
2D5
  8
DETAIL
  6
CONTINUOUS
 62
     5
 10
365.51191285969981
 20
391.5606210423191
 30
0.0
 11
296.50123568469968
 21
399.5618589756516
 31
0.0
  0
LINE
  5
2D6
  8
DETAIL
  6
CONTINUOUS
 62
     5
 10
374.11324363803863
 20
390.46045082648521
 30
0.0
 11
374.11324363803863
 21
175.6272123164845
 31
0.0
  0
LINE
  5
2D7
  8
DETAIL
  6
CONTINUOUS
 62
     5
 10
373.0130734221998
 20
391.5606210423191
 30
0.0
 11
365.51191285969981
 21
391.5606210423191
 31
0.0
  0
ARC
  5
2D8
  8
DETAIL
  6
CONTINUOUS
 62
     5
 10
373.0130734221998
 20
390.46045082648521
 30
0.0
 40
1.1001702158391571
 50
0.0
 51
90.000000000000057
  0
LINE
  5
2D9
  8
DETAIL
  6
CONTINUOUS
 62
     5
 10
365.51191285969981
 20
174.52704210065141
 30
0.0
 11
296.50123568469968
 21
166.52580416731891
 31
0.0
  0
LINE
  5
2DA
  8
DETAIL
  6
CONTINUOUS
 62
     5
 10
365.51191285969981
 20
199.5309106423189
 30
0.0
 11
296.50123568469968
 21
191.52967270898529
 31
0.0
  0
LINE
  5
2DB
  8
DETAIL
  6
CONTINUOUS
 62
     5
 10
373.0130734221998
 20
174.52704210065141
 30
0.0
 11
365.51191285969981
 21
174.52704210065141
 31
0.0
  0
LINE
  5
2DC
  8
DETAIL
  6
CONTINUOUS
 62
     5
 10
373.0130734221998
 20
199.5309106423189
 30
0.0
 11
365.51191285969981
 21
199.5309106423189
 31
0.0
  0
LINE
  5
2DD
  8
DETAIL
  6
CONTINUOUS
 62
     5
 10
365.51191285969981
 20
174.52704210065141
 30
0.0
 11
365.51191285969981
 21
391.5606210423191
 31
0.0
  0
ARC
  5
2DE
  8
DETAIL
  6
CONTINUOUS
 62
     5
 10
373.0130734221998
 20
200.63108085815131
 30
0.0
 40
1.1001702158323401
 50
270.0
 51
0.0
  0
ARC
  5
2DF
  8
DETAIL
  6
CONTINUOUS
 62
     5
 10
373.0130734221998
 20
175.6272123164845
 30
0.0
 40
1.1001702158330131
 50
270.0
 51
0.0
  0
LINE
  5
2E0
  8
DETAIL
  6
CONTINUOUS
 62
     5
 10
296.50123568469968
 20
191.52967270898529
 30
0.0
 11
289.7001834413561
 21
191.52967270898529
 31
0.0
  0
LINE
  5
2E1
  8
DETAIL
  6
CONTINUOUS
 62
     5
 10
296.50123568469968
 20
166.52580416731891
 30
0.0
 11
289.7001834413561
 21
166.52580416731891
 31
0.0
  0
LINE
  5
2E2
  8
DETAIL
  6
CONTINUOUS
 62
     5
 10
296.50123568469968
 20
166.52580416731891
 30
0.0
 11
296.50123568469968
 21
399.5618589756516
 31
0.0
  0
ARC
  5
2E3
  8
DETAIL
  6
CONTINUOUS
 62
     5
 10
289.7001834413561
 20
400.16191331065062
 30
0.0
 40
0.6000928450001443
 50
180.0
 51
270.0
  0
ARC
  5
2E4
  8
DETAIL
  6
CONTINUOUS
 62
     5
 10
289.7001834413561
 20
375.15804476898398
 30
0.0
 40
0.6000928450001443
 50
180.0
 51
270.0
  0
ARC
  5
2E5
  8
DETAIL
  6
CONTINUOUS
 62
     5
 10
289.7001834413561
 20
165.92567281231641
 30
0.0
 40
0.6000928449912628
 50
90.0
 51
180.0
  0
LINE
  5
2E6
  8
DETAIL
  6
CONTINUOUS
 62
     5
 10
296.50123568469968
 20
399.5618589756516
 30
0.0
 11
289.7001834413561
 21
399.5618589756516
 31
0.0
  0
LINE
  5
2E7
  8
DETAIL
  6
CONTINUOUS
 62
     5
 10
287.49984300969948
 20
452.57002177398391
 30
0.0
 11
287.49984300969948
 21
287.14442750231689
 31
0.0
  0
LINE
  5
2E8
  8
DETAIL
  6
CONTINUOUS
 62
     5
 10
287.49984300969948
 20
281.67144477987893
 30
0.0
 11
287.49984300969948
 21
137.72130909731729
 31
0.0
  0
LINE
  5
2E9
  8
DETAIL
  6
CONTINUOUS
 62
     5
 10
288.49999775135171
 20
287.01244906441372
 30
0.0
 11
288.49999775135171
 21
454.57033125731738
 31
0.0
  0
LINE
  5
2EA
  8
DETAIL
  6
CONTINUOUS
 62
     5
 10
288.49999775135171
 20
248.60155674202289
 30
0.0
 11
288.49999775135171
 21
280.67129003821219
 31
0.0
  0
LINE
  5
2EB
  8
DETAIL
  6
CONTINUOUS
 62
     5
 10
289.10009059636468
 20
302.85784748991551
 30
0.0
 11
288.49999775135171
 21
302.85784748991551
 31
0.0
  0
LINE
  5
2EC
  8
DETAIL
  6
CONTINUOUS
 62
     5
 10
288.49999775135171
 20
238.0368296864838
 30
0.0
 11
288.49999775135171
 21
248.60155674202289
 31
0.0
  0
LINE
  5
2ED
  8
DETAIL
  6
CONTINUOUS
 62
     5
 10
288.49999775135171
 20
127.31969978398391
 30
0.0
 11
288.49999775135171
 21
238.0368296864838
 31
0.0
  0
LINE
  5
2EE
  8
DETAIL
  6
CONTINUOUS
 62
     5
 10
287.99992038052568
 20
453.87022293815028
 30
0.0
 11
287.99992038052568
 21
367.05679136148638
 31
0.0
  0
LINE
  5
2EF
  8
DETAIL
  6
CONTINUOUS
 62
     5
 10
288.49999775137371
 20
413.06380243708941
 30
0.0
 11
289.10009059636491
 21
413.06380243708941
 31
0.0
  0
LINE
  5
2F0
  8
DETAIL
  6
CONTINUOUS
 62
     5
 10
288.49999775137371
 20
153.0247054134858
 30
0.0
 11
289.10009059636491
 21
153.0247054134858
 31
0.0
  0
LINE
  5
2F1
  8
OUTLINE
  6
CONTINUOUS
 62
     3
 10
289.10009059636468
 20
165.92567281231641
 30
0.0
 11
289.10009059636468
 21
153.0247054134858
 31
0.0
  0
LINE
  5
2F2
  8
OUTLINE
  6
CONTINUOUS
 62
     3
 10
289.10009059636468
 20
413.06380243708941
 30
0.0
 11
289.10009059636468
 21
400.16191331065062
 31
0.0
  0
LINE
  5
2F3
  8
OUTLINE
  6
CONTINUOUS
 62
     3
 10
365.51191285969981
 20
391.5606210423191
 30
0.0
 11
296.50123568469962
 21
399.5618589756516
 31
0.0
  0
LINE
  5
2F4
  8
OUTLINE
  6
CONTINUOUS
 62
     3
 10
374.11324363803863
 20
390.46045082648521
 30
0.0
 11
374.11324363803863
 21
175.6272123164845
 31
0.0
  0
LINE
  5
2F5
  8
OUTLINE
  6
CONTINUOUS
 62
     3
 10
373.0130734221998
 20
391.5606210423191
 30
0.0
 11
365.51191285969981
 21
391.5606210423191
 31
0.0
  0
ARC
  5
2F6
  8
OUTLINE
  6
CONTINUOUS
 62
     3
 10
373.0130734221998
 20
390.46045082648521
 30
0.0
 40
1.1001702158391571
 50
0.0
 51
90.000000000000057
  0
LINE
  5
2F7
  8
OUTLINE
  6
CONTINUOUS
 62
     3
 10
365.51191285969981
 20
174.52704210065141
 30
0.0
 11
296.50123568469962
 21
166.52580416731891
 31
0.0
  0
LINE
  5
2F8
  8
OUTLINE
  6
CONTINUOUS
 62
     3
 10
373.0130734221998
 20
174.52704210065141
 30
0.0
 11
365.51191285969981
 21
174.52704210065141
 31
0.0
  0
ARC
  5
2F9
  8
OUTLINE
  6
CONTINUOUS
 62
     3
 10
373.0130734221998
 20
175.6272123164845
 30
0.0
 40
1.1001702158330131
 50
270.0
 51
0.0
  0
LINE
  5
2FA
  8
OUTLINE
  6
CONTINUOUS
 62
     3
 10
296.50123568469962
 20
166.52580416731891
 30
0.0
 11
289.7001834413561
 21
166.52580416731891
 31
0.0
  0
ARC
  5
2FB
  8
OUTLINE
  6
CONTINUOUS
 62
     3
 10
289.7001834413561
 20
400.16191331065062
 30
0.0
 40
0.6000928450001443
 50
180.0
 51
270.0
  0
ARC
  5
2FC
  8
OUTLINE
  6
CONTINUOUS
 62
     3
 10
289.7001834413561
 20
165.92567281231641
 30
0.0
 40
0.6000928449912628
 50
90.0
 51
180.0
  0
LINE
  5
2FD
  8
OUTLINE
  6
CONTINUOUS
 62
     3
 10
296.50123568469962
 20
399.5618589756516
 30
0.0
 11
289.7001834413561
 21
399.5618589756516
 31
0.0
  0
LINE
  5
2FE
  8
OUTLINE
  6
CONTINUOUS
 62
     3
 10
288.49999775137371
 20
413.06380243708941
 30
0.0
 11
289.10009059636468
 21
413.06380243708941
 31
0.0
  0
LINE
  5
2FF
  8
OUTLINE
  6
CONTINUOUS
 62
     3
 39
50.0
 10
289.10009059636468
 20
153.0247054134858
 30
0.0
 11
288.5
 21
153.0247054134858
 31
0.0
  0
LINE
  5
300
  8
SIZE
  6
CONTINUOUS
 62
    30
 39
50.0
 10
292.90475915184828
 20
153.0247054134858
 30
0.0
 11
292.90475915184828
 21
153.0247054134858
 31
0.0
  0
LINE
  5
301
  8
SIZE
  6
CONTINUOUS
 62
    30
 39
50.0
 10
292.90475915184828
 20
153.0247054134858
 30
0.0
 11
292.90475915184828
 21
153.0247054134858
 31
0.0
  0
LINE
  5
302
  8
NOTE
  6
CONTINUOUS
 62
     4
 10
279.34671329358491
 20
278.62069229432279
 30
0.0
 11
617.7108514703649
 21
-64.015675288370403
 31
0.0
  0
LINE
  5
303
  8
NOTE
  6
CONTINUOUS
 62
     4
 10
617.7108514703649
 20
-64.015675288370403
 30
0.0
 11
1262.311573290059
 21
-64.015675288370403
 31
0.0
  0
LINE
  5
304
  8
NOTE
  6
CONTINUOUS
 62
     4
 10
273.9814164301315
 20
281.75091414860373
 30
0.0
 11
270.90005210238098
 21
287.14441886906758
 31
0.0
  0
LINE
  5
305
  8
NOTE
  6
CONTINUOUS
 62
     4
 10
270.90005210238098
 20
287.14441886906758
 30
0.0
 11
276.26534896583439
 21
284.0141970147867
 31
0.0
  0
LINE
  5
306
  8
NOTE
  6
CONTINUOUS
 62
     4
 10
270.90005210238098
 20
287.14441886906758
 30
0.0
 11
279.34671329358491
 21
278.62069229432279
 31
0.0
  0
TEXT
  5
307
  8
NOTE
  6
CONTINUOUS
 62
     4
 10
409.20959761285661
 20
-56.469084128792133
 30
0.0
 40
64.0
  1
RA
 41
0.9
  0
TEXT
  5
308
  8
NOTE
  6
CONTINUOUS
 62
     4
 10
-519.8209657851329
 20
-57.006962205182752
 30
0.0
 40
64.0
  1
SA
 41
0.9
  0
LINE
  5
309
  8
BASIS
  6
DASHDOT
 62
     6
 39
50.0
 10
290.57147096648538
 20
270.6664785072241
 30
0.0
 11
385.47233648882798
 21
270.6664785072241
 31
0.0
  0
LINE
  5
30A
  8
SIZE
  6
CONTINUOUS
 62
    30
 10
307.49984528434368
 20
455.57047298801962
 30
0.0
 11
981.76701357329262
 21
455.57047298801939
 31
0.0
  0
LINE
  5
30B
  8
SIZE
  6
CONTINUOUS
 62
    30
 10
405.47233648882792
 20
270.6664785072241
 30
0.0
 11
981.76701357329205
 21
270.66647850722399
 31
0.0
  0
LINE
  5
30C
  8
SIZE
  6
CONTINUOUS
 62
    30
 10
961.76701357329273
 20
467.57047298801939
 30
0.0
 11
961.76701357329273
 21
479.57047298801939
 31
0.0
  0
LINE
  5
30D
  8
SIZE
  6
CONTINUOUS
 62
    30
 10
961.76701357329273
 20
258.66647850722399
 30
0.0
 11
961.76701357329205
 21
246.6664785072239
 31
0.0
  0
LINE
  5
30E
  8
SIZE
  6
CONTINUOUS
 62
    30
 10
961.76701357329273
 20
455.57047298801939
 30
0.0
 11
961.76701357329273
 21
270.66647850722399
 31
0.0
  0
CIRCLE
  5
30F
  8
SIZE
  6
CONTINUOUS
 62
    30
 10
961.76701357329273
 20
455.57047298801939
 30
0.0
 40
6.0
  0
LINE
  5
310
  8
SIZE
  6
CONTINUOUS
 62
    30
 10
961.76701357329273
 20
455.57047298801939
 30
0.0
 11
961.76701357329273
 21
467.57047298801939
 31
0.0
  0
CIRCLE
  5
311
  8
SIZE
  6
CONTINUOUS
 62
    30
 10
961.76701357329273
 20
270.66647850722399
 30
0.0
 40
6.0
  0
LINE
  5
312
  8
SIZE
  6
CONTINUOUS
 62
    30
 10
961.76701357329273
 20
270.66647850722399
 30
0.0
 11
961.76701357329273
 21
258.66647850722399
 31
0.0
  0
TEXT
  5
313
  8
SIZE
  6
CONTINUOUS
 62
    30
 10
936.76701357329205
 20
294.54704717619342
 30
0.0
 40
64.0
  1
185
 50
90.0
 41
0.9
 72
     1
 11
936.76701357329205
 21
363.11847574762191
 31
0.0
  0
POINT
  5
314
  8
DEFPOINTS
  6
CONTINUOUS
 62
    30
 10
287.49984528434379
 20
455.57047298801962
 30
0.0
  0
POINT
  5
315
  8
DEFPOINTS
  6
CONTINUOUS
 62
    30
 10
385.47233648882798
 20
270.6664785072241
 30
0.0
  0
POINT
  5
316
  8
DEFPOINTS
  6
CONTINUOUS
 62
    30
 10
961.76701357329273
 20
270.66647850722399
 30
0.0
  0
LINE
  5
317
  8
SIZE
  6
CONTINUOUS
 62
    30
 10
288.5
 20
474.57031827234931
 30
0.0
 11
288.5
 21
837.65059594665297
 31
0.0
  0
LINE
  5
318
  8
SIZE
  6
CONTINUOUS
 62
    30
 10
374.11324363803863
 20
410.46045082648521
 30
0.0
 11
374.11324363803863
 21
837.65059594665297
 31
0.0
  0
LINE
  5
319
  8
SIZE
  6
CONTINUOUS
 62
    30
 10
276.5
 20
817.65059594665308
 30
0.0
 11
264.5
 21
817.65059594665308
 31
0.0
  0
LINE
  5
31A
  8
SIZE
  6
CONTINUOUS
 62
    30
 10
386.11324363803868
 20
817.65059594665308
 30
0.0
 11
398.11324363803863
 21
817.65059594665308
 31
0.0
  0
LINE
  5
31B
  8
SIZE
  6
CONTINUOUS
 62
    30
 10
288.5
 20
817.65059594665308
 30
0.0
 11
374.11324363803863
 21
817.65059594665308
 31
0.0
  0
CIRCLE
  5
31C
  8
SIZE
  6
CONTINUOUS
 62
    30
 10
288.5
 20
817.65059594665308
 30
0.0
 40
6.0
  0
LINE
  5
31D
  8
SIZE
  6
CONTINUOUS
 62
    30
 10
288.5
 20
817.65059594665308
 30
0.0
 11
276.5
 21
817.65059594665308
 31
0.0
  0
CIRCLE
  5
31E
  8
SIZE
  6
CONTINUOUS
 62
    30
 10
374.11324363803863
 20
817.65059594665308
 30
0.0
 40
6.0
  0
LINE
  5
31F
  8
SIZE
  6
CONTINUOUS
 62
    30
 10
374.11324363803863
 20
817.65059594665308
 30
0.0
 11
386.11324363803868
 21
817.65059594665308
 31
0.0
  0
TEXT
  5
320
  8
SIZE
  6
CONTINUOUS
 62
    30
 10
286.04947896187662
 20
842.65059594665308
 30
0.0
 40
64.0
  1
86
 41
0.9
 72
     1
 11
331.30662181901943
 21
842.65059594665308
 31
0.0
  0
POINT
  5
321
  8
DEFPOINTS
  6
CONTINUOUS
 62
    30
 10
288.5
 20
454.5703182723492
 30
0.0
  0
POINT
  5
322
  8
DEFPOINTS
  6
CONTINUOUS
 62
    30
 10
374.11324363803863
 20
390.46045082648521
 30
0.0
  0
POINT
  5
323
  8
DEFPOINTS
  6
CONTINUOUS
 62
    30
 10
374.11324363803863
 20
817.65059594665308
 30
0.0
  0
ENDSEC
  0
EOF
