  0
SECTION
  2
HEADER
  9
$ACADVER
  1
AC1009
  9
$INSBASE
 10
0.0
 20
0.0
 30
0.0
  9
$EXTMIN
 10
-1518.924
 20
-583.26439600000003
 30
0.0
  9
$EXTMAX
 10
2683.8102072438901
 20
2968.3510000000001
 30
0.0
  9
$LIMMIN
 10
-5940.0
 20
-4200.0
  9
$LIMMAX
 10
5940.0
 20
4200.0
  9
$ORTHOMODE
 70
     1
  9
$REGENMODE
 70
     0
  9
$FILLMODE
 70
     1
  9
$QTEXTMODE
 70
     0
  9
$MIRRTEXT
 70
     0
  9
$DRAGMODE
 70
     2
  9
$LTSCALE
 40
20.0
  9
$OSMODE
 70
    37
  9
$ATTMODE
 70
     1
  9
$TEXTSIZE
 40
64.0
  9
$TRACEWID
 40
0.05
  9
$TEXTSTYLE
  7
STANDARD
  9
$CLAYER
  8
0
  9
$CELTYPE
  6
CONTINUOUS
  9
$CECOLOR
 62
     8
  9
$DIMSCALE
 40
1.0
  9
$DIMASZ
 40
2.0
  9
$DIMEXO
 40
20.0
  9
$DIMDLI
 40
200.0
  9
$DIMRND
 40
0.0
  9
$DIMDLE
 40
0.0
  9
$DIMEXE
 40
30.0
  9
$DIMTP
 40
0.0
  9
$DIMTM
 40
0.0
  9
$DIMTXT
 40
64.0
  9
$DIMCEN
 40
0.09
  9
$DIMTSZ
 40
0.0
  9
$DIMTOL
 70
     0
  9
$DIMLIM
 70
     0
  9
$DIMTIH
 70
     0
  9
$DIMTOH
 70
     0
  9
$DIMSE1
 70
     0
  9
$DIMSE2
 70
     0
  9
$DIMTAD
 70
     1
  9
$DIMZIN
 70
     8
  9
$DIMBLK
  1

  9
$DIMASO
 70
     1
  9
$DIMSHO
 70
     0
  9
$DIMPOST
  1

  9
$DIMAPOST
  1

  9
$DIMALT
 70
     0
  9
$DIMALTD
 70
     2
  9
$DIMALTF
 40
25.399999999999999
  9
$DIMLFAC
 40
1.0
  9
$DIMTOFL
 70
     1
  9
$DIMTVP
 40
0.0
  9
$DIMTIX
 70
     1
  9
$DIMSOXD
 70
     0
  9
$DIMSAH
 70
     0
  9
$DIMBLK1
  1

  9
$DIMBLK2
  1

  9
$DIMSTYLE
  2
STANDARD
  9
$DIMCLRD
 70
     0
  9
$DIMCLRE
 70
     0
  9
$DIMCLRT
 70
     0
  9
$DIMTFAC
 40
1.0
  9
$DIMGAP
 40
0.09
  9
$LUNITS
 70
     2
  9
$LUPREC
 70
     4
  9
$SKETCHINC
 40
0.1
  9
$FILLETRAD
 40
0.0
  9
$AUNITS
 70
     1
  9
$AUPREC
 70
     3
  9
$MENU
  1
ACAD
  9
$ELEVATION
 40
0.0
  9
$PELEVATION
 40
0.0
  9
$THICKNESS
 40
0.0
  9
$LIMCHECK
 70
     1
  9
$BLIPMODE
 70
     0
  9
$CHAMFERA
 40
0.0
  9
$CHAMFERB
 40
0.0
  9
$SKPOLY
 70
     0
  9
$TDCREATE
 40
2452045.4396874988
  9
$TDUPDATE
 40
2455181.4436141551
  9
$TDINDWG
 40
0.0035328009
  9
$TDUSRTIMER
 40
0.0035328009
  9
$USRTIMER
 70
     1
  9
$ANGBASE
 50
0.0
  9
$ANGDIR
 70
     0
  9
$PDMODE
 70
     3
  9
$PDSIZE
 40
-2.0
  9
$PLINEWID
 40
0.0
  9
$COORDS
 70
     1
  9
$SPLFRAME
 70
     0
  9
$SPLINETYPE
 70
     6
  9
$SPLINESEGS
 70
     8
  9
$ATTDIA
 70
     0
  9
$ATTREQ
 70
     1
  9
$HANDLING
 70
 22529
  9
$HANDSEED
  5
223
  9
$SURFTAB1
 70
     6
  9
$SURFTAB2
 70
     6
  9
$SURFTYPE
 70
     6
  9
$SURFU
 70
     6
  9
$SURFV
 70
     6
  9
$UCSNAME
  2

  9
$UCSORG
 10
0.0
 20
0.0
 30
0.0
  9
$UCSXDIR
 10
1.0
 20
0.0
 30
0.0
  9
$UCSYDIR
 10
0.0
 20
1.0
 30
0.0
  9
$PUCSNAME
  2

  9
$PUCSORG
 10
0.0
 20
0.0
 30
0.0
  9
$PUCSXDIR
 10
1.0
 20
0.0
 30
0.0
  9
$PUCSYDIR
 10
0.0
 20
1.0
 30
0.0
  9
$USERI1
 70
     0
  9
$USERI2
 70
     0
  9
$USERI3
 70
     0
  9
$USERI4
 70
     0
  9
$USERI5
 70
     0
  9
$USERR1
 40
20.0
  9
$USERR2
 40
0.0
  9
$USERR3
 40
0.0
  9
$USERR4
 40
0.0
  9
$USERR5
 40
0.0
  9
$WORLDVIEW
 70
     1
  9
$SHADEDGE
 70
     3
  9
$SHADEDIF
 70
    70
  9
$TILEMODE
 70
     1
  9
$MAXACTVP
 70
    64
  9
$PLIMCHECK
 70
     0
  9
$PEXTMIN
 10
1.0000000000000000E+020
 20
1.0000000000000000E+020
 30
1.0000000000000000E+020
  9
$PEXTMAX
 10
-1.0000000000000000E+020
 20
-1.0000000000000000E+020
 30
-1.0000000000000000E+020
  9
$PLIMMIN
 10
0.0
 20
0.0
  9
$PLIMMAX
 10
12.0
 20
9.0
  9
$UNITMODE
 70
     0
  9
$VISRETAIN
 70
     1
  9
$PLINEGEN
 70
     0
  9
$PSLTSCALE
 70
     1
  0
ENDSEC
  0
SECTION
  2
TABLES
  0
TABLE
  2
VPORT
 70
     6
  0
VPORT
  2
*ACTIVE
 70
     0
 10
0.0
 20
0.0
 11
1.0
 21
1.0
 12
415.89111924267399
 22
1108.992896
 13
0.0
 23
0.0
 14
400.0
 24
400.0
 15
400.0
 25
400.0
 16
0.0
 26
0.0
 36
1.0
 17
0.0
 27
0.0
 37
0.0
 40
5064.7283360000001
 41
1.563081009296148
 42
50.0
 43
0.0
 44
0.0
 50
0.0
 51
0.0
 71
     0
 72
   500
 73
     1
 74
     0
 75
     0
 76
     0
 77
     0
 78
     1
  0
ENDTAB
  0
TABLE
  2
LTYPE
 70
     7
  0
LTYPE
  2
CONTINUOUS
 70
     0
  3
実線
 72
    65
 73
     0
 40
0.0
  0
LTYPE
  2
DOT
 70
     0
  3
...............................................
 72
    65
 73
     2
 40
0.8
 49
0.5
 49
-0.3
  0
LTYPE
  2
DASHED
 70
     0
  3
_ _ _ _ _ _ _ _ _ _ _ _ _ _ _ _ _ _ _ _ _ _ _
 72
    65
 73
     2
 40
2.0
 49
1.1999999999999991
 49
-0.8
  0
LTYPE
  2
DASHDOT
 70
     0
  3
____ _ ____ _ ____ _ ____ _ ____ _ ____ _ ____
 72
    65
 73
     4
 40
5.5
 49
4.0
 49
-0.6
 49
0.3
 49
-0.6
  0
LTYPE
  2
DASHDOT1
 70
     0
  3
____ _ ____ _ ____ _ ____ _ ____ _ ____ _ ____
 72
    65
 73
     4
 40
2.0
 49
1.5
 49
-0.2
 49
0.1
 49
-0.2
  0
LTYPE
  2
DIVIDE
 70
     0
  3
_____ _ _ _____ _ _ _____ _ _ _____ _ _ ____
 72
    65
 73
     6
 40
6.4000000000000004
 49
4.0
 49
-0.6
 49
0.3
 49
-0.6
 49
0.3
 49
-0.6
  0
LTYPE
  2
DIVIDE1
 70
     0
  3
_____ _ _ _____ _ _ _____ _ _ _____ _ _ ____
 72
    65
 73
     6
 40
3.2000000000000002
 49
2.0
 49
-0.3
 49
0.15
 49
-0.3
 49
0.15
 49
-0.3
  0
ENDTAB
  0
TABLE
  2
LAYER
 70
    12
  0
LAYER
  2
0
 70
     0
 62
     7
  6
CONTINUOUS
  0
LAYER
  2
OUTLINE
 70
     0
 62
     3
  6
CONTINUOUS
  0
LAYER
  2
DETAIL
 70
     0
 62
     5
  6
CONTINUOUS
  0
LAYER
  2
BASIS
 70
     0
 62
     6
  6
DASHDOT
  0
LAYER
  2
SIZE
 70
     0
 62
    30
  6
CONTINUOUS
  0
LAYER
  2
NOTE
 70
     0
 62
     4
  6
CONTINUOUS
  0
LAYER
  2
ARRANGE
 70
     0
 62
     1
  6
CONTINUOUS
  0
LAYER
  2
FIX
 70
     0
 62
    11
  6
CONTINUOUS
  0
LAYER
  2
SERVICESPACE
 70
     0
 62
     2
  6
DASHDOT
  0
LAYER
  2
ETC
 70
     0
 62
    61
  6
CONTINUOUS
  0
LAYER
  2
DEFPOINTS
 70
     0
 62
     7
  6
CONTINUOUS
  0
LAYER
  2
SYMBOLLINE
 70
     0
 62
    15
  6
CONTINUOUS
  0
ENDTAB
  0
TABLE
  2
STYLE
 70
     1
  0
STYLE
  2
STANDARD
 70
     0
 40
0.0
 41
0.9
 50
0.0
 71
     0
 42
64.0
  3
SIMPLEX
  4
BIGFONT
  0
ENDTAB
  0
TABLE
  2
VIEW
 70
     1
  0
VIEW
  2
ALL
 70
     0
 40
11144.251414
 10
1402.1192570000001
 20
-1093.5194220000001
 41
15457.093172000001
 11
0.0
 21
0.0
 31
1.0
 12
0.0
 22
0.0
 32
0.0
 42
50.0
 43
0.0
 44
0.0
 50
0.0
 71
     0
  0
ENDTAB
  0
TABLE
  2
UCS
 70
     0
  0
ENDTAB
  0
TABLE
  2
APPID
 70
     1
  0
APPID
  2
ACAD
 70
     0
  0
ENDTAB
  0
TABLE
  2
DIMSTYLE
 70
     1
  0
DIMSTYLE
  2
STANDARD
 70
     0
  3

  4

  5

  6

  7

 40
1.0
 41
0.18
 42
0.0625
 43
0.38
 44
0.18
 45
0.0
 46
0.0
 47
0.0
 48
0.0
140
0.18
141
0.09
142
0.0
143
25.399999999999999
144
1.0
145
0.0
146
1.0
147
0.09
 71
     0
 72
     0
 73
     1
 74
     1
 75
     0
 76
     0
 77
     0
 78
     0
170
     0
171
     2
172
     0
173
     0
174
     0
175
     0
176
     0
177
     0
178
     0
  0
ENDTAB
  0
ENDSEC
  0
SECTION
  2
BLOCKS
  0
BLOCK
  8
0
  2
$MODEL_SPACE
 70
     0
 10
0.0
 20
0.0
 30
0.0
  3
$MODEL_SPACE
  1

  0
ENDBLK
  5
20
  8
0
  0
BLOCK
 67
     1
  8
0
  2
$PAPER_SPACE
 70
     0
 10
0.0
 20
0.0
 30
0.0
  3
$PAPER_SPACE
  1

  0
ENDBLK
  5
1C
 67
     1
  8
0
  0
ENDSEC
  0
SECTION
  2
ENTITIES
  0
TEXT
  5
37
  8
ETC
  6
CONTINUOUS
 62
    61
 10
1598.3119999999999
 20
2767.049
 30
0.0
 40
64.0
  1
ロスナイ
 41
0.9
  0
TEXT
  5
38
  8
ETC
  6
CONTINUOUS
 62
    61
 10
1598.3119999999999
 20
2870.337
 30
0.0
 40
64.0
  1
LPB-500KX4-50_5
 41
0.9
  0
LINE
  5
39
  8
OUTLINE
  6
CONTINUOUS
 62
     3
 10
-845.0
 20
0.0
 30
0.0
 11
845.0
 21
0.0
 31
0.0
  0
LINE
  5
3A
  8
OUTLINE
  6
CONTINUOUS
 62
     3
 10
-845.0
 20
700.0
 30
0.0
 11
845.0
 21
700.0
 31
0.0
  0
LINE
  5
3B
  8
OUTLINE
  6
CONTINUOUS
 62
     3
 10
-845.0
 20
700.0
 30
0.0
 11
-845.0
 21
0.0
 31
0.0
  0
LINE
  5
3C
  8
OUTLINE
  6
CONTINUOUS
 62
     3
 10
824.0
 20
2286.0
 30
0.0
 11
824.0
 21
700.0
 31
0.0
  0
LINE
  5
3D
  8
OUTLINE
  6
CONTINUOUS
 62
     3
 10
-845.0
 20
2286.0
 30
0.0
 11
827.0
 21
2286.0
 31
0.0
  0
LINE
  5
3E
  8
OUTLINE
  6
CONTINUOUS
 62
     3
 10
-845.0
 20
700.0
 30
0.0
 11
-845.0
 21
2286.0
 31
0.0
  0
LINE
  5
3F
  8
DETAIL
  6
CONTINUOUS
 62
     5
 10
827.0
 20
2286.0
 30
0.0
 11
-845.0
 21
2286.0
 31
0.0
  0
LINE
  5
40
  8
DETAIL
  6
CONTINUOUS
 62
     5
 10
845.0
 20
0.0
 30
0.0
 11
-845.0
 21
0.0
 31
0.0
  0
LINE
  5
41
  8
BASIS
  6
DASHDOT
 62
     6
 10
0.0
 20
2374.1849999999999
 30
0.0
 11
0.0
 21
-160.08071299999989
 31
0.0
  0
LINE
  5
42
  8
DETAIL
  6
CONTINUOUS
 62
     5
 10
-845.0
 20
2286.0
 30
0.0
 11
-845.0
 21
0.0
 31
0.0
  0
LINE
  5
43
  8
DETAIL
  6
CONTINUOUS
 62
     5
 10
845.0
 20
2080.0
 30
0.0
 11
824.0
 21
2080.0
 31
0.0
  0
LINE
  5
44
  8
DETAIL
  6
CONTINUOUS
 62
     5
 10
845.0
 20
1680.0
 30
0.0
 11
824.0
 21
1680.0
 31
0.0
  0
LINE
  5
45
  8
DETAIL
  6
CONTINUOUS
 62
     5
 10
845.0
 20
1650.0
 30
0.0
 11
824.0
 21
1650.0
 31
0.0
  0
LINE
  5
46
  8
DETAIL
  6
CONTINUOUS
 62
     5
 10
845.0
 20
1250.0
 30
0.0
 11
824.0
 21
1250.0
 31
0.0
  0
LINE
  5
47
  8
DETAIL
  6
CONTINUOUS
 62
     5
 10
845.0
 20
1220.0
 30
0.0
 11
824.0
 21
1220.0
 31
0.0
  0
LINE
  5
48
  8
DETAIL
  6
CONTINUOUS
 62
     5
 10
845.0
 20
820.0
 30
0.0
 11
824.0
 21
820.0
 31
0.0
  0
LINE
  5
49
  8
DETAIL
  6
CONTINUOUS
 62
     5
 10
845.0
 20
700.0
 30
0.0
 11
650.0
 21
700.0
 31
0.0
  0
LINE
  5
4A
  8
DETAIL
  6
CONTINUOUS
 62
     5
 10
845.0
 20
2080.0
 30
0.0
 11
845.0
 21
1680.0
 31
0.0
  0
LINE
  5
4B
  8
DETAIL
  6
CONTINUOUS
 62
     5
 10
845.0
 20
1650.0
 30
0.0
 11
845.0
 21
1250.0
 31
0.0
  0
LINE
  5
4C
  8
DETAIL
  6
CONTINUOUS
 62
     5
 10
845.0
 20
1220.0
 30
0.0
 11
845.0
 21
820.0
 31
0.0
  0
LINE
  5
4D
  8
DETAIL
  6
CONTINUOUS
 62
     5
 10
845.0
 20
80.0
 30
0.0
 11
655.0
 21
80.0
 31
0.0
  0
LINE
  5
4E
  8
DETAIL
  6
CONTINUOUS
 62
     5
 10
811.0
 20
647.00000699999998
 30
0.0
 11
801.0
 21
647.00000699999998
 31
0.0
  0
LINE
  5
4F
  8
DETAIL
  6
CONTINUOUS
 62
     5
 10
845.0
 20
700.0
 30
0.0
 11
845.0
 21
0.0
 31
0.0
  0
LINE
  5
50
  8
DETAIL
  6
CONTINUOUS
 62
     5
 10
811.0
 20
685.0
 30
0.0
 11
811.0
 21
683.85615800000005
 31
0.0
  0
LINE
  5
51
  8
DETAIL
  6
CONTINUOUS
 62
     5
 10
801.0
 20
685.0
 30
0.0
 11
801.0
 21
683.85615800000005
 31
0.0
  0
CIRCLE
  5
52
  8
DETAIL
  6
CONTINUOUS
 62
     5
 10
806.0
 20
673.5
 30
0.0
 40
11.5
  0
LINE
  5
53
  8
DETAIL
  6
CONTINUOUS
 62
     5
 10
801.0
 20
685.0
 30
0.0
 11
797.0
 21
700.0
 31
0.0
  0
LINE
  5
54
  8
DETAIL
  6
CONTINUOUS
 62
     5
 10
811.0
 20
685.0
 30
0.0
 11
815.0
 21
700.0
 31
0.0
  0
LINE
  5
55
  8
DETAIL
  6
CONTINUOUS
 62
     5
 10
801.0
 20
663.14384199999995
 30
0.0
 11
801.0
 21
647.00000699999998
 31
0.0
  0
LINE
  5
56
  8
DETAIL
  6
CONTINUOUS
 62
     5
 10
811.0
 20
663.14384199999995
 30
0.0
 11
811.0
 21
647.00000699999998
 31
0.0
  0
LINE
  5
57
  8
DETAIL
  6
CONTINUOUS
 62
     5
 10
-801.0
 20
663.14384199999995
 30
0.0
 11
-801.0
 21
647.00000699999998
 31
0.0
  0
LINE
  5
58
  8
DETAIL
  6
CONTINUOUS
 62
     5
 10
-811.0
 20
663.14384199999995
 30
0.0
 11
-811.0
 21
647.00000699999998
 31
0.0
  0
LINE
  5
59
  8
DETAIL
  6
CONTINUOUS
 62
     5
 10
-801.0
 20
685.0
 30
0.0
 11
-797.0
 21
700.0
 31
0.0
  0
LINE
  5
5A
  8
DETAIL
  6
CONTINUOUS
 62
     5
 10
-811.0
 20
685.0
 30
0.0
 11
-815.0
 21
700.0
 31
0.0
  0
CIRCLE
  5
5B
  8
DETAIL
  6
CONTINUOUS
 62
     5
 10
-806.0
 20
673.5
 30
0.0
 40
11.5
  0
LINE
  5
5C
  8
DETAIL
  6
CONTINUOUS
 62
     5
 10
-811.0
 20
685.0
 30
0.0
 11
-811.0
 21
683.85615800000005
 31
0.0
  0
LINE
  5
5D
  8
DETAIL
  6
CONTINUOUS
 62
     5
 10
-801.0
 20
685.0
 30
0.0
 11
-801.0
 21
683.85615800000005
 31
0.0
  0
LINE
  5
5E
  8
DETAIL
  6
CONTINUOUS
 62
     5
 10
-801.0
 20
647.00000699999998
 30
0.0
 11
-811.0
 21
647.00000699999998
 31
0.0
  0
TEXT
  5
5F
  8
NOTE
  6
CONTINUOUS
 62
     4
 10
387.55789199999992
 20
2383.599999999999
 30
0.0
 40
64.0
  1
SA
 41
0.9
  0
TEXT
  5
60
  8
NOTE
  6
CONTINUOUS
 62
     4
 10
-457.12739099999999
 20
2388.0230000000001
 30
0.0
 40
64.0
  1
EA
 41
0.9
  0
TEXT
  5
61
  8
NOTE
  6
CONTINUOUS
 62
     4
 10
-1517.604
 20
2604.13978
 30
0.0
 40
64.0
  1
22-φ10
 41
0.9
  0
LINE
  5
62
  8
NOTE
  6
CONTINUOUS
 62
     4
 10
-1518.924
 20
2574.1869999999999
 30
0.0
 11
-1175.8209999999999
 21
2574.1869999999999
 31
0.0
  0
TEXT
  5
63
  8
NOTE
  6
CONTINUOUS
 62
     4
 10
691.81454099999996
 20
1770.319999999999
 30
0.0
 40
64.0
  1
EL
 41
0.9
  0
LINE
  5
64
  8
NOTE
  6
CONTINUOUS
 62
     4
 10
674.26126900000008
 20
1742.287
 30
0.0
 11
800.64286800000002
 21
1742.287
 31
0.0
  0
LINE
  5
65
  8
NOTE
  6
CONTINUOUS
 62
     4
 10
824.0
 20
1580.0
 30
0.0
 11
800.64286800000002
 21
1742.287
 31
0.0
  0
TEXT
  5
66
  8
NOTE
  6
CONTINUOUS
 62
     4
 10
917.53270599999996
 20
531.85139500000002
 30
0.0
 40
64.0
  1
アイナット4-M16
 41
0.9
  0
LINE
  5
67
  8
NOTE
  6
CONTINUOUS
 62
     4
 10
887.77273300000002
 20
494.65149200000002
 30
0.0
 11
1528.6429999999989
 21
494.65149200000002
 31
0.0
  0
LINE
  5
68
  8
NOTE
  6
CONTINUOUS
 62
     4
 10
-450.0
 20
0.0
 30
0.0
 11
-960.36051500000008
 21
-369.18716699999987
 31
0.0
  0
TEXT
  5
69
  8
NOTE
  6
CONTINUOUS
 62
     4
 10
1134.2946400000001
 20
2409.2658700000002
 30
0.0
 40
64.0
  1
メンテナンスカバー
 41
0.9
  0
LINE
  5
6A
  8
NOTE
  6
CONTINUOUS
 62
     4
 10
1108.125
 20
2375.8497699999989
 30
0.0
 11
1766.662
 21
2375.8497699999989
 31
0.0
  0
POINT
  5
6B
  8
ARRANGE
  6
CONTINUOUS
 62
     1
 10
0.0
 20
0.0
 30
0.0
  0
CIRCLE
  5
6C
  8
ARRANGE
  6
CONTINUOUS
 62
     1
 10
0.0
 20
0.0
 30
0.0
 40
40.0
  0
TEXT
  5
6D
  8
NOTE
  6
CONTINUOUS
 62
     4
 10
927.82959900000003
 20
2557.9789999999998
 30
0.0
 40
64.0
  1
22-φ10
 41
0.9
  0
LINE
  5
6E
  8
NOTE
  6
CONTINUOUS
 62
     4
 10
926.508824
 20
2528.0259999999998
 30
0.0
 11
1274.7360000000001
 21
2528.0259999999998
 31
0.0
  0
LINE
  5
6F
  8
DETAIL
  6
CONTINUOUS
 62
     5
 10
74.0
 20
2336.0
 30
0.0
 11
74.0
 21
2286.0
 31
0.0
  0
LINE
  5
70
  8
DETAIL
  6
CONTINUOUS
 62
     5
 10
794.0
 20
2336.0
 30
0.0
 11
794.0
 21
2286.0
 31
0.0
  0
LINE
  5
71
  8
DETAIL
  6
CONTINUOUS
 62
     5
 10
824.0
 20
2336.0
 30
0.0
 11
44.0
 21
2336.0
 31
0.0
  0
LINE
  5
72
  8
DETAIL
  6
CONTINUOUS
 62
     5
 10
-95.0
 20
2336.0
 30
0.0
 11
-95.0
 21
2286.0
 31
0.0
  0
LINE
  5
73
  8
DETAIL
  6
CONTINUOUS
 62
     5
 10
-815.0
 20
2336.0
 30
0.0
 11
-815.0
 21
2286.0
 31
0.0
  0
LINE
  5
74
  8
DETAIL
  6
CONTINUOUS
 62
     5
 10
-65.0
 20
2336.0
 30
0.0
 11
-845.0
 21
2336.0
 31
0.0
  0
LINE
  5
75
  8
DETAIL
  6
CONTINUOUS
 62
     5
 10
824.0
 20
700.0
 30
0.0
 11
824.0
 21
2286.0
 31
0.0
  0
LINE
  5
76
  8
NOTE
  6
CONTINUOUS
 62
     4
 10
-835.0
 20
2336.0
 30
0.0
 11
-1175.8209999999999
 21
2574.1869999999999
 31
0.0
  0
LINE
  5
77
  8
SIZE
  6
CONTINUOUS
 62
    30
 10
-805.0
 20
2499.3440000000001
 30
0.0
 11
-1030.7260000000001
 21
2499.3440000000001
 31
0.0
  0
LINE
  5
78
  8
SIZE
  6
CONTINUOUS
 62
    30
 10
-101.0
 20
2499.3440000000001
 30
0.0
 11
61.164400000000001
 21
2499.3440000000001
 31
0.0
  0
LINE
  5
79
  8
NOTE
  6
CONTINUOUS
 62
     4
 10
684.0
 20
2336.0
 30
0.0
 11
926.508824
 21
2528.0259999999998
 31
0.0
  0
LINE
  5
7A
  8
SIZE
  6
CONTINUOUS
 62
    30
 10
-971.36455600000011
 20
-2.0
 30
0.0
 11
-971.36455600000011
 21
-155.07112599999991
 31
0.0
  0
LINE
  5
7B
  8
NOTE
  6
CONTINUOUS
 62
     4
 10
887.77273300000002
 20
494.65149200000002
 30
0.0
 11
811.78466199999991
 21
688.04223399999989
 31
0.0
  0
TEXT
  5
7C
  8
NOTE
  6
CONTINUOUS
 62
     4
 10
-1266.9000000000001
 20
-339.3535819999999
 30
0.0
 40
64.0
  1
3-φ20
 41
0.9
  0
LINE
  5
7D
  8
NOTE
  6
CONTINUOUS
 62
     4
 10
-960.36051500000008
 20
-369.18716699999987
 30
0.0
 11
-1286.0089999999991
 21
-369.18716699999987
 31
0.0
  0
LINE
  5
7E
  8
DETAIL
  6
CONTINUOUS
 62
     5
 10
-585.0
 20
2000.0
 30
0.0
 11
-585.0
 21
0.0
 31
0.0
  0
LINE
  5
7F
  8
DETAIL
  6
CONTINUOUS
 62
     5
 10
655.0
 20
2000.0
 30
0.0
 11
655.0
 21
0.0
 31
0.0
  0
LINE
  5
80
  8
DETAIL
  6
CONTINUOUS
 62
     5
 10
655.0
 20
2000.0
 30
0.0
 11
-585.0
 21
2000.0
 31
0.0
  0
LINE
  5
81
  8
DETAIL
  6
CONTINUOUS
 62
     5
 10
-590.0
 20
700.0
 30
0.0
 11
-845.0
 21
700.0
 31
0.0
  0
LINE
  5
82
  8
DETAIL
  6
CONTINUOUS
 62
     5
 10
-585.0
 20
80.0
 30
0.0
 11
-845.0
 21
80.0
 31
0.0
  0
LINE
  5
83
  8
DETAIL
  6
CONTINUOUS
 62
     5
 10
655.0
 20
150.0
 30
0.0
 11
-585.0
 21
150.0
 31
0.0
  0
CIRCLE
  5
84
  8
FIX
  6
CONTINUOUS
 62
    11
 10
-450.0
 20
0.0
 30
0.0
 40
10.0
  0
CIRCLE
  5
85
  8
FIX
  6
CONTINUOUS
 62
    11
 10
0.0
 20
0.0
 30
0.0
 40
10.0
  0
CIRCLE
  5
86
  8
FIX
  6
CONTINUOUS
 62
    11
 10
450.0
 20
0.0
 30
0.0
 40
10.0
  0
CIRCLE
  5
87
  8
DETAIL
  6
CONTINUOUS
 62
     5
 10
498.0
 20
200.0
 30
0.0
 40
10.849999999999991
  0
CIRCLE
  5
88
  8
DETAIL
  6
CONTINUOUS
 62
     5
 10
394.0
 20
65.0
 30
0.0
 40
13.6
  0
LINE
  5
89
  8
NOTE
  6
CONTINUOUS
 62
     4
 10
498.0
 20
200.0
 30
0.0
 11
885.04036499999995
 21
320.11519700000002
 31
0.0
  0
LINE
  5
8A
  8
NOTE
  6
CONTINUOUS
 62
     4
 10
394.0
 20
65.0
 30
0.0
 11
244.0972799999999
 21
295.05383599999988
 31
0.0
  0
LINE
  5
8B
  8
NOTE
  6
CONTINUOUS
 62
     4
 10
244.0972799999999
 20
295.05383599999988
 30
0.0
 11
-103.1505689999999
 21
295.05383599999988
 31
0.0
  0
TEXT
  5
8C
  8
NOTE
  6
CONTINUOUS
 62
     4
 10
-89.657780999999986
 20
325.00626699999992
 30
0.0
 40
64.0
  1
D φ27.2
 41
0.9
  0
LINE
  5
8D
  8
NOTE
  6
CONTINUOUS
 62
     4
 10
1264.763999999999
 20
320.11519700000002
 30
0.0
 11
885.04036499999995
 21
320.11519700000002
 31
0.0
  0
TEXT
  5
8E
  8
NOTE
  6
CONTINUOUS
 62
     4
 10
898.07103199999995
 20
350.06762900000001
 30
0.0
 40
64.0
  1
CWφ21.7
 41
0.9
  0
LINE
  5
8F
  8
SIZE
  6
CONTINUOUS
 62
    30
 10
1050.5329999999999
 20
-2.0
 30
0.0
 11
1050.5329999999999
 21
-148.90216099999989
 31
0.0
  0
LINE
  5
90
  8
SIZE
  6
CONTINUOUS
 62
    30
 10
1585.211
 20
2.0
 30
0.0
 11
1585.211
 21
-199.40020499999989
 31
0.0
  0
LINE
  5
91
  8
OUTLINE
  6
CONTINUOUS
 62
     3
 10
845.0
 20
700.0
 30
0.0
 11
845.0
 21
0.0
 31
0.0
  0
CIRCLE
  5
92
  8
FIX
  6
CONTINUOUS
 62
    11
 10
-806.0
 20
673.5
 30
0.0
 40
8.0
  0
CIRCLE
  5
93
  8
FIX
  6
CONTINUOUS
 62
    11
 10
806.0
 20
673.5
 30
0.0
 40
8.0
  0
LINE
  5
94
  8
SERVICESPACE
  6
DASHDOT
 62
     2
 10
1445.0
 20
2345.0799999999999
 30
0.0
 11
1445.0
 21
-251.0630009999999
 31
0.0
  0
TEXT
  5
95
  8
NOTE
  6
CONTINUOUS
 62
     4
 10
846.11415499999998
 20
-520.14986399999987
 30
0.0
 40
64.0
  1
メンテナンススペース
 41
0.9
  0
LINE
  5
96
  8
NOTE
  6
CONTINUOUS
 62
     4
 10
845.0
 20
1807.0809999999999
 30
0.0
 11
1108.125
 21
2375.8497699999989
 31
0.0
  0
LINE
  5
97
  8
NOTE
  6
CONTINUOUS
 62
     4
 10
1108.125
 20
2375.8497699999989
 30
0.0
 11
845.0
 21
1407.0479999999991
 31
0.0
  0
LINE
  5
98
  8
NOTE
  6
CONTINUOUS
 62
     4
 10
845.0
 20
1060.1890000000001
 30
0.0
 11
1108.125
 21
2375.8497699999989
 31
0.0
  0
LINE
  5
99
  8
SIZE
  6
CONTINUOUS
 62
    30
 10
-885.0
 20
2286.0
 30
0.0
 11
-864.66938000000005
 21
2286.0
 31
0.0
  0
LINE
  5
9A
  8
SIZE
  6
BYBLOCK
 62
    30
 10
-585.0
 20
2020.0
 30
0.0
 11
-585.0
 21
2136.5639999999989
 31
0.0
  0
LINE
  5
9B
  8
SIZE
  6
BYBLOCK
 62
    30
 10
-845.0
 20
2027.3409999999999
 30
0.0
 11
-845.0
 21
2136.5639999999989
 31
0.0
  0
LINE
  5
9C
  8
SIZE
  6
BYBLOCK
 62
    30
 10
-587.0
 20
2106.5639999999999
 30
0.0
 11
-843.0
 21
2106.5639999999999
 31
0.0
  0
TEXT
  5
9D
  8
SIZE
  6
BYBLOCK
 62
    30
 10
-789.057143
 20
2138.5639999999999
 30
0.0
 40
64.0
  1
260
 41
0.9
  0
LINE
  5
9E
  8
SIZE
  6
BYBLOCK
 62
    30
 10
845.0
 20
2100.0
 30
0.0
 11
845.0
 21
2136.5639999999989
 31
0.0
  0
LINE
  5
9F
  8
SIZE
  6
BYBLOCK
 62
    30
 10
655.0
 20
2020.0
 30
0.0
 11
655.0
 21
2136.5639999999989
 31
0.0
  0
LINE
  5
A0
  8
SIZE
  6
BYBLOCK
 62
    30
 10
843.0
 20
2106.5639999999999
 30
0.0
 11
657.0
 21
2106.5639999999999
 31
0.0
  0
TEXT
  5
A1
  8
SIZE
  6
BYBLOCK
 62
    30
 10
681.42857100000003
 20
2138.5639999999999
 30
0.0
 40
64.0
  1
190
 41
0.9
  0
LINE
  5
A2
  8
SIZE
  6
BYBLOCK
 62
    30
 10
1445.0
 20
-271.06300099999999
 30
0.0
 11
1445.0
 21
-452.92534699999987
 31
0.0
  0
LINE
  5
A3
  8
SIZE
  6
BYBLOCK
 62
    30
 10
845.0
 20
-20.0
 30
0.0
 11
845.0
 21
-452.92534699999987
 31
0.0
  0
LINE
  5
A4
  8
SIZE
  6
BYBLOCK
 62
    30
 10
1443.0
 20
-422.92534699999987
 30
0.0
 11
847.0
 21
-422.92534699999987
 31
0.0
  0
TEXT
  5
A5
  8
SIZE
  6
BYBLOCK
 62
    30
 10
1001.273999999999
 20
-390.92534699999999
 30
0.0
 40
64.0
  1
600以上
 41
0.9
  0
LINE
  5
A6
  8
SIZE
  6
BYBLOCK
 62
    30
 10
655.0
 20
2020.0
 30
0.0
 11
655.0
 21
2136.5639999999989
 31
0.0
  0
LINE
  5
A7
  8
SIZE
  6
BYBLOCK
 62
    30
 10
-585.0
 20
2020.0
 30
0.0
 11
-585.0
 21
2136.5639999999989
 31
0.0
  0
LINE
  5
A8
  8
SIZE
  6
BYBLOCK
 62
    30
 10
653.0
 20
2106.5639999999999
 30
0.0
 11
35.0
 21
2106.5639999999999
 31
0.0
  0
LINE
  5
A9
  8
SIZE
  6
BYBLOCK
 62
    30
 10
-583.0
 20
2106.5639999999999
 30
0.0
 11
35.0
 21
2106.5639999999999
 31
0.0
  0
TEXT
  5
AA
  8
SIZE
  6
BYBLOCK
 62
    30
 10
-61.0
 20
2138.5639999999999
 30
0.0
 40
64.0
  1
1240
 41
0.9
  0
LINE
  5
AB
  8
SIZE
  6
BYBLOCK
 62
    30
 10
670.0
 20
0.0
 30
0.0
 11
1749.98
 21
0.0
 31
0.0
  0
LINE
  5
AC
  8
SIZE
  6
BYBLOCK
 62
    30
 10
670.0
 20
2000.0
 30
0.0
 11
1749.98
 21
2000.0
 31
0.0
  0
LINE
  5
AD
  8
SIZE
  6
BYBLOCK
 62
    30
 10
1719.98
 20
2.0
 30
0.0
 11
1719.98
 21
1000.0
 31
0.0
  0
LINE
  5
AE
  8
SIZE
  6
BYBLOCK
 62
    30
 10
1719.98
 20
1998.0
 30
0.0
 11
1719.98
 21
1000.0
 31
0.0
  0
TEXT
  5
AF
  8
SIZE
  6
BYBLOCK
 62
    30
 10
1687.98
 20
898.51428599999986
 30
0.0
 40
64.0
  1
2000
 50
90.0
 41
0.9
  0
LINE
  5
B0
  8
SIZE
  6
BYBLOCK
 62
    30
 10
670.0
 20
0.0
 30
0.0
 11
1615.211
 21
0.0
 31
0.0
  0
LINE
  5
B1
  8
SIZE
  6
BYBLOCK
 62
    30
 10
670.0
 20
150.0
 30
0.0
 11
1615.211
 21
150.0
 31
0.0
  0
LINE
  5
B2
  8
SIZE
  6
BYBLOCK
 62
    30
 10
1585.211
 20
2.0
 30
0.0
 11
1585.211
 21
75.0
 31
0.0
  0
LINE
  5
B3
  8
SIZE
  6
BYBLOCK
 62
    30
 10
1585.211
 20
148.0
 30
0.0
 11
1585.211
 21
75.0
 31
0.0
  0
TEXT
  5
B4
  8
SIZE
  6
BYBLOCK
 62
    30
 10
1553.211
 20
-167.9607649999999
 30
0.0
 40
64.0
  1
150
 50
90.0
 41
0.9
  0
LINE
  5
B5
  8
SIZE
  6
BYBLOCK
 62
    30
 10
650.0
 20
-20.0
 30
0.0
 11
650.0
 21
-292.02066500000001
 31
0.0
  0
LINE
  5
B6
  8
SIZE
  6
BYBLOCK
 62
    30
 10
394.0
 20
25.0
 30
0.0
 11
394.0
 21
-292.02066500000001
 31
0.0
  0
LINE
  5
B7
  8
SIZE
  6
BYBLOCK
 62
    30
 10
648.0
 20
-262.02066500000001
 30
0.0
 11
522.0
 21
-262.02066500000001
 31
0.0
  0
LINE
  5
B8
  8
SIZE
  6
BYBLOCK
 62
    30
 10
396.0
 20
-262.02066500000001
 30
0.0
 11
522.0
 21
-262.02066500000001
 31
0.0
  0
TEXT
  5
B9
  8
SIZE
  6
BYBLOCK
 62
    30
 10
449.31428599999998
 20
-230.02066499999989
 30
0.0
 40
64.0
  1
256
 41
0.9
  0
LINE
  5
BA
  8
SIZE
  6
BYBLOCK
 62
    30
 10
882.74305700000002
 20
0.0
 30
0.0
 11
1080.5329999999999
 21
0.0
 31
0.0
  0
LINE
  5
BB
  8
SIZE
  6
BYBLOCK
 62
    30
 10
434.0
 20
65.0
 30
0.0
 11
1080.5329999999999
 21
65.0
 31
0.0
  0
LINE
  5
BC
  8
SIZE
  6
BYBLOCK
 62
    30
 10
1050.5329999999999
 20
67.0
 30
0.0
 11
1050.5329999999999
 21
69.0
 31
0.0
  0
LINE
  5
BD
  8
SIZE
  6
BYBLOCK
 62
    30
 10
1050.5329999999999
 20
-2.0
 30
0.0
 11
1050.5329999999999
 21
-4.0
 31
0.0
  0
LINE
  5
BE
  8
SIZE
  6
BYBLOCK
 62
    30
 10
1050.5329999999999
 20
65.0
 30
0.0
 11
1050.5329999999999
 21
0.0
 31
0.0
  0
TEXT
  5
BF
  8
SIZE
  6
BYBLOCK
 62
    30
 10
1018.533
 20
-125.675985
 30
0.0
 40
64.0
  1
65
 50
90.0
 41
0.9
  0
LINE
  5
C0
  8
SIZE
  6
BYBLOCK
 62
    30
 10
-450.0
 20
-40.0
 30
0.0
 11
-450.0
 21
-452.92534699999987
 31
0.0
  0
LINE
  5
C1
  8
SIZE
  6
BYBLOCK
 62
    30
 10
-845.0
 20
-20.0
 30
0.0
 11
-845.0
 21
-452.92534699999987
 31
0.0
  0
LINE
  5
C2
  8
SIZE
  6
BYBLOCK
 62
    30
 10
-452.0
 20
-422.92534699999987
 30
0.0
 11
-647.5
 21
-422.92534699999987
 31
0.0
  0
LINE
  5
C3
  8
SIZE
  6
BYBLOCK
 62
    30
 10
-843.0
 20
-422.92534699999987
 30
0.0
 11
-647.5
 21
-422.92534699999987
 31
0.0
  0
TEXT
  5
C4
  8
SIZE
  6
BYBLOCK
 62
    30
 10
-721.55714299999988
 20
-390.92534699999999
 30
0.0
 40
64.0
  1
395
 41
0.9
  0
LINE
  5
C5
  8
SIZE
  6
BYBLOCK
 62
    30
 10
0.0
 20
-200.080713
 30
0.0
 11
0.0
 21
-452.92534699999987
 31
0.0
  0
LINE
  5
C6
  8
SIZE
  6
BYBLOCK
 62
    30
 10
-450.0
 20
-40.0
 30
0.0
 11
-450.0
 21
-452.92534699999987
 31
0.0
  0
LINE
  5
C7
  8
SIZE
  6
BYBLOCK
 62
    30
 10
-2.0
 20
-422.92534699999987
 30
0.0
 11
-225.0
 21
-422.92534699999987
 31
0.0
  0
LINE
  5
C8
  8
SIZE
  6
BYBLOCK
 62
    30
 10
-448.0
 20
-422.92534699999987
 30
0.0
 11
-225.0
 21
-422.92534699999987
 31
0.0
  0
TEXT
  5
C9
  8
SIZE
  6
BYBLOCK
 62
    30
 10
-299.057143
 20
-390.92534699999999
 30
0.0
 40
64.0
  1
450
 41
0.9
  0
LINE
  5
CA
  8
SIZE
  6
BYBLOCK
 62
    30
 10
450.0
 20
-60.0
 30
0.0
 11
450.0
 21
-452.92534699999987
 31
0.0
  0
LINE
  5
CB
  8
SIZE
  6
BYBLOCK
 62
    30
 10
0.0
 20
-180.080713
 30
0.0
 11
0.0
 21
-452.92534699999987
 31
0.0
  0
LINE
  5
CC
  8
SIZE
  6
BYBLOCK
 62
    30
 10
448.0
 20
-422.92534699999987
 30
0.0
 11
225.0
 21
-422.92534699999987
 31
0.0
  0
LINE
  5
CD
  8
SIZE
  6
BYBLOCK
 62
    30
 10
2.0
 20
-422.92534699999987
 30
0.0
 11
225.0
 21
-422.92534699999987
 31
0.0
  0
TEXT
  5
CE
  8
SIZE
  6
BYBLOCK
 62
    30
 10
150.942857
 20
-390.92534699999999
 30
0.0
 40
64.0
  1
450
 41
0.9
  0
LINE
  5
CF
  8
SIZE
  6
BYBLOCK
 62
    30
 10
845.0
 20
-20.0
 30
0.0
 11
845.0
 21
-452.92534699999987
 31
0.0
  0
LINE
  5
D0
  8
SIZE
  6
BYBLOCK
 62
    30
 10
450.0
 20
-40.0
 30
0.0
 11
450.0
 21
-452.92534699999987
 31
0.0
  0
LINE
  5
D1
  8
SIZE
  6
BYBLOCK
 62
    30
 10
843.0
 20
-422.92534699999987
 30
0.0
 11
647.5
 21
-422.92534699999987
 31
0.0
  0
LINE
  5
D2
  8
SIZE
  6
BYBLOCK
 62
    30
 10
452.0
 20
-422.92534699999987
 30
0.0
 11
647.5
 21
-422.92534699999987
 31
0.0
  0
TEXT
  5
D3
  8
SIZE
  6
BYBLOCK
 62
    30
 10
573.442857
 20
-390.92534699999999
 30
0.0
 40
64.0
  1
395
 41
0.9
  0
LINE
  5
D4
  8
SIZE
  6
BYBLOCK
 62
    30
 10
-865.0
 20
80.0
 30
0.0
 11
-1001.365
 21
80.0
 31
0.0
  0
LINE
  5
D5
  8
SIZE
  6
BYBLOCK
 62
    30
 10
-865.0
 20
0.0
 30
0.0
 11
-1001.365
 21
0.0
 31
0.0
  0
LINE
  5
D6
  8
SIZE
  6
BYBLOCK
 62
    30
 10
-971.36455600000011
 20
-2.0
 30
0.0
 11
-971.36455600000011
 21
-4.0
 31
0.0
  0
LINE
  5
D7
  8
SIZE
  6
BYBLOCK
 62
    30
 10
-971.36455600000011
 20
82.0
 30
0.0
 11
-971.36455600000011
 21
84.0
 31
0.0
  0
LINE
  5
D8
  8
SIZE
  6
BYBLOCK
 62
    30
 10
-971.36455600000011
 20
0.0
 30
0.0
 11
-971.36455600000011
 21
80.0
 31
0.0
  0
TEXT
  5
D9
  8
SIZE
  6
BYBLOCK
 62
    30
 10
-1003.365
 20
-131.4152949999999
 30
0.0
 40
64.0
  1
80
 50
90.0
 41
0.9
  0
LINE
  5
DA
  8
SIZE
  6
BYBLOCK
 62
    30
 10
-885.0
 20
2286.0
 30
0.0
 11
-1355.1110000000001
 21
2286.0
 31
0.0
  0
LINE
  5
DB
  8
SIZE
  6
BYBLOCK
 62
    30
 10
-875.0
 20
2336.0
 30
0.0
 11
-1355.1110000000001
 21
2336.0
 31
0.0
  0
LINE
  5
DC
  8
SIZE
  6
BYBLOCK
 62
    30
 10
-1325.1110000000001
 20
2338.0
 30
0.0
 11
-1325.1110000000001
 21
2340.0
 31
0.0
  0
LINE
  5
DD
  8
SIZE
  6
BYBLOCK
 62
    30
 10
-1325.1110000000001
 20
2284.0
 30
0.0
 11
-1325.1110000000001
 21
2282.0
 31
0.0
  0
LINE
  5
DE
  8
SIZE
  6
BYBLOCK
 62
    30
 10
-1325.1110000000001
 20
2336.0
 30
0.0
 11
-1325.1110000000001
 21
2286.0
 31
0.0
  0
TEXT
  5
DF
  8
SIZE
  6
BYBLOCK
 62
    30
 10
-1357.1110000000001
 20
2264.3710000000001
 30
0.0
 40
64.0
  1
50
 50
90.0
 41
0.9
  0
LINE
  5
E0
  8
SIZE
  6
BYBLOCK
 62
    30
 10
-865.0
 20
700.0
 30
0.0
 11
-1215.806
 21
700.0
 31
0.0
  0
LINE
  5
E1
  8
SIZE
  6
BYBLOCK
 62
    30
 10
-885.0
 20
2286.0
 30
0.0
 11
-1215.806
 21
2286.0
 31
0.0
  0
LINE
  5
E2
  8
SIZE
  6
BYBLOCK
 62
    30
 10
-1185.806
 20
702.0
 30
0.0
 11
-1185.806
 21
1493.0
 31
0.0
  0
LINE
  5
E3
  8
SIZE
  6
BYBLOCK
 62
    30
 10
-1185.806
 20
2284.0
 30
0.0
 11
-1185.806
 21
1493.0
 31
0.0
  0
TEXT
  5
E4
  8
SIZE
  6
BYBLOCK
 62
    30
 10
-1217.806
 20
1398.3710000000001
 30
0.0
 40
64.0
  1
1586
 50
90.0
 41
0.9
  0
LINE
  5
E5
  8
SIZE
  6
BYBLOCK
 62
    30
 10
-865.0
 20
0.0
 30
0.0
 11
-1215.806
 21
0.0
 31
0.0
  0
LINE
  5
E6
  8
SIZE
  6
BYBLOCK
 62
    30
 10
-865.0
 20
700.0
 30
0.0
 11
-1215.806
 21
700.0
 31
0.0
  0
LINE
  5
E7
  8
SIZE
  6
BYBLOCK
 62
    30
 10
-1185.806
 20
2.0
 30
0.0
 11
-1185.806
 21
350.0
 31
0.0
  0
LINE
  5
E8
  8
SIZE
  6
BYBLOCK
 62
    30
 10
-1185.806
 20
698.0
 30
0.0
 11
-1185.806
 21
350.0
 31
0.0
  0
TEXT
  5
E9
  8
SIZE
  6
BYBLOCK
 62
    30
 10
-1217.806
 20
275.942857
 30
0.0
 40
64.0
  1
700
 50
90.0
 41
0.9
  0
LINE
  5
EA
  8
SIZE
  6
BYBLOCK
 62
    30
 10
-885.0
 20
0.0
 30
0.0
 11
-1355.1110000000001
 21
0.0
 31
0.0
  0
LINE
  5
EB
  8
SIZE
  6
BYBLOCK
 62
    30
 10
-885.0
 20
2286.0
 30
0.0
 11
-1355.1110000000001
 21
2286.0
 31
0.0
  0
LINE
  5
EC
  8
SIZE
  6
BYBLOCK
 62
    30
 10
-1325.1110000000001
 20
2.0
 30
0.0
 11
-1325.1110000000001
 21
1143.0
 31
0.0
  0
LINE
  5
ED
  8
SIZE
  6
BYBLOCK
 62
    30
 10
-1325.1110000000001
 20
2284.0
 30
0.0
 11
-1325.1110000000001
 21
1143.0
 31
0.0
  0
TEXT
  5
EE
  8
SIZE
  6
BYBLOCK
 62
    30
 10
-1357.1110000000001
 20
1042.8859999999991
 30
0.0
 40
64.0
  1
2286
 50
90.0
 41
0.9
  0
LINE
  5
EF
  8
SIZE
  6
BYBLOCK
 62
    30
 10
-205.0
 20
2376.0
 30
0.0
 11
-205.0
 21
2529.3440000000001
 31
0.0
  0
LINE
  5
F0
  8
SIZE
  6
BYBLOCK
 62
    30
 10
-105.0
 20
2376.0
 30
0.0
 11
-105.0
 21
2529.3440000000001
 31
0.0
  0
LINE
  5
F1
  8
SIZE
  6
BYBLOCK
 62
    30
 10
-103.0
 20
2499.3440000000001
 30
0.0
 11
-101.0
 21
2499.3440000000001
 31
0.0
  0
LINE
  5
F2
  8
SIZE
  6
BYBLOCK
 62
    30
 10
-207.0
 20
2499.3440000000001
 30
0.0
 11
-209.0
 21
2499.3440000000001
 31
0.0
  0
LINE
  5
F3
  8
SIZE
  6
BYBLOCK
 62
    30
 10
-105.0
 20
2499.3440000000001
 30
0.0
 11
-205.0
 21
2499.3440000000001
 31
0.0
  0
TEXT
  5
F4
  8
SIZE
  6
BYBLOCK
 62
    30
 10
-88.214581999999993
 20
2531.3440000000001
 30
0.0
 40
64.0
  1
100
 41
0.9
  0
LINE
  5
F5
  8
SIZE
  6
BYBLOCK
 62
    30
 10
-305.0
 20
2376.0
 30
0.0
 11
-305.0
 21
2529.3440000000001
 31
0.0
  0
LINE
  5
F6
  8
SIZE
  6
BYBLOCK
 62
    30
 10
-205.0
 20
2376.0
 30
0.0
 11
-205.0
 21
2529.3440000000001
 31
0.0
  0
LINE
  5
F7
  8
SIZE
  6
BYBLOCK
 62
    30
 10
-203.0
 20
2499.3440000000001
 30
0.0
 11
-201.0
 21
2499.3440000000001
 31
0.0
  0
LINE
  5
F8
  8
SIZE
  6
BYBLOCK
 62
    30
 10
-307.0
 20
2499.3440000000001
 30
0.0
 11
-309.0
 21
2499.3440000000001
 31
0.0
  0
LINE
  5
F9
  8
SIZE
  6
BYBLOCK
 62
    30
 10
-205.0
 20
2499.3440000000001
 30
0.0
 11
-305.0
 21
2499.3440000000001
 31
0.0
  0
TEXT
  5
FA
  8
SIZE
  6
BYBLOCK
 62
    30
 10
-242.86694600000001
 20
2531.3440000000001
 30
0.0
 40
64.0
  1
100
 41
0.9
  0
LINE
  5
FB
  8
SIZE
  6
BYBLOCK
 62
    30
 10
-405.0
 20
2376.0
 30
0.0
 11
-405.0
 21
2529.3440000000001
 31
0.0
  0
LINE
  5
FC
  8
SIZE
  6
BYBLOCK
 62
    30
 10
-305.0
 20
2376.0
 30
0.0
 11
-305.0
 21
2529.3440000000001
 31
0.0
  0
LINE
  5
FD
  8
SIZE
  6
BYBLOCK
 62
    30
 10
-303.0
 20
2499.3440000000001
 30
0.0
 11
-301.0
 21
2499.3440000000001
 31
0.0
  0
LINE
  5
FE
  8
SIZE
  6
BYBLOCK
 62
    30
 10
-407.0
 20
2499.3440000000001
 30
0.0
 11
-409.0
 21
2499.3440000000001
 31
0.0
  0
LINE
  5
FF
  8
SIZE
  6
BYBLOCK
 62
    30
 10
-305.0
 20
2499.3440000000001
 30
0.0
 11
-405.0
 21
2499.3440000000001
 31
0.0
  0
TEXT
  5
100
  8
SIZE
  6
BYBLOCK
 62
    30
 10
-390.17646999999999
 20
2531.3440000000001
 30
0.0
 40
64.0
  1
100
 41
0.9
  0
LINE
  5
101
  8
SIZE
  6
BYBLOCK
 62
    30
 10
-705.0
 20
2376.0
 30
0.0
 11
-705.0
 21
2529.3440000000001
 31
0.0
  0
LINE
  5
102
  8
SIZE
  6
BYBLOCK
 62
    30
 10
-805.0
 20
2376.0
 30
0.0
 11
-805.0
 21
2529.3440000000001
 31
0.0
  0
LINE
  5
103
  8
SIZE
  6
BYBLOCK
 62
    30
 10
-807.0
 20
2499.3440000000001
 30
0.0
 11
-809.0
 21
2499.3440000000001
 31
0.0
  0
LINE
  5
104
  8
SIZE
  6
BYBLOCK
 62
    30
 10
-703.0
 20
2499.3440000000001
 30
0.0
 11
-701.0
 21
2499.3440000000001
 31
0.0
  0
LINE
  5
105
  8
SIZE
  6
BYBLOCK
 62
    30
 10
-805.0
 20
2499.3440000000001
 30
0.0
 11
-705.0
 21
2499.3440000000001
 31
0.0
  0
TEXT
  5
106
  8
SIZE
  6
BYBLOCK
 62
    30
 10
-1009.4930000000001
 20
2531.3440000000001
 30
0.0
 40
64.0
  1
100
 41
0.9
  0
LINE
  5
107
  8
SIZE
  6
BYBLOCK
 62
    30
 10
-605.0
 20
2376.0
 30
0.0
 11
-605.0
 21
2529.3440000000001
 31
0.0
  0
LINE
  5
108
  8
SIZE
  6
BYBLOCK
 62
    30
 10
-705.0
 20
2376.0
 30
0.0
 11
-705.0
 21
2529.3440000000001
 31
0.0
  0
LINE
  5
109
  8
SIZE
  6
BYBLOCK
 62
    30
 10
-707.0
 20
2499.3440000000001
 30
0.0
 11
-709.0
 21
2499.3440000000001
 31
0.0
  0
LINE
  5
10A
  8
SIZE
  6
BYBLOCK
 62
    30
 10
-603.0
 20
2499.3440000000001
 30
0.0
 11
-601.0
 21
2499.3440000000001
 31
0.0
  0
LINE
  5
10B
  8
SIZE
  6
BYBLOCK
 62
    30
 10
-705.0
 20
2499.3440000000001
 30
0.0
 11
-605.0
 21
2499.3440000000001
 31
0.0
  0
TEXT
  5
10C
  8
SIZE
  6
BYBLOCK
 62
    30
 10
-820.97338999999988
 20
2531.3440000000001
 30
0.0
 40
64.0
  1
100
 41
0.9
  0
LINE
  5
10D
  8
SIZE
  6
BYBLOCK
 62
    30
 10
-505.0
 20
2376.0
 30
0.0
 11
-505.0
 21
2529.3440000000001
 31
0.0
  0
LINE
  5
10E
  8
SIZE
  6
BYBLOCK
 62
    30
 10
-605.0
 20
2376.0
 30
0.0
 11
-605.0
 21
2529.3440000000001
 31
0.0
  0
LINE
  5
10F
  8
SIZE
  6
BYBLOCK
 62
    30
 10
-607.0
 20
2499.3440000000001
 30
0.0
 11
-609.0
 21
2499.3440000000001
 31
0.0
  0
LINE
  5
110
  8
SIZE
  6
BYBLOCK
 62
    30
 10
-503.0
 20
2499.3440000000001
 30
0.0
 11
-501.0
 21
2499.3440000000001
 31
0.0
  0
LINE
  5
111
  8
SIZE
  6
BYBLOCK
 62
    30
 10
-605.0
 20
2499.3440000000001
 30
0.0
 11
-505.0
 21
2499.3440000000001
 31
0.0
  0
TEXT
  5
112
  8
SIZE
  6
BYBLOCK
 62
    30
 10
-672.27240900000004
 20
2531.3440000000001
 30
0.0
 40
64.0
  1
100
 41
0.9
  0
LINE
  5
113
  8
SIZE
  6
BYBLOCK
 62
    30
 10
-505.0
 20
2376.0
 30
0.0
 11
-505.0
 21
2529.3440000000001
 31
0.0
  0
LINE
  5
114
  8
SIZE
  6
BYBLOCK
 62
    30
 10
-405.0
 20
2376.0
 30
0.0
 11
-405.0
 21
2529.3440000000001
 31
0.0
  0
LINE
  5
115
  8
SIZE
  6
BYBLOCK
 62
    30
 10
-403.0
 20
2499.3440000000001
 30
0.0
 11
-401.0
 21
2499.3440000000001
 31
0.0
  0
LINE
  5
116
  8
SIZE
  6
BYBLOCK
 62
    30
 10
-507.0
 20
2499.3440000000001
 30
0.0
 11
-509.0
 21
2499.3440000000001
 31
0.0
  0
LINE
  5
117
  8
SIZE
  6
BYBLOCK
 62
    30
 10
-405.0
 20
2499.3440000000001
 30
0.0
 11
-505.0
 21
2499.3440000000001
 31
0.0
  0
TEXT
  5
118
  8
SIZE
  6
BYBLOCK
 62
    30
 10
-527.74579800000004
 20
2531.3440000000001
 30
0.0
 40
64.0
  1
100
 41
0.9
  0
LINE
  5
119
  8
SIZE
  6
BYBLOCK
 62
    30
 10
-65.0
 20
2356.0
 30
0.0
 11
-65.0
 21
2780.7869999999998
 31
0.0
  0
LINE
  5
11A
  8
SIZE
  6
BYBLOCK
 62
    30
 10
-845.0
 20
2356.0
 30
0.0
 11
-845.0
 21
2780.7869999999998
 31
0.0
  0
LINE
  5
11B
  8
SIZE
  6
BYBLOCK
 62
    30
 10
-67.0
 20
2750.7869999999998
 30
0.0
 11
-455.0
 21
2750.7869999999998
 31
0.0
  0
LINE
  5
11C
  8
SIZE
  6
BYBLOCK
 62
    30
 10
-843.0
 20
2750.7869999999998
 30
0.0
 11
-455.0
 21
2750.7869999999998
 31
0.0
  0
TEXT
  5
11D
  8
SIZE
  6
BYBLOCK
 62
    30
 10
-529.05714299999988
 20
2782.7869999999998
 30
0.0
 40
64.0
  1
780
 41
0.9
  0
LINE
  5
11E
  8
SIZE
  6
BYBLOCK
 62
    30
 10
-75.0
 20
2376.0
 30
0.0
 11
-75.0
 21
2652.7750000000001
 31
0.0
  0
LINE
  5
11F
  8
SIZE
  6
BYBLOCK
 62
    30
 10
-835.0
 20
2376.0
 30
0.0
 11
-835.0
 21
2652.7750000000001
 31
0.0
  0
LINE
  5
120
  8
SIZE
  6
BYBLOCK
 62
    30
 10
-77.0
 20
2622.7750000000001
 30
0.0
 11
-455.0
 21
2622.7750000000001
 31
0.0
  0
LINE
  5
121
  8
SIZE
  6
BYBLOCK
 62
    30
 10
-833.0
 20
2622.7750000000001
 30
0.0
 11
-455.0
 21
2622.7750000000001
 31
0.0
  0
TEXT
  5
122
  8
SIZE
  6
BYBLOCK
 62
    30
 10
-529.05714299999988
 20
2654.7750000000001
 30
0.0
 40
64.0
  1
760
 41
0.9
  0
LINE
  5
123
  8
SIZE
  6
BYBLOCK
 62
    30
 10
-95.0
 20
2356.0
 30
0.0
 11
-95.0
 21
2902.3509999999992
 31
0.0
  0
LINE
  5
124
  8
SIZE
  6
BYBLOCK
 62
    30
 10
74.0
 20
2356.0
 30
0.0
 11
74.0
 21
2902.3509999999992
 31
0.0
  0
LINE
  5
125
  8
SIZE
  6
BYBLOCK
 62
    30
 10
-93.0
 20
2872.3510000000001
 30
0.0
 11
-10.5
 21
2872.3510000000001
 31
0.0
  0
LINE
  5
126
  8
SIZE
  6
BYBLOCK
 62
    30
 10
72.0
 20
2872.3510000000001
 30
0.0
 11
-10.5
 21
2872.3510000000001
 31
0.0
  0
TEXT
  5
127
  8
SIZE
  6
BYBLOCK
 62
    30
 10
-77.700000000000003
 20
2904.3510000000001
 30
0.0
 40
64.0
  1
169
 41
0.9
  0
LINE
  5
128
  8
SIZE
  6
BYBLOCK
 62
    30
 10
794.0
 20
2356.0
 30
0.0
 11
794.0
 21
2902.3509999999992
 31
0.0
  0
LINE
  5
129
  8
SIZE
  6
BYBLOCK
 62
    30
 10
824.0
 20
2306.0
 30
0.0
 11
824.0
 21
2902.3509999999992
 31
0.0
  0
LINE
  5
12A
  8
SIZE
  6
BYBLOCK
 62
    30
 10
826.0
 20
2872.3510000000001
 30
0.0
 11
828.0
 21
2872.3510000000001
 31
0.0
  0
LINE
  5
12B
  8
SIZE
  6
BYBLOCK
 62
    30
 10
792.0
 20
2872.3510000000001
 30
0.0
 11
790.0
 21
2872.3510000000001
 31
0.0
  0
LINE
  5
12C
  8
SIZE
  6
BYBLOCK
 62
    30
 10
824.0
 20
2872.3510000000001
 30
0.0
 11
794.0
 21
2872.3510000000001
 31
0.0
  0
TEXT
  5
12D
  8
SIZE
  6
BYBLOCK
 62
    30
 10
762.37142900000003
 20
2904.3510000000001
 30
0.0
 40
64.0
  1
30
 41
0.9
  0
LINE
  5
12E
  8
SIZE
  6
BYBLOCK
 62
    30
 10
74.0
 20
2356.0
 30
0.0
 11
74.0
 21
2902.3509999999992
 31
0.0
  0
LINE
  5
12F
  8
SIZE
  6
BYBLOCK
 62
    30
 10
794.0
 20
2356.0
 30
0.0
 11
794.0
 21
2902.3509999999992
 31
0.0
  0
LINE
  5
130
  8
SIZE
  6
BYBLOCK
 62
    30
 10
76.0
 20
2872.3510000000001
 30
0.0
 11
434.0
 21
2872.3510000000001
 31
0.0
  0
LINE
  5
131
  8
SIZE
  6
BYBLOCK
 62
    30
 10
792.0
 20
2872.3510000000001
 30
0.0
 11
434.0
 21
2872.3510000000001
 31
0.0
  0
TEXT
  5
132
  8
SIZE
  6
BYBLOCK
 62
    30
 10
359.942857
 20
2904.3510000000001
 30
0.0
 40
64.0
  1
720
 41
0.9
  0
LINE
  5
133
  8
SIZE
  6
BYBLOCK
 62
    30
 10
-815.0
 20
2356.0
 30
0.0
 11
-815.0
 21
2902.3509999999992
 31
0.0
  0
LINE
  5
134
  8
SIZE
  6
BYBLOCK
 62
    30
 10
-95.0
 20
2356.0
 30
0.0
 11
-95.0
 21
2902.3509999999992
 31
0.0
  0
LINE
  5
135
  8
SIZE
  6
BYBLOCK
 62
    30
 10
-813.0
 20
2872.3510000000001
 30
0.0
 11
-455.0
 21
2872.3510000000001
 31
0.0
  0
LINE
  5
136
  8
SIZE
  6
BYBLOCK
 62
    30
 10
-97.0
 20
2872.3510000000001
 30
0.0
 11
-455.0
 21
2872.3510000000001
 31
0.0
  0
TEXT
  5
137
  8
SIZE
  6
BYBLOCK
 62
    30
 10
-529.05714299999988
 20
2904.3510000000001
 30
0.0
 40
64.0
  1
720
 41
0.9
  0
LINE
  5
138
  8
SIZE
  6
BYBLOCK
 62
    30
 10
-845.0
 20
2306.0
 30
0.0
 11
-845.0
 21
2902.3509999999992
 31
0.0
  0
LINE
  5
139
  8
SIZE
  6
BYBLOCK
 62
    30
 10
-815.0
 20
2356.0
 30
0.0
 11
-815.0
 21
2902.3509999999992
 31
0.0
  0
LINE
  5
13A
  8
SIZE
  6
BYBLOCK
 62
    30
 10
-813.0
 20
2872.3510000000001
 30
0.0
 11
-811.0
 21
2872.3510000000001
 31
0.0
  0
LINE
  5
13B
  8
SIZE
  6
BYBLOCK
 62
    30
 10
-847.0
 20
2872.3510000000001
 30
0.0
 11
-849.0
 21
2872.3510000000001
 31
0.0
  0
LINE
  5
13C
  8
SIZE
  6
BYBLOCK
 62
    30
 10
-815.0
 20
2872.3510000000001
 30
0.0
 11
-845.0
 21
2872.3510000000001
 31
0.0
  0
TEXT
  5
13D
  8
SIZE
  6
BYBLOCK
 62
    30
 10
-876.62857100000008
 20
2904.3510000000001
 30
0.0
 40
64.0
  1
30
 41
0.9
  0
LINE
  5
13E
  8
SIZE
  6
BYBLOCK
 62
    30
 10
-845.0
 20
-20.0
 30
0.0
 11
-845.0
 21
-583.26439600000003
 31
0.0
  0
LINE
  5
13F
  8
SIZE
  6
BYBLOCK
 62
    30
 10
845.0
 20
-20.0
 30
0.0
 11
845.0
 21
-583.26439600000003
 31
0.0
  0
LINE
  5
140
  8
SIZE
  6
BYBLOCK
 62
    30
 10
-843.0
 20
-553.26439600000003
 30
0.0
 11
0.0
 21
-553.26439600000003
 31
0.0
  0
LINE
  5
141
  8
SIZE
  6
BYBLOCK
 62
    30
 10
843.0
 20
-553.26439600000003
 30
0.0
 11
0.0
 21
-553.26439600000003
 31
0.0
  0
TEXT
  5
142
  8
SIZE
  6
BYBLOCK
 62
    30
 10
-96.0
 20
-527.84108300000003
 30
0.0
 40
64.0
  1
1690
 41
0.9
  0
CIRCLE
  5
143
  8
SIZE
  6
CONTINUOUS
 62
    30
 10
845.0
 20
-553.26439600000003
 30
0.0
 40
6.0
  0
CIRCLE
  5
144
  8
SIZE
  6
CONTINUOUS
 62
    30
 10
-845.0
 20
-553.26439600000003
 30
0.0
 40
6.0
  0
CIRCLE
  5
145
  8
SIZE
  6
CONTINUOUS
 62
    30
 10
-845.0
 20
2872.3510000000001
 30
0.0
 40
6.0
  0
CIRCLE
  5
146
  8
SIZE
  6
CONTINUOUS
 62
    30
 10
-815.0
 20
2872.3510000000001
 30
0.0
 40
6.0
  0
CIRCLE
  5
147
  8
SIZE
  6
CONTINUOUS
 62
    30
 10
-95.0
 20
2872.3510000000001
 30
0.0
 40
6.0
  0
CIRCLE
  5
148
  8
SIZE
  6
CONTINUOUS
 62
    30
 10
-815.0
 20
2872.3510000000001
 30
0.0
 40
6.0
  0
CIRCLE
  5
149
  8
SIZE
  6
CONTINUOUS
 62
    30
 10
794.0
 20
2872.3510000000001
 30
0.0
 40
6.0
  0
CIRCLE
  5
14A
  8
SIZE
  6
CONTINUOUS
 62
    30
 10
74.0
 20
2872.3510000000001
 30
0.0
 40
6.0
  0
CIRCLE
  5
14B
  8
SIZE
  6
CONTINUOUS
 62
    30
 10
794.0
 20
2872.3510000000001
 30
0.0
 40
6.0
  0
CIRCLE
  5
14C
  8
SIZE
  6
CONTINUOUS
 62
    30
 10
824.0
 20
2872.3510000000001
 30
0.0
 40
6.0
  0
CIRCLE
  5
14D
  8
SIZE
  6
CONTINUOUS
 62
    30
 10
74.0
 20
2872.3510000000001
 30
0.0
 40
6.0
  0
CIRCLE
  5
14E
  8
SIZE
  6
CONTINUOUS
 62
    30
 10
-95.0
 20
2872.3510000000001
 30
0.0
 40
6.0
  0
CIRCLE
  5
14F
  8
SIZE
  6
CONTINUOUS
 62
    30
 10
-835.0
 20
2622.7750000000001
 30
0.0
 40
6.0
  0
CIRCLE
  5
150
  8
SIZE
  6
CONTINUOUS
 62
    30
 10
-75.0
 20
2622.7750000000001
 30
0.0
 40
6.0
  0
CIRCLE
  5
151
  8
SIZE
  6
CONTINUOUS
 62
    30
 10
-845.0
 20
2750.7869999999998
 30
0.0
 40
6.0
  0
CIRCLE
  5
152
  8
SIZE
  6
CONTINUOUS
 62
    30
 10
-65.0
 20
2750.7869999999998
 30
0.0
 40
6.0
  0
CIRCLE
  5
153
  8
SIZE
  6
CONTINUOUS
 62
    30
 10
-505.0
 20
2499.3440000000001
 30
0.0
 40
6.0
  0
CIRCLE
  5
154
  8
SIZE
  6
CONTINUOUS
 62
    30
 10
-405.0
 20
2499.3440000000001
 30
0.0
 40
6.0
  0
CIRCLE
  5
155
  8
SIZE
  6
CONTINUOUS
 62
    30
 10
-505.0
 20
2499.3440000000001
 30
0.0
 40
6.0
  0
CIRCLE
  5
156
  8
SIZE
  6
CONTINUOUS
 62
    30
 10
-605.0
 20
2499.3440000000001
 30
0.0
 40
6.0
  0
CIRCLE
  5
157
  8
SIZE
  6
CONTINUOUS
 62
    30
 10
-605.0
 20
2499.3440000000001
 30
0.0
 40
6.0
  0
CIRCLE
  5
158
  8
SIZE
  6
CONTINUOUS
 62
    30
 10
-705.0
 20
2499.3440000000001
 30
0.0
 40
6.0
  0
CIRCLE
  5
159
  8
SIZE
  6
CONTINUOUS
 62
    30
 10
-705.0
 20
2499.3440000000001
 30
0.0
 40
6.0
  0
CIRCLE
  5
15A
  8
SIZE
  6
CONTINUOUS
 62
    30
 10
-805.0
 20
2499.3440000000001
 30
0.0
 40
6.0
  0
CIRCLE
  5
15B
  8
SIZE
  6
CONTINUOUS
 62
    30
 10
-405.0
 20
2499.3440000000001
 30
0.0
 40
6.0
  0
CIRCLE
  5
15C
  8
SIZE
  6
CONTINUOUS
 62
    30
 10
-305.0
 20
2499.3440000000001
 30
0.0
 40
6.0
  0
CIRCLE
  5
15D
  8
SIZE
  6
CONTINUOUS
 62
    30
 10
-305.0
 20
2499.3440000000001
 30
0.0
 40
6.0
  0
CIRCLE
  5
15E
  8
SIZE
  6
CONTINUOUS
 62
    30
 10
-205.0
 20
2499.3440000000001
 30
0.0
 40
6.0
  0
CIRCLE
  5
15F
  8
SIZE
  6
CONTINUOUS
 62
    30
 10
-205.0
 20
2499.3440000000001
 30
0.0
 40
6.0
  0
CIRCLE
  5
160
  8
SIZE
  6
CONTINUOUS
 62
    30
 10
-105.0
 20
2499.3440000000001
 30
0.0
 40
6.0
  0
CIRCLE
  5
161
  8
SIZE
  6
CONTINUOUS
 62
    30
 10
-1325.1110000000001
 20
2286.0
 30
0.0
 40
6.0
  0
CIRCLE
  5
162
  8
SIZE
  6
CONTINUOUS
 62
    30
 10
-1325.1110000000001
 20
0.0
 30
0.0
 40
6.0
  0
CIRCLE
  5
163
  8
SIZE
  6
CONTINUOUS
 62
    30
 10
-1185.806
 20
700.0
 30
0.0
 40
6.0
  0
CIRCLE
  5
164
  8
SIZE
  6
CONTINUOUS
 62
    30
 10
-1185.806
 20
0.0
 30
0.0
 40
6.0
  0
CIRCLE
  5
165
  8
SIZE
  6
CONTINUOUS
 62
    30
 10
-1185.806
 20
2286.0
 30
0.0
 40
6.0
  0
CIRCLE
  5
166
  8
SIZE
  6
CONTINUOUS
 62
    30
 10
-1185.806
 20
700.0
 30
0.0
 40
6.0
  0
CIRCLE
  5
167
  8
SIZE
  6
CONTINUOUS
 62
    30
 10
-1325.1110000000001
 20
2286.0
 30
0.0
 40
6.0
  0
CIRCLE
  5
168
  8
SIZE
  6
CONTINUOUS
 62
    30
 10
-1325.1110000000001
 20
2336.0
 30
0.0
 40
6.0
  0
CIRCLE
  5
169
  8
SIZE
  6
CONTINUOUS
 62
    30
 10
-971.36455600000011
 20
80.0
 30
0.0
 40
6.0
  0
CIRCLE
  5
16A
  8
SIZE
  6
CONTINUOUS
 62
    30
 10
-971.36455600000011
 20
0.0
 30
0.0
 40
6.0
  0
CIRCLE
  5
16B
  8
SIZE
  6
CONTINUOUS
 62
    30
 10
450.0
 20
-422.92534699999987
 30
0.0
 40
6.0
  0
CIRCLE
  5
16C
  8
SIZE
  6
CONTINUOUS
 62
    30
 10
845.0
 20
-422.92534699999987
 30
0.0
 40
6.0
  0
CIRCLE
  5
16D
  8
SIZE
  6
CONTINUOUS
 62
    30
 10
0.0
 20
-422.92534699999987
 30
0.0
 40
6.0
  0
CIRCLE
  5
16E
  8
SIZE
  6
CONTINUOUS
 62
    30
 10
450.0
 20
-422.92534699999987
 30
0.0
 40
6.0
  0
CIRCLE
  5
16F
  8
SIZE
  6
CONTINUOUS
 62
    30
 10
-450.0
 20
-422.92534699999987
 30
0.0
 40
6.0
  0
CIRCLE
  5
170
  8
SIZE
  6
CONTINUOUS
 62
    30
 10
0.0
 20
-422.92534699999987
 30
0.0
 40
6.0
  0
CIRCLE
  5
171
  8
SIZE
  6
CONTINUOUS
 62
    30
 10
-845.0
 20
-422.92534699999987
 30
0.0
 40
6.0
  0
CIRCLE
  5
172
  8
SIZE
  6
CONTINUOUS
 62
    30
 10
-450.0
 20
-422.92534699999987
 30
0.0
 40
6.0
  0
CIRCLE
  5
173
  8
SIZE
  6
CONTINUOUS
 62
    30
 10
1050.5329999999999
 20
0.0
 30
0.0
 40
6.0
  0
CIRCLE
  5
174
  8
SIZE
  6
CONTINUOUS
 62
    30
 10
1050.5329999999999
 20
65.0
 30
0.0
 40
6.0
  0
CIRCLE
  5
175
  8
SIZE
  6
CONTINUOUS
 62
    30
 10
394.0
 20
-262.02066500000001
 30
0.0
 40
6.0
  0
CIRCLE
  5
176
  8
SIZE
  6
CONTINUOUS
 62
    30
 10
650.0
 20
-262.02066500000001
 30
0.0
 40
6.0
  0
CIRCLE
  5
177
  8
SIZE
  6
CONTINUOUS
 62
    30
 10
1585.211
 20
150.0
 30
0.0
 40
6.0
  0
CIRCLE
  5
178
  8
SIZE
  6
CONTINUOUS
 62
    30
 10
1585.211
 20
0.0
 30
0.0
 40
6.0
  0
CIRCLE
  5
179
  8
SIZE
  6
CONTINUOUS
 62
    30
 10
1719.98
 20
2000.0
 30
0.0
 40
6.0
  0
CIRCLE
  5
17A
  8
SIZE
  6
CONTINUOUS
 62
    30
 10
1719.98
 20
0.0
 30
0.0
 40
6.0
  0
CIRCLE
  5
17B
  8
SIZE
  6
CONTINUOUS
 62
    30
 10
-585.0
 20
2106.5639999999999
 30
0.0
 40
6.0
  0
CIRCLE
  5
17C
  8
SIZE
  6
CONTINUOUS
 62
    30
 10
655.0
 20
2106.5639999999999
 30
0.0
 40
6.0
  0
CIRCLE
  5
17D
  8
SIZE
  6
CONTINUOUS
 62
    30
 10
845.0
 20
-422.92534699999987
 30
0.0
 40
6.0
  0
CIRCLE
  5
17E
  8
SIZE
  6
CONTINUOUS
 62
    30
 10
1445.0
 20
-422.92534699999987
 30
0.0
 40
6.0
  0
CIRCLE
  5
17F
  8
SIZE
  6
CONTINUOUS
 62
    30
 10
655.0
 20
2106.5639999999999
 30
0.0
 40
6.0
  0
CIRCLE
  5
180
  8
SIZE
  6
CONTINUOUS
 62
    30
 10
845.0
 20
2106.5639999999999
 30
0.0
 40
6.0
  0
CIRCLE
  5
181
  8
SIZE
  6
CONTINUOUS
 62
    30
 10
-845.0
 20
2106.5639999999999
 30
0.0
 40
6.0
  0
CIRCLE
  5
182
  8
SIZE
  6
CONTINUOUS
 62
    30
 10
-585.0
 20
2106.5639999999999
 30
0.0
 40
6.0
  0
LINE
  5
183
  8
NOTE
  6
CONTINUOUS
 62
     4
 10
394.0
 20
45.0
 30
0.0
 11
394.0
 21
85.0
 31
0.0
  0
LINE
  5
184
  8
NOTE
  6
CONTINUOUS
 62
     4
 10
374.0
 20
65.0
 30
0.0
 11
414.0
 21
65.0
 31
0.0
  0
LINE
  5
185
  8
NOTE
  6
CONTINUOUS
 62
     4
 10
498.0
 20
180.0
 30
0.0
 11
498.0
 21
220.0
 31
0.0
  0
LINE
  5
186
  8
NOTE
  6
CONTINUOUS
 62
     4
 10
478.0
 20
200.0
 30
0.0
 11
518.0
 21
200.0
 31
0.0
  0
POLYLINE
  5
187
  8
NOTE
  6
CONTINUOUS
 62
     4
 66
     1
 10
0.0
 20
0.0
 30
0.0
  0
VERTEX
  5
1FB
  8
NOTE
  6
CONTINUOUS
 62
     4
 10
532.46335699999986
 20
220.30460600000001
 30
0.0
  0
VERTEX
  5
1FC
  8
NOTE
  6
CONTINUOUS
 62
     4
 10
498.0
 20
200.0
 30
0.0
  0
VERTEX
  5
1FD
  8
NOTE
  6
CONTINUOUS
 62
     4
 10
537.99844599999994
 20
200.35262599999999
 30
0.0
  0
SEQEND
  5
1FE
  8
NOTE
  6
CONTINUOUS
 62
     4
  0
POLYLINE
  5
18C
  8
NOTE
  6
CONTINUOUS
 62
     4
 66
     1
 10
0.0
 20
0.0
 30
0.0
  0
VERTEX
  5
1FF
  8
NOTE
  6
CONTINUOUS
 62
     4
 10
363.62942700000002
 20
91.031293999999974
 30
0.0
  0
VERTEX
  5
200
  8
NOTE
  6
CONTINUOUS
 62
     4
 10
394.0
 20
65.0
 30
0.0
  0
VERTEX
  5
201
  8
NOTE
  6
CONTINUOUS
 62
     4
 10
380.71395899999987
 20
102.7290489999999
 30
0.0
  0
SEQEND
  5
202
  8
NOTE
  6
CONTINUOUS
 62
     4
  0
LINE
  5
191
  8
NOTE
  6
CONTINUOUS
 62
     4
 10
0.0
 20
-20.0
 30
0.0
 11
0.0
 21
20.0
 31
0.0
  0
LINE
  5
192
  8
NOTE
  6
CONTINUOUS
 62
     4
 10
20.0
 20
0.0
 30
0.0
 11
-20.0
 21
0.0
 31
0.0
  0
POLYLINE
  5
193
  8
NOTE
  6
CONTINUOUS
 62
     4
 66
     1
 10
0.0
 20
0.0
 30
0.0
  0
VERTEX
  5
203
  8
NOTE
  6
CONTINUOUS
 62
     4
 10
836.39618399999995
 20
656.51013899999987
 30
0.0
  0
VERTEX
  5
204
  8
NOTE
  6
CONTINUOUS
 62
     4
 10
811.78466199999991
 20
688.04223399999989
 30
0.0
  0
VERTEX
  5
205
  8
NOTE
  6
CONTINUOUS
 62
     4
 10
817.33281799999997
 20
648.42887800000005
 30
0.0
  0
SEQEND
  5
206
  8
NOTE
  6
CONTINUOUS
 62
     4
  0
POLYLINE
  5
198
  8
NOTE
  6
CONTINUOUS
 62
     4
 66
     1
 10
0.0
 20
0.0
 30
0.0
  0
VERTEX
  5
207
  8
NOTE
  6
CONTINUOUS
 62
     4
 10
720.20377800000006
 20
2353.0079999999989
 30
0.0
  0
VERTEX
  5
208
  8
NOTE
  6
CONTINUOUS
 62
     4
 10
684.0
 20
2336.0
 30
0.0
  0
VERTEX
  5
209
  8
NOTE
  6
CONTINUOUS
 62
     4
 10
706.84918099999993
 20
2368.8319999999999
 30
0.0
  0
SEQEND
  5
20A
  8
NOTE
  6
CONTINUOUS
 62
     4
  0
POLYLINE
  5
19D
  8
NOTE
  6
CONTINUOUS
 62
     4
 66
     1
 10
0.0
 20
0.0
 30
0.0
  0
VERTEX
  5
20B
  8
NOTE
  6
CONTINUOUS
 62
     4
 10
-859.8941769999999
 20
2367.3090000000002
 30
0.0
  0
VERTEX
  5
20C
  8
NOTE
  6
CONTINUOUS
 62
     4
 10
-835.0
 20
2336.0
 30
0.0
  0
VERTEX
  5
20D
  8
NOTE
  6
CONTINUOUS
 62
     4
 10
-872.21370100000001
 20
2350.6679999999992
 30
0.0
  0
SEQEND
  5
20E
  8
NOTE
  6
CONTINUOUS
 62
     4
  0
LINE
  5
1A2
  8
NOTE
  6
CONTINUOUS
 62
     4
 10
-835.0
 20
2316.0
 30
0.0
 11
-835.0
 21
2356.0
 31
0.0
  0
LINE
  5
1A3
  8
NOTE
  6
CONTINUOUS
 62
     4
 10
-815.0
 20
2336.0
 30
0.0
 11
-855.0
 21
2336.0
 31
0.0
  0
LINE
  5
1A4
  8
NOTE
  6
CONTINUOUS
 62
     4
 10
-805.0
 20
2316.0
 30
0.0
 11
-805.0
 21
2356.0
 31
0.0
  0
LINE
  5
1A5
  8
NOTE
  6
CONTINUOUS
 62
     4
 10
-785.0
 20
2336.0
 30
0.0
 11
-825.0
 21
2336.0
 31
0.0
  0
LINE
  5
1A6
  8
NOTE
  6
CONTINUOUS
 62
     4
 10
-705.0
 20
2316.0
 30
0.0
 11
-705.0
 21
2356.0
 31
0.0
  0
LINE
  5
1A7
  8
NOTE
  6
CONTINUOUS
 62
     4
 10
-685.0
 20
2336.0
 30
0.0
 11
-725.0
 21
2336.0
 31
0.0
  0
LINE
  5
1A8
  8
NOTE
  6
CONTINUOUS
 62
     4
 10
-605.0
 20
2316.0
 30
0.0
 11
-605.0
 21
2356.0
 31
0.0
  0
LINE
  5
1A9
  8
NOTE
  6
CONTINUOUS
 62
     4
 10
-585.0
 20
2336.0
 30
0.0
 11
-625.0
 21
2336.0
 31
0.0
  0
LINE
  5
1AA
  8
NOTE
  6
CONTINUOUS
 62
     4
 10
-505.0
 20
2316.0
 30
0.0
 11
-505.0
 21
2356.0
 31
0.0
  0
LINE
  5
1AB
  8
NOTE
  6
CONTINUOUS
 62
     4
 10
-485.0
 20
2336.0
 30
0.0
 11
-525.0
 21
2336.0
 31
0.0
  0
LINE
  5
1AC
  8
NOTE
  6
CONTINUOUS
 62
     4
 10
-405.0
 20
2316.0
 30
0.0
 11
-405.0
 21
2356.0
 31
0.0
  0
LINE
  5
1AD
  8
NOTE
  6
CONTINUOUS
 62
     4
 10
-385.0
 20
2336.0
 30
0.0
 11
-425.0
 21
2336.0
 31
0.0
  0
LINE
  5
1AE
  8
NOTE
  6
CONTINUOUS
 62
     4
 10
-305.0
 20
2316.0
 30
0.0
 11
-305.0
 21
2356.0
 31
0.0
  0
LINE
  5
1AF
  8
NOTE
  6
CONTINUOUS
 62
     4
 10
-285.0
 20
2336.0
 30
0.0
 11
-325.0
 21
2336.0
 31
0.0
  0
LINE
  5
1B0
  8
NOTE
  6
CONTINUOUS
 62
     4
 10
-205.0
 20
2316.0
 30
0.0
 11
-205.0
 21
2356.0
 31
0.0
  0
LINE
  5
1B1
  8
NOTE
  6
CONTINUOUS
 62
     4
 10
-185.0
 20
2336.0
 30
0.0
 11
-225.0
 21
2336.0
 31
0.0
  0
LINE
  5
1B2
  8
NOTE
  6
CONTINUOUS
 62
     4
 10
-105.0
 20
2316.0
 30
0.0
 11
-105.0
 21
2356.0
 31
0.0
  0
LINE
  5
1B3
  8
NOTE
  6
CONTINUOUS
 62
     4
 10
-85.0
 20
2336.0
 30
0.0
 11
-125.0
 21
2336.0
 31
0.0
  0
LINE
  5
1B4
  8
NOTE
  6
CONTINUOUS
 62
     4
 10
-75.0
 20
2316.0
 30
0.0
 11
-75.0
 21
2356.0
 31
0.0
  0
LINE
  5
1B5
  8
NOTE
  6
CONTINUOUS
 62
     4
 10
-55.0
 20
2336.0
 30
0.0
 11
-95.0
 21
2336.0
 31
0.0
  0
LINE
  5
1B6
  8
NOTE
  6
CONTINUOUS
 62
     4
 10
54.0
 20
2316.0
 30
0.0
 11
54.0
 21
2356.0
 31
0.0
  0
LINE
  5
1B7
  8
NOTE
  6
CONTINUOUS
 62
     4
 10
74.0
 20
2336.0
 30
0.0
 11
34.0
 21
2336.0
 31
0.0
  0
LINE
  5
1B8
  8
NOTE
  6
CONTINUOUS
 62
     4
 10
84.0
 20
2316.0
 30
0.0
 11
84.0
 21
2356.0
 31
0.0
  0
LINE
  5
1B9
  8
NOTE
  6
CONTINUOUS
 62
     4
 10
104.0
 20
2336.0
 30
0.0
 11
64.0
 21
2336.0
 31
0.0
  0
LINE
  5
1BA
  8
NOTE
  6
CONTINUOUS
 62
     4
 10
184.0
 20
2316.0
 30
0.0
 11
184.0
 21
2356.0
 31
0.0
  0
LINE
  5
1BB
  8
NOTE
  6
CONTINUOUS
 62
     4
 10
204.0
 20
2336.0
 30
0.0
 11
164.0
 21
2336.0
 31
0.0
  0
LINE
  5
1BC
  8
NOTE
  6
CONTINUOUS
 62
     4
 10
484.0
 20
2316.0
 30
0.0
 11
484.0
 21
2356.0
 31
0.0
  0
LINE
  5
1BD
  8
NOTE
  6
CONTINUOUS
 62
     4
 10
504.0
 20
2336.0
 30
0.0
 11
464.0
 21
2336.0
 31
0.0
  0
LINE
  5
1BE
  8
NOTE
  6
CONTINUOUS
 62
     4
 10
384.0
 20
2316.0
 30
0.0
 11
384.0
 21
2356.0
 31
0.0
  0
LINE
  5
1BF
  8
NOTE
  6
CONTINUOUS
 62
     4
 10
404.0
 20
2336.0
 30
0.0
 11
364.0
 21
2336.0
 31
0.0
  0
LINE
  5
1C0
  8
NOTE
  6
CONTINUOUS
 62
     4
 10
284.0
 20
2316.0
 30
0.0
 11
284.0
 21
2356.0
 31
0.0
  0
LINE
  5
1C1
  8
NOTE
  6
CONTINUOUS
 62
     4
 10
304.0
 20
2336.0
 30
0.0
 11
264.0
 21
2336.0
 31
0.0
  0
LINE
  5
1C2
  8
NOTE
  6
CONTINUOUS
 62
     4
 10
584.0
 20
2316.0
 30
0.0
 11
584.0
 21
2356.0
 31
0.0
  0
LINE
  5
1C3
  8
NOTE
  6
CONTINUOUS
 62
     4
 10
604.0
 20
2336.0
 30
0.0
 11
564.0
 21
2336.0
 31
0.0
  0
LINE
  5
1C4
  8
NOTE
  6
CONTINUOUS
 62
     4
 10
684.0
 20
2316.0
 30
0.0
 11
684.0
 21
2356.0
 31
0.0
  0
LINE
  5
1C5
  8
NOTE
  6
CONTINUOUS
 62
     4
 10
704.0
 20
2336.0
 30
0.0
 11
664.0
 21
2336.0
 31
0.0
  0
LINE
  5
1C6
  8
NOTE
  6
CONTINUOUS
 62
     4
 10
784.0
 20
2316.0
 30
0.0
 11
784.0
 21
2356.0
 31
0.0
  0
LINE
  5
1C7
  8
NOTE
  6
CONTINUOUS
 62
     4
 10
804.0
 20
2336.0
 30
0.0
 11
764.0
 21
2336.0
 31
0.0
  0
LINE
  5
1C8
  8
NOTE
  6
CONTINUOUS
 62
     4
 10
814.0
 20
2316.0
 30
0.0
 11
814.0
 21
2356.0
 31
0.0
  0
LINE
  5
1C9
  8
NOTE
  6
CONTINUOUS
 62
     4
 10
834.0
 20
2336.0
 30
0.0
 11
794.0
 21
2336.0
 31
0.0
  0
POLYLINE
  5
1CA
  8
NOTE
  6
CONTINUOUS
 62
     4
 66
     1
 10
0.0
 20
0.0
 30
0.0
  0
VERTEX
  5
20F
  8
NOTE
  6
CONTINUOUS
 62
     4
 10
863.00056300000006
 20
1095.9100000000001
 30
0.0
  0
VERTEX
  5
210
  8
NOTE
  6
CONTINUOUS
 62
     4
 10
845.0
 20
1060.1890000000001
 30
0.0
  0
VERTEX
  5
211
  8
NOTE
  6
CONTINUOUS
 62
     4
 10
842.72851600000001
 20
1100.124
 30
0.0
  0
SEQEND
  5
212
  8
NOTE
  6
CONTINUOUS
 62
     4
  0
POLYLINE
  5
1CF
  8
NOTE
  6
CONTINUOUS
 62
     4
 66
     1
 10
0.0
 20
0.0
 30
0.0
  0
VERTEX
  5
213
  8
NOTE
  6
CONTINUOUS
 62
     4
 10
866.03215299999988
 20
1441.0719999999999
 30
0.0
  0
VERTEX
  5
214
  8
NOTE
  6
CONTINUOUS
 62
     4
 10
845.0
 20
1407.0479999999991
 30
0.0
  0
VERTEX
  5
215
  8
NOTE
  6
CONTINUOUS
 62
     4
 10
846.20226199999991
 20
1447.0299999999991
 30
0.0
  0
SEQEND
  5
216
  8
NOTE
  6
CONTINUOUS
 62
     4
  0
POLYLINE
  5
1D4
  8
NOTE
  6
CONTINUOUS
 62
     4
 66
     1
 10
0.0
 20
0.0
 30
0.0
  0
VERTEX
  5
217
  8
NOTE
  6
CONTINUOUS
 62
     4
 10
870.52637799999991
 20
1837.877
 30
0.0
  0
VERTEX
  5
218
  8
NOTE
  6
CONTINUOUS
 62
     4
 10
845.0
 20
1807.0809999999999
 30
0.0
  0
VERTEX
  5
219
  8
NOTE
  6
CONTINUOUS
 62
     4
 10
851.70840700000008
 20
1846.513999999999
 30
0.0
  0
SEQEND
  5
21A
  8
NOTE
  6
CONTINUOUS
 62
     4
  0
POLYLINE
  5
1D9
  8
NOTE
  6
CONTINUOUS
 62
     4
 66
     1
 10
0.0
 20
0.0
 30
0.0
  0
VERTEX
  5
21B
  8
NOTE
  6
CONTINUOUS
 62
     4
 10
-476.79964400000011
 20
-29.694765
 30
0.0
  0
VERTEX
  5
21C
  8
NOTE
  6
CONTINUOUS
 62
     4
 10
-450.0
 20
0.0
 30
0.0
  0
VERTEX
  5
21D
  8
NOTE
  6
CONTINUOUS
 62
     4
 10
-488.056555
 20
-12.316599
 30
0.0
  0
SEQEND
  5
21E
  8
NOTE
  6
CONTINUOUS
 62
     4
  0
POLYLINE
  5
1DE
  8
NOTE
  6
CONTINUOUS
 62
     4
 66
     1
 10
0.0
 20
0.0
 30
0.0
  0
VERTEX
  5
21F
  8
NOTE
  6
CONTINUOUS
 62
     4
 10
827.66893299999992
 20
1619.8309999999999
 30
0.0
  0
VERTEX
  5
220
  8
NOTE
  6
CONTINUOUS
 62
     4
 10
824.0
 20
1580.0
 30
0.0
  0
VERTEX
  5
221
  8
NOTE
  6
CONTINUOUS
 62
     4
 10
807.26169900000002
 20
1616.329
 30
0.0
  0
SEQEND
  5
222
  8
NOTE
  6
CONTINUOUS
 62
     4
  0
LINE
  5
1E3
  8
NOTE
  6
CONTINUOUS
 62
     4
 10
824.0
 20
1560.0
 30
0.0
 11
824.0
 21
1600.0
 31
0.0
  0
LINE
  5
1E4
  8
NOTE
  6
CONTINUOUS
 62
     4
 10
844.0
 20
1580.0
 30
0.0
 11
804.0
 21
1580.0
 31
0.0
  0
LINE
  5
1E5
  8
NOTE
  6
CONTINUOUS
 62
     4
 10
-806.0
 20
653.5
 30
0.0
 11
-806.0
 21
693.5
 31
0.0
  0
LINE
  5
1E6
  8
NOTE
  6
CONTINUOUS
 62
     4
 10
-786.0
 20
673.5
 30
0.0
 11
-826.0
 21
673.5
 31
0.0
  0
LINE
  5
1E7
  8
NOTE
  6
CONTINUOUS
 62
     4
 10
806.0
 20
653.5
 30
0.0
 11
806.0
 21
693.5
 31
0.0
  0
LINE
  5
1E8
  8
NOTE
  6
CONTINUOUS
 62
     4
 10
826.0
 20
673.5
 30
0.0
 11
786.0
 21
673.5
 31
0.0
  0
LINE
  5
1E9
  8
NOTE
  6
CONTINUOUS
 62
     4
 10
-450.0
 20
-20.0
 30
0.0
 11
-450.0
 21
20.0
 31
0.0
  0
LINE
  5
1EA
  8
NOTE
  6
CONTINUOUS
 62
     4
 10
-430.0
 20
0.0
 30
0.0
 11
-470.0
 21
0.0
 31
0.0
  0
LINE
  5
1EB
  8
NOTE
  6
CONTINUOUS
 62
     4
 10
450.0
 20
-20.0
 30
0.0
 11
450.0
 21
20.0
 31
0.0
  0
LINE
  5
1EC
  8
NOTE
  6
CONTINUOUS
 62
     4
 10
470.0
 20
0.0
 30
0.0
 11
430.0
 21
0.0
 31
0.0
  0
TEXT
  5
1EF
  8
ETC
  6
CONTINUOUS
 62
    61
 10
1833.524492958177
 20
2594.9339969040589
 30
0.0
 40
64.0
  1
LPB-500KX4-50
 41
0.9
  0
TEXT
  5
1F1
  8
ETC
  6
CONTINUOUS
 62
    61
 10
1846.9651901573179
 20
2406.8538869779259
 30
0.0
 40
64.0
  1
LPB-500KX4-60
 41
0.9
  0
ENDSEC
  0
EOF
